  0
SECTION
  2
HEADER
  9
$ACADVER
  1
AC1014
  9
$HANDSEED
  5
FFFF
  9
$MEASUREMENT
 70
     1
  0
ENDSEC
  0
SECTION
  2
TABLES
  0
TABLE
  2
VPORT
  5
8
330
0
100
AcDbSymbolTable
 70
     4
  0
VPORT
  5
2E
330
8
100
AcDbSymbolTableRecord
100
AcDbViewportTableRecord
  2
*ACTIVE
 70
     0
 10
0.0
 20
0.0
 11
1.0
 21
1.0
 12
210.0
 22
148.5
 13
0.0
 23
0.0
 14
10.0
 24
10.0
 15
10.0
 25
10.0
 16
0.0
 26
0.0
 36
1.0
 17
0.0
 27
0.0
 37
0.0
 40
341.0
 41
1.24
 42
50.0
 43
0.0
 44
0.0
 50
0.0
 51
0.0
 71
     0
 72
   100
 73
     1
 74
     3
 75
     0
 76
     0
 77
     0
 78
     0
  0
ENDTAB
  0
TABLE
  2
LTYPE
  5
5
330
0
100
AcDbSymbolTable
 70
     1
  0
LTYPE
  5
14
330
5
100
AcDbSymbolTableRecord
100
AcDbLinetypeTableRecord
  2
BYBLOCK
 70
     0
  3

 72
    65
 73
     0
 40
0.0
  0
LTYPE
  5
15
330
5
100
AcDbSymbolTableRecord
100
AcDbLinetypeTableRecord
  2
BYLAYER
 70
     0
  3

 72
    65
 73
     0
 40
0.0
  0
LTYPE
  5
16
330
5
100
AcDbSymbolTableRecord
100
AcDbLinetypeTableRecord
  2
CONTINUOUS
 70
     0
  3
Solid line
 72
    65
 73
     0
 40
0.0
  0
ENDTAB
  0
TABLE
  2
LAYER
  5
2
100
AcDbSymbolTable
 70
2
  0
LAYER
  5
50
100
AcDbSymbolTableRecord
100
AcDbLayerTableRecord
  2
0
 70
0
  6
CONTINUOUS
  0
LAYER
  5
51
100
AcDbSymbolTableRecord
100
AcDbLayerTableRecord
  2
Layer_1
 70
0
  6
CONTINUOUS
  0
ENDTAB
  0
TABLE
  2
STYLE
  5
3
330
0
100
AcDbSymbolTable
 70
     1
  0
STYLE
  5
11
330
3
100
AcDbSymbolTableRecord
100
AcDbTextStyleTableRecord
  2
STANDARD
 70
     0
 40
0.0
 41
1.0
 50
0.0
 71
     0
 42
2.5
  3
txt
  4

  0
ENDTAB
  0
TABLE
  2
VIEW
  5
6
330
0
100
AcDbSymbolTable
 70
     0
  0
ENDTAB
  0
TABLE
  2
UCS
  5
7
330
0
100
AcDbSymbolTable
 70
     0
  0
ENDTAB
  0
TABLE
  2
APPID
  5
9
330
0
100
AcDbSymbolTable
 70
     2
  0
APPID
  5
12
330
9
100
AcDbSymbolTableRecord
100
AcDbRegAppTableRecord
  2
ACAD
 70
     0
  0
ENDTAB
  0
TABLE
  2
DIMSTYLE
  5
A
330
0
100
AcDbSymbolTable
 70
     1
  0
DIMSTYLE
105
27
330
A
100
AcDbSymbolTableRecord
100
AcDbDimStyleTableRecord
  2
ISO-25
 70
     0
  3

  4

  5

  6

  7

 40
1.0
 41
2.5
 42
0.625
 43
3.75
 44
1.25
 45
0.0
 46
0.0
 47
0.0
 48
0.0
140
2.5
141
2.5
142
0.0
143
0.03937007874016
144
1.0
145
0.0
146
1.0
147
0.625
 71
     0
 72
     0
 73
     0
 74
     0
 75
     0
 76
     0
 77
     1
 78
     8
170
     0
171
     3
172
     1
173
     0
174
     0
175
     0
176
     0
177
     0
178
     0
270
     2
271
     2
272
     2
273
     2
274
     3
340
11
275
     0
280
     0
281
     0
282
     0
283
     0
284
     8
285
     0
286
     0
287
     3
288
     0
  0
ENDTAB
  0
TABLE
  2
BLOCK_RECORD
  5
1
330
0
100
AcDbSymbolTable
 70
     1
  0
BLOCK_RECORD
  5
1F
330
1
100
AcDbSymbolTableRecord
100
AcDbBlockTableRecord
  2
*MODEL_SPACE
  0
BLOCK_RECORD
  5
1B
330
1
100
AcDbSymbolTableRecord
100
AcDbBlockTableRecord
  2
*PAPER_SPACE
  0
ENDTAB
  0
ENDSEC
  0
SECTION
  2
BLOCKS
  0
BLOCK
  5
20
330
1F
100
AcDbEntity
  8
0
100
AcDbBlockBegin
  2
*MODEL_SPACE
 70
     0
 10
0.0
 20
0.0
 30
0.0
  3
*MODEL_SPACE
  1

  0
ENDBLK
  5
21
330
1F
100
AcDbEntity
  8
0
100
AcDbBlockEnd
  0
BLOCK
  5
1C
330
1B
100
AcDbEntity
 67
     1
  8
0
100
AcDbBlockBegin
  2
*PAPER_SPACE
  1

  0
ENDBLK
  5
1D
330
1B
100
AcDbEntity
 67
     1
  8
0
100
AcDbBlockEnd
  0
ENDSEC
  0
SECTION
  2
ENTITIES
  0
SPLINE
  5
100
100
AcDbEntity
  8
Layer_1
 62
6
100
AcDbSpline
 70
8
 71
3
 72
8
 73
4
 74
0
 40
0
 40
0
 40
0
 40
0
 40
1
 40
1
 40
1
 40
1
 10
1483.406800
 20
32.944403
 30
0.0
 10
1494.811840
 20
33.129523
 30
0.0
 10
1499.775600
 20
35.979843
 30
0.0
 10
1506.209920
 20
44.250643
 30
0.0
  0
SPLINE
  5
101
100
AcDbEntity
  8
Layer_1
 62
6
100
AcDbSpline
 70
8
 71
3
 72
8
 73
4
 74
0
 40
0
 40
0
 40
0
 40
0
 40
1
 40
1
 40
1
 40
1
 10
1506.209920
 20
44.250643
 30
0.0
 10
1540.938480
 20
97.488067
 30
0.0
 10
1683.156000
 20
369.655395
 30
0.0
 10
1640.189600
 20
433.108531
 30
0.0
  0
SPLINE
  5
102
100
AcDbEntity
  8
Layer_1
 62
6
100
AcDbSpline
 70
8
 71
3
 72
8
 73
4
 74
0
 40
0
 40
0
 40
0
 40
0
 40
1
 40
1
 40
1
 40
1
 10
1640.189600
 20
433.108531
 30
0.0
 10
1620.356000
 20
462.398979
 30
0.0
 10
1593.886720
 20
472.701723
 30
0.0
 10
1569.205280
 20
472.655403
 30
0.0
  0
SPLINE
  5
103
100
AcDbEntity
  8
Layer_1
 62
6
100
AcDbSpline
 70
8
 71
3
 72
8
 73
4
 74
0
 40
0
 40
0
 40
0
 40
0
 40
1
 40
1
 40
1
 40
1
 10
1569.205280
 20
472.655403
 30
0.0
 10
1533.132320
 20
472.587643
 30
0.0
 10
1503.636400
 20
445.959555
 30
0.0
 10
1498.741200
 20
433.108531
 30
0.0
  0
SPLINE
  5
104
100
AcDbEntity
  8
Layer_1
 62
6
100
AcDbSpline
 70
8
 71
3
 72
8
 73
4
 74
0
 40
0
 40
0
 40
0
 40
0
 40
1
 40
1
 40
1
 40
1
 10
1498.741200
 20
433.108531
 30
0.0
 10
1488.635280
 20
406.578195
 30
0.0
 10
1469.057120
 20
328.727379
 30
0.0
 10
1439.494320
 20
281.927275
 30
0.0
  0
SPLINE
  5
105
100
AcDbEntity
  8
Layer_1
 62
6
100
AcDbSpline
 70
8
 71
3
 72
8
 73
4
 74
0
 40
0
 40
0
 40
0
 40
0
 40
1
 40
1
 40
1
 40
1
 10
1439.494320
 20
281.927275
 30
0.0
 10
1436.143280
 20
277.665219
 30
0.0
 10
1435.183440
 20
277.120675
 30
0.0
 10
1430.499040
 20
276.503843
 30
0.0
  0
SPLINE
  5
106
100
AcDbEntity
  8
Layer_1
 62
6
100
AcDbSpline
 70
8
 71
3
 72
8
 73
4
 74
0
 40
0
 40
0
 40
0
 40
0
 40
1
 40
1
 40
1
 40
1
 10
1430.499040
 20
276.503843
 30
0.0
 10
1186.265040
 20
249.663971
 30
0.0
 10
944.482160
 20
250.330835
 30
0.0
 10
717.155280
 20
276.503843
 30
0.0
  0
SPLINE
  5
107
100
AcDbEntity
  8
Layer_1
 62
6
100
AcDbSpline
 70
8
 71
3
 72
8
 73
4
 74
0
 40
0
 40
0
 40
0
 40
0
 40
1
 40
1
 40
1
 40
1
 10
717.155280
 20
276.503843
 30
0.0
 10
712.470880
 20
277.120675
 30
0.0
 10
711.509360
 20
277.665219
 30
0.0
 10
708.158400
 20
281.927275
 30
0.0
  0
SPLINE
  5
108
100
AcDbEntity
  8
Layer_1
 62
6
100
AcDbSpline
 70
8
 71
3
 72
8
 73
4
 74
0
 40
0
 40
0
 40
0
 40
0
 40
1
 40
1
 40
1
 40
1
 10
708.158400
 20
281.927275
 30
0.0
 10
678.595600
 20
328.727379
 30
0.0
 10
659.018960
 20
406.578195
 30
0.0
 10
648.913120
 20
433.108531
 30
0.0
  0
SPLINE
  5
109
100
AcDbEntity
  8
Layer_1
 62
6
100
AcDbSpline
 70
8
 71
3
 72
8
 73
4
 74
0
 40
0
 40
0
 40
0
 40
0
 40
1
 40
1
 40
1
 40
1
 10
648.913120
 20
433.108531
 30
0.0
 10
644.017920
 20
445.959555
 30
0.0
 10
614.521920
 20
472.587683
 30
0.0
 10
578.449040
 20
472.655403
 30
0.0
  0
SPLINE
  5
10a
100
AcDbEntity
  8
Layer_1
 62
6
100
AcDbSpline
 70
8
 71
3
 72
8
 73
4
 74
0
 40
0
 40
0
 40
0
 40
0
 40
1
 40
1
 40
1
 40
1
 10
578.449040
 20
472.655403
 30
0.0
 10
553.767600
 20
472.701723
 30
0.0
 10
527.298240
 20
462.398979
 30
0.0
 10
507.464640
 20
433.108531
 30
0.0
  0
SPLINE
  5
10b
100
AcDbEntity
  8
Layer_1
 62
6
100
AcDbSpline
 70
8
 71
3
 72
8
 73
4
 74
0
 40
0
 40
0
 40
0
 40
0
 40
1
 40
1
 40
1
 40
1
 10
507.464640
 20
433.108531
 30
0.0
 10
464.498240
 20
369.655395
 30
0.0
 10
606.715840
 20
124.688067
 30
0.0
 10
641.444320
 20
71.450707
 30
0.0
  0
SPLINE
  5
10c
100
AcDbEntity
  8
Layer_1
 62
6
100
AcDbSpline
 70
8
 71
3
 72
8
 73
4
 74
0
 40
0
 40
0
 40
0
 40
0
 40
1
 40
1
 40
1
 40
1
 10
641.444320
 20
71.450707
 30
0.0
 10
647.878720
 20
63.179907
 30
0.0
 10
652.842480
 20
60.329587
 30
0.0
 10
664.247440
 20
60.144467
 30
0.0
  0
LWPOLYLINE
  5
10d
100
AcDbEntity
  8
Layer_1
 62
6
100
AcDbPolyline
 90
2
 70
1
 10
1349.999600
 20
32.944403
 30
0.0
 10
1483.406800
 20
32.944403
 30
0.0
  0
LWPOLYLINE
  5
10e
100
AcDbEntity
  8
Layer_1
 62
6
100
AcDbPolyline
 90
3
 70
1
 10
664.247440
 20
60.144467
 30
0.0
 10
1349.999600
 20
60.144467
 30
0.0
 10
1349.999600
 20
32.944403
 30
0.0
  0
LWPOLYLINE
  5
10f
100
AcDbEntity
  8
Layer_1
 62
3
100
AcDbPolyline
 90
5
 70
1
 10
1015.717120
 20
85.505099
 30
0.0
 10
1072.409179
 20
85.505099
 30
0.0
 10
1072.409179
 20
68.497225
 30
0.0
 10
1015.717120
 20
68.497225
 30
0.0
 10
1015.717120
 20
85.505099
 30
0.0
  0
LWPOLYLINE
  5
110
100
AcDbEntity
  8
Layer_1
 62
3
100
AcDbPolyline
 90
5
 70
1
 10
1231.149920
 20
85.505099
 30
0.0
 10
1287.841979
 20
85.505099
 30
0.0
 10
1287.841979
 20
68.497225
 30
0.0
 10
1231.149920
 20
68.497225
 30
0.0
 10
1231.149920
 20
85.505099
 30
0.0
  0
SPLINE
  5
111
100
AcDbEntity
  8
Layer_1
 62
6
100
AcDbSpline
 70
8
 71
3
 72
8
 73
4
 74
0
 40
0
 40
0
 40
0
 40
0
 40
1
 40
1
 40
1
 40
1
 10
1357.463944
 20
862.598403
 30
0.0
 10
1368.868984
 20
862.413283
 30
0.0
 10
1373.832744
 20
859.562963
 30
0.0
 10
1380.267064
 20
851.292163
 30
0.0
  0
SPLINE
  5
112
100
AcDbEntity
  8
Layer_1
 62
6
100
AcDbSpline
 70
8
 71
3
 72
8
 73
4
 74
0
 40
0
 40
0
 40
0
 40
0
 40
1
 40
1
 40
1
 40
1
 10
1380.267064
 20
851.292163
 30
0.0
 10
1414.995624
 20
798.054739
 30
0.0
 10
1557.213144
 20
525.887411
 30
0.0
 10
1514.246744
 20
462.434275
 30
0.0
  0
SPLINE
  5
113
100
AcDbEntity
  8
Layer_1
 62
6
100
AcDbSpline
 70
8
 71
3
 72
8
 73
4
 74
0
 40
0
 40
0
 40
0
 40
0
 40
1
 40
1
 40
1
 40
1
 10
1514.246744
 20
462.434275
 30
0.0
 10
1494.413144
 20
433.143827
 30
0.0
 10
1467.943864
 20
422.841083
 30
0.0
 10
1443.262424
 20
422.887403
 30
0.0
  0
SPLINE
  5
114
100
AcDbEntity
  8
Layer_1
 62
6
100
AcDbSpline
 70
8
 71
3
 72
8
 73
4
 74
0
 40
0
 40
0
 40
0
 40
0
 40
1
 40
1
 40
1
 40
1
 10
1443.262424
 20
422.887403
 30
0.0
 10
1407.189464
 20
422.955163
 30
0.0
 10
1377.693544
 20
449.583251
 30
0.0
 10
1372.798344
 20
462.434275
 30
0.0
  0
SPLINE
  5
115
100
AcDbEntity
  8
Layer_1
 62
6
100
AcDbSpline
 70
8
 71
3
 72
8
 73
4
 74
0
 40
0
 40
0
 40
0
 40
0
 40
1
 40
1
 40
1
 40
1
 10
1372.798344
 20
462.434275
 30
0.0
 10
1362.692424
 20
488.964611
 30
0.0
 10
1343.114264
 20
566.815427
 30
0.0
 10
1313.551464
 20
613.615531
 30
0.0
  0
SPLINE
  5
116
100
AcDbEntity
  8
Layer_1
 62
6
100
AcDbSpline
 70
8
 71
3
 72
8
 73
4
 74
0
 40
0
 40
0
 40
0
 40
0
 40
1
 40
1
 40
1
 40
1
 10
1313.551464
 20
613.615531
 30
0.0
 10
1310.200424
 20
617.877587
 30
0.0
 10
1309.240584
 20
618.422131
 30
0.0
 10
1304.556184
 20
619.038963
 30
0.0
  0
SPLINE
  5
117
100
AcDbEntity
  8
Layer_1
 62
6
100
AcDbSpline
 70
8
 71
3
 72
8
 73
4
 74
0
 40
0
 40
0
 40
0
 40
0
 40
1
 40
1
 40
1
 40
1
 10
1304.556184
 20
619.038963
 30
0.0
 10
1060.322184
 20
645.878835
 30
0.0
 10
818.539304
 20
645.211971
 30
0.0
 10
591.212424
 20
619.038963
 30
0.0
  0
SPLINE
  5
118
100
AcDbEntity
  8
Layer_1
 62
6
100
AcDbSpline
 70
8
 71
3
 72
8
 73
4
 74
0
 40
0
 40
0
 40
0
 40
0
 40
1
 40
1
 40
1
 40
1
 10
591.212424
 20
619.038963
 30
0.0
 10
586.528024
 20
618.422131
 30
0.0
 10
585.566504
 20
617.877587
 30
0.0
 10
582.215544
 20
613.615531
 30
0.0
  0
SPLINE
  5
119
100
AcDbEntity
  8
Layer_1
 62
6
100
AcDbSpline
 70
8
 71
3
 72
8
 73
4
 74
0
 40
0
 40
0
 40
0
 40
0
 40
1
 40
1
 40
1
 40
1
 10
582.215544
 20
613.615531
 30
0.0
 10
552.652744
 20
566.815427
 30
0.0
 10
533.076104
 20
488.964611
 30
0.0
 10
522.970264
 20
462.434275
 30
0.0
  0
SPLINE
  5
11a
100
AcDbEntity
  8
Layer_1
 62
6
100
AcDbSpline
 70
8
 71
3
 72
8
 73
4
 74
0
 40
0
 40
0
 40
0
 40
0
 40
1
 40
1
 40
1
 40
1
 10
522.970264
 20
462.434275
 30
0.0
 10
518.075064
 20
449.583251
 30
0.0
 10
488.579064
 20
422.955123
 30
0.0
 10
452.506184
 20
422.887403
 30
0.0
  0
SPLINE
  5
11b
100
AcDbEntity
  8
Layer_1
 62
6
100
AcDbSpline
 70
8
 71
3
 72
8
 73
4
 74
0
 40
0
 40
0
 40
0
 40
0
 40
1
 40
1
 40
1
 40
1
 10
452.506184
 20
422.887403
 30
0.0
 10
427.824744
 20
422.841083
 30
0.0
 10
401.355384
 20
433.143827
 30
0.0
 10
381.521784
 20
462.434275
 30
0.0
  0
SPLINE
  5
11c
100
AcDbEntity
  8
Layer_1
 62
6
100
AcDbSpline
 70
8
 71
3
 72
8
 73
4
 74
0
 40
0
 40
0
 40
0
 40
0
 40
1
 40
1
 40
1
 40
1
 10
381.521784
 20
462.434275
 30
0.0
 10
338.555384
 20
525.887411
 30
0.0
 10
480.772984
 20
770.854739
 30
0.0
 10
515.501464
 20
824.092099
 30
0.0
  0
SPLINE
  5
11d
100
AcDbEntity
  8
Layer_1
 62
6
100
AcDbSpline
 70
8
 71
3
 72
8
 73
4
 74
0
 40
0
 40
0
 40
0
 40
0
 40
1
 40
1
 40
1
 40
1
 10
515.501464
 20
824.092099
 30
0.0
 10
521.935864
 20
832.362899
 30
0.0
 10
526.899624
 20
835.213219
 30
0.0
 10
538.304584
 20
835.398339
 30
0.0
  0
LWPOLYLINE
  5
11e
100
AcDbEntity
  8
Layer_1
 62
6
100
AcDbPolyline
 90
2
 70
1
 10
1224.056744
 20
862.598403
 30
0.0
 10
1357.463944
 20
862.598403
 30
0.0
  0
LWPOLYLINE
  5
11f
100
AcDbEntity
  8
Layer_1
 62
6
100
AcDbPolyline
 90
3
 70
1
 10
538.304584
 20
835.398339
 30
0.0
 10
1224.056744
 20
835.398339
 30
0.0
 10
1224.056744
 20
862.598403
 30
0.0
  0
LWPOLYLINE
  5
120
100
AcDbEntity
  8
Layer_1
 62
3
100
AcDbPolyline
 90
5
 70
1
 10
889.774264
 20
810.037707
 30
0.0
 10
946.466323
 20
810.037707
 30
0.0
 10
946.466323
 20
827.045581
 30
0.0
 10
889.774264
 20
827.045581
 30
0.0
 10
889.774264
 20
810.037707
 30
0.0
  0
SPLINE
  5
121
100
AcDbEntity
  8
Layer_1
 62
6
100
AcDbSpline
 70
8
 71
3
 72
8
 73
4
 74
0
 40
0
 40
0
 40
0
 40
0
 40
1
 40
1
 40
1
 40
1
 10
1051.299040
 20
623.405052
 30
0.0
 10
1049.901520
 20
622.007524
 30
0.0
 10
1049.699040
 20
619.253004
 30
0.0
 10
1049.699040
 20
619.253004
 30
0.0
  0
LWPOLYLINE
  5
122
100
AcDbEntity
  8
Layer_1
 62
3
100
AcDbPolyline
 90
5
 70
1
 10
1105.207064
 20
810.037707
 30
0.0
 10
1161.899123
 20
810.037707
 30
0.0
 10
1161.899123
 20
827.045581
 30
0.0
 10
1105.207064
 20
827.045581
 30
0.0
 10
1105.207064
 20
810.037707
 30
0.0
  0
SPLINE
  5
123
100
AcDbEntity
  8
Layer_1
 62
6
100
AcDbSpline
 70
8
 71
3
 72
8
 73
4
 74
0
 40
0
 40
0
 40
0
 40
0
 40
1
 40
1
 40
1
 40
1
 10
1049.699040
 20
564.852996
 30
0.0
 10
1049.699040
 20
564.852996
 30
0.0
 10
1049.557680
 20
561.507476
 30
0.0
 10
1048.449040
 20
560.467540
 30
0.0
  0
SPLINE
  5
124
100
AcDbEntity
  8
Layer_1
 62
6
100
AcDbSpline
 70
8
 71
3
 72
8
 73
4
 74
0
 40
0
 40
0
 40
0
 40
0
 40
1
 40
1
 40
1
 40
1
 10
1048.449040
 20
560.467540
 30
0.0
 10
1047.045040
 20
559.150548
 30
0.0
 10
1042.805440
 20
559.242540
 30
0.0
 10
1042.805440
 20
559.242540
 30
0.0
  0
LWPOLYLINE
  5
125
100
AcDbEntity
  8
Layer_1
 62
6
100
AcDbPolyline
 90
2
 70
1
 10
1049.699040
 20
619.253004
 30
0.0
 10
1049.699040
 20
564.852996
 30
0.0
  0
SPLINE
  5
126
100
AcDbEntity
  8
Layer_1
 62
6
100
AcDbSpline
 70
8
 71
3
 72
8
 73
4
 74
0
 40
0
 40
0
 40
0
 40
0
 40
1
 40
1
 40
1
 40
1
 10
1007.405440
 20
559.242540
 30
0.0
 10
1007.405440
 20
559.242540
 30
0.0
 10
1004.634480
 20
559.599932
 30
0.0
 10
1003.277120
 20
558.242540
 30
0.0
  0
SPLINE
  5
127
100
AcDbEntity
  8
Layer_1
 62
6
100
AcDbSpline
 70
8
 71
3
 72
8
 73
4
 74
0
 40
0
 40
0
 40
0
 40
0
 40
1
 40
1
 40
1
 40
1
 10
1003.277120
 20
558.242540
 30
0.0
 10
1001.919760
 20
556.885148
 30
0.0
 10
1002.077120
 20
553.052996
 30
0.0
 10
1002.077120
 20
553.052996
 30
0.0
  0
LWPOLYLINE
  5
128
100
AcDbEntity
  8
Layer_1
 62
6
100
AcDbPolyline
 90
2
 70
1
 10
1042.805440
 20
559.242540
 30
0.0
 10
1007.405440
 20
559.242540
 30
0.0
  0
SPLINE
  5
129
100
AcDbEntity
  8
Layer_1
 62
6
100
AcDbSpline
 70
8
 71
3
 72
8
 73
4
 74
0
 40
0
 40
0
 40
0
 40
0
 40
1
 40
1
 40
1
 40
1
 10
1002.077120
 20
415.252988
 30
0.0
 10
1002.077120
 20
415.252988
 30
0.0
 10
1002.228320
 20
411.536668
 30
0.0
 10
1003.677120
 20
410.087868
 30
0.0
  0
SPLINE
  5
12a
100
AcDbEntity
  8
Layer_1
 62
6
100
AcDbSpline
 70
8
 71
3
 72
8
 73
4
 74
0
 40
0
 40
0
 40
0
 40
0
 40
1
 40
1
 40
1
 40
1
 10
1003.677120
 20
410.087868
 30
0.0
 10
1005.125920
 20
408.639068
 30
0.0
 10
1008.005440
 20
408.887868
 30
0.0
 10
1008.005440
 20
408.887868
 30
0.0
  0
LWPOLYLINE
  5
12b
100
AcDbEntity
  8
Layer_1
 62
6
100
AcDbPolyline
 90
2
 70
1
 10
1002.077120
 20
553.052996
 30
0.0
 10
1002.077120
 20
415.252988
 30
0.0
  0
SPLINE
  5
12c
100
AcDbEntity
  8
Layer_1
 62
6
100
AcDbSpline
 70
8
 71
3
 72
8
 73
4
 74
0
 40
0
 40
0
 40
0
 40
0
 40
1
 40
1
 40
1
 40
1
 10
1045.005440
 20
408.887868
 30
0.0
 10
1045.005440
 20
408.887868
 30
0.0
 10
1047.234640
 20
408.352188
 30
0.0
 10
1048.499040
 20
407.087868
 30
0.0
  0
SPLINE
  5
12d
100
AcDbEntity
  8
Layer_1
 62
6
100
AcDbSpline
 70
8
 71
3
 72
8
 73
4
 74
0
 40
0
 40
0
 40
0
 40
0
 40
1
 40
1
 40
1
 40
1
 10
1048.499040
 20
407.087868
 30
0.0
 10
1049.763440
 20
405.823468
 30
0.0
 10
1049.699040
 20
402.852988
 30
0.0
 10
1049.699040
 20
402.852988
 30
0.0
  0
LWPOLYLINE
  5
12e
100
AcDbEntity
  8
Layer_1
 62
6
100
AcDbPolyline
 90
2
 70
1
 10
1008.005440
 20
408.887868
 30
0.0
 10
1045.005440
 20
408.887868
 30
0.0
  0
SPLINE
  5
12f
100
AcDbEntity
  8
Layer_1
 62
6
100
AcDbSpline
 70
8
 71
3
 72
8
 73
4
 74
0
 40
0
 40
0
 40
0
 40
0
 40
1
 40
1
 40
1
 40
1
 10
1049.699040
 20
348.652988
 30
0.0
 10
1049.699040
 20
348.652988
 30
0.0
 10
1049.868640
 20
346.094908
 30
0.0
 10
1048.499040
 20
344.725388
 30
0.0
  0
SPLINE
  5
130
100
AcDbEntity
  8
Layer_1
 62
6
100
AcDbSpline
 70
8
 71
3
 72
8
 73
4
 74
0
 40
0
 40
0
 40
0
 40
0
 40
1
 40
1
 40
1
 40
1
 10
1048.499040
 20
344.725388
 30
0.0
 10
1047.129440
 20
343.355788
 30
0.0
 10
1043.405440
 20
343.325388
 30
0.0
 10
1043.405440
 20
343.325388
 30
0.0
  0
LWPOLYLINE
  5
131
100
AcDbEntity
  8
Layer_1
 62
6
100
AcDbPolyline
 90
2
 70
1
 10
1049.699040
 20
402.852988
 30
0.0
 10
1049.699040
 20
348.652988
 30
0.0
  0
SPLINE
  5
132
100
AcDbEntity
  8
Layer_1
 62
6
100
AcDbSpline
 70
8
 71
3
 72
8
 73
4
 74
0
 40
0
 40
0
 40
0
 40
0
 40
1
 40
1
 40
1
 40
1
 10
1008.005440
 20
343.325388
 30
0.0
 10
1008.005440
 20
343.325388
 30
0.0
 10
1005.326400
 20
343.374988
 30
0.0
 10
1004.077120
 20
342.125388
 30
0.0
  0
SPLINE
  5
133
100
AcDbEntity
  8
Layer_1
 62
6
100
AcDbSpline
 70
8
 71
3
 72
8
 73
4
 74
0
 40
0
 40
0
 40
0
 40
0
 40
1
 40
1
 40
1
 40
1
 10
1004.077120
 20
342.125388
 30
0.0
 10
1002.827840
 20
340.876028
 30
0.0
 10
1002.077120
 20
338.652988
 30
0.0
 10
1002.077120
 20
338.652988
 30
0.0
  0
LWPOLYLINE
  5
134
100
AcDbEntity
  8
Layer_1
 62
6
100
AcDbPolyline
 90
2
 70
1
 10
1043.405440
 20
343.325388
 30
0.0
 10
1008.005440
 20
343.325388
 30
0.0
  0
SPLINE
  5
135
100
AcDbEntity
  8
Layer_1
 62
6
100
AcDbSpline
 70
8
 71
3
 72
8
 73
4
 74
0
 40
0
 40
0
 40
0
 40
0
 40
1
 40
1
 40
1
 40
1
 10
1214.120880
 20
620.453004
 30
0.0
 10
1214.120880
 20
620.453004
 30
0.0
 10
1214.425200
 20
622.700740
 30
0.0
 10
1213.120880
 20
624.005052
 30
0.0
  0
SPLINE
  5
136
100
AcDbEntity
  8
Layer_1
 62
6
100
AcDbSpline
 70
8
 71
3
 72
8
 73
4
 74
0
 40
0
 40
0
 40
0
 40
0
 40
1
 40
1
 40
1
 40
1
 10
1213.120880
 20
624.005052
 30
0.0
 10
1211.816560
 20
625.309364
 30
0.0
 10
1207.405440
 20
624.805052
 30
0.0
 10
1207.405440
 20
624.805052
 30
0.0
  0
LWPOLYLINE
  5
137
100
AcDbEntity
  8
Layer_1
 62
6
100
AcDbPolyline
 90
6
 70
1
 10
1002.077120
 20
338.652988
 30
0.0
 10
1002.077120
 20
266.984748
 30
0.0
 10
1157.994320
 20
266.984748
 30
0.0
 10
1157.994320
 20
337.008188
 30
0.0
 10
1214.120880
 20
337.008188
 30
0.0
 10
1214.120880
 20
620.453004
 30
0.0
  0
SPLINE
  5
138
100
AcDbEntity
  8
Layer_1
 62
6
100
AcDbSpline
 70
8
 71
3
 72
8
 73
4
 74
0
 40
0
 40
0
 40
0
 40
0
 40
1
 40
1
 40
1
 40
1
 10
1163.405440
 20
624.805052
 30
0.0
 10
1163.405440
 20
624.805052
 30
0.0
 10
1160.662800
 20
625.073500
 30
0.0
 10
1159.394320
 20
623.805052
 30
0.0
  0
SPLINE
  5
139
100
AcDbEntity
  8
Layer_1
 62
6
100
AcDbSpline
 70
8
 71
3
 72
8
 73
4
 74
0
 40
0
 40
0
 40
0
 40
0
 40
1
 40
1
 40
1
 40
1
 10
1159.394320
 20
623.805052
 30
0.0
 10
1158.125840
 20
622.536604
 30
0.0
 10
1157.994320
 20
619.453004
 30
0.0
 10
1157.994320
 20
619.453004
 30
0.0
  0
LWPOLYLINE
  5
13a
100
AcDbEntity
  8
Layer_1
 62
6
100
AcDbPolyline
 90
2
 70
1
 10
1207.405440
 20
624.805052
 30
0.0
 10
1163.405440
 20
624.805052
 30
0.0
  0
SPLINE
  5
13b
100
AcDbEntity
  8
Layer_1
 62
6
100
AcDbSpline
 70
8
 71
3
 72
8
 73
4
 74
0
 40
0
 40
0
 40
0
 40
0
 40
1
 40
1
 40
1
 40
1
 10
1157.994320
 20
446.652988
 30
0.0
 10
1157.994320
 20
446.652988
 30
0.0
 10
1158.280640
 20
443.316348
 30
0.0
 10
1156.794320
 20
441.830028
 30
0.0
  0
SPLINE
  5
13c
100
AcDbEntity
  8
Layer_1
 62
6
100
AcDbSpline
 70
8
 71
3
 72
8
 73
4
 74
0
 40
0
 40
0
 40
0
 40
0
 40
1
 40
1
 40
1
 40
1
 10
1156.794320
 20
441.830028
 30
0.0
 10
1155.308000
 20
440.343708
 30
0.0
 10
1152.005440
 20
440.030028
 30
0.0
 10
1152.005440
 20
440.030028
 30
0.0
  0
LWPOLYLINE
  5
13d
100
AcDbEntity
  8
Layer_1
 62
6
100
AcDbPolyline
 90
2
 70
1
 10
1157.994320
 20
619.453004
 30
0.0
 10
1157.994320
 20
446.652988
 30
0.0
  0
SPLINE
  5
13e
100
AcDbEntity
  8
Layer_1
 62
6
100
AcDbSpline
 70
8
 71
3
 72
8
 73
4
 74
0
 40
0
 40
0
 40
0
 40
0
 40
1
 40
1
 40
1
 40
1
 10
1114.605440
 20
440.030028
 30
0.0
 10
1114.605440
 20
440.030028
 30
0.0
 10
1112.686880
 20
439.915628
 30
0.0
 10
1111.572480
 20
441.030028
 30
0.0
  0
SPLINE
  5
13f
100
AcDbEntity
  8
Layer_1
 62
6
100
AcDbSpline
 70
8
 71
3
 72
8
 73
4
 74
0
 40
0
 40
0
 40
0
 40
0
 40
1
 40
1
 40
1
 40
1
 10
1111.572480
 20
441.030028
 30
0.0
 10
1110.458080
 20
442.144428
 30
0.0
 10
1110.372480
 20
445.252988
 30
0.0
 10
1110.372480
 20
445.252988
 30
0.0
  0
LWPOLYLINE
  5
140
100
AcDbEntity
  8
Layer_1
 62
6
100
AcDbPolyline
 90
2
 70
1
 10
1152.005440
 20
440.030028
 30
0.0
 10
1114.605440
 20
440.030028
 30
0.0
  0
SPLINE
  5
141
100
AcDbEntity
  8
Layer_1
 62
6
100
AcDbSpline
 70
8
 71
3
 72
8
 73
4
 74
0
 40
0
 40
0
 40
0
 40
0
 40
1
 40
1
 40
1
 40
1
 10
1110.372480
 20
619.853004
 30
0.0
 10
1110.372480
 20
619.853004
 30
0.0
 10
1110.165040
 20
622.012508
 30
0.0
 10
1108.972480
 20
623.205052
 30
0.0
  0
SPLINE
  5
142
100
AcDbEntity
  8
Layer_1
 62
6
100
AcDbSpline
 70
8
 71
3
 72
8
 73
4
 74
0
 40
0
 40
0
 40
0
 40
0
 40
1
 40
1
 40
1
 40
1
 10
1108.972480
 20
623.205052
 30
0.0
 10
1107.779920
 20
624.397596
 30
0.0
 10
1105.205440
 20
624.805052
 30
0.0
 10
1105.205440
 20
624.805052
 30
0.0
  0
LWPOLYLINE
  5
143
100
AcDbEntity
  8
Layer_1
 62
6
100
AcDbPolyline
 90
2
 70
1
 10
1110.372480
 20
445.252988
 30
0.0
 10
1110.372480
 20
619.853004
 30
0.0
  0
SPLINE
  5
144
100
AcDbEntity
  8
Layer_1
 62
6
100
AcDbSpline
 70
8
 71
3
 72
8
 73
4
 74
0
 40
0
 40
0
 40
0
 40
0
 40
1
 40
1
 40
1
 40
1
 10
1056.005440
 20
624.805052
 30
0.0
 10
1056.005440
 20
624.805052
 30
0.0
 10
1052.696560
 20
624.802652
 30
0.0
 10
1051.299040
 20
623.405052
 30
0.0
  0
LWPOLYLINE
  5
145
100
AcDbEntity
  8
Layer_1
 62
6
100
AcDbPolyline
 90
2
 70
1
 10
1105.205440
 20
624.805052
 30
0.0
 10
1056.005440
 20
624.805052
 30
0.0
  0
SPLINE
  5
146
100
AcDbEntity
  8
Layer_1
 62
6
100
AcDbSpline
 70
8
 71
3
 72
8
 73
4
 74
0
 40
0
 40
0
 40
0
 40
0
 40
1
 40
1
 40
1
 40
1
 10
950.529600
 20
623.405052
 30
0.0
 10
951.927120
 20
622.007524
 30
0.0
 10
952.129600
 20
619.253004
 30
0.0
 10
952.129600
 20
619.253004
 30
0.0
  0
LWPOLYLINE
  5
147
100
AcDbEntity
  8
Layer_1
 62
6
100
AcDbPolyline
 90
2
 70
1
 10
1051.299040
 20
623.405052
 30
0.0
 10
1051.299040
 20
623.405052
 30
0.0
  0
SPLINE
  5
148
100
AcDbEntity
  8
Layer_1
 62
6
100
AcDbSpline
 70
8
 71
3
 72
8
 73
4
 74
0
 40
0
 40
0
 40
0
 40
0
 40
1
 40
1
 40
1
 40
1
 10
952.129600
 20
564.852996
 30
0.0
 10
952.129600
 20
564.852996
 30
0.0
 10
952.270960
 20
561.507476
 30
0.0
 10
953.379600
 20
560.467540
 30
0.0
  0
SPLINE
  5
149
100
AcDbEntity
  8
Layer_1
 62
6
100
AcDbSpline
 70
8
 71
3
 72
8
 73
4
 74
0
 40
0
 40
0
 40
0
 40
0
 40
1
 40
1
 40
1
 40
1
 10
953.379600
 20
560.467540
 30
0.0
 10
954.783600
 20
559.150548
 30
0.0
 10
959.023200
 20
559.242540
 30
0.0
 10
959.023200
 20
559.242540
 30
0.0
  0
LWPOLYLINE
  5
14a
100
AcDbEntity
  8
Layer_1
 62
6
100
AcDbPolyline
 90
2
 70
1
 10
952.129600
 20
619.253004
 30
0.0
 10
952.129600
 20
564.852996
 30
0.0
  0
SPLINE
  5
14b
100
AcDbEntity
  8
Layer_1
 62
6
100
AcDbSpline
 70
8
 71
3
 72
8
 73
4
 74
0
 40
0
 40
0
 40
0
 40
0
 40
1
 40
1
 40
1
 40
1
 10
994.423200
 20
559.242540
 30
0.0
 10
994.423200
 20
559.242540
 30
0.0
 10
997.194160
 20
559.599932
 30
0.0
 10
998.551520
 20
558.242540
 30
0.0
  0
SPLINE
  5
14c
100
AcDbEntity
  8
Layer_1
 62
6
100
AcDbSpline
 70
8
 71
3
 72
8
 73
4
 74
0
 40
0
 40
0
 40
0
 40
0
 40
1
 40
1
 40
1
 40
1
 10
998.551520
 20
558.242540
 30
0.0
 10
999.908880
 20
556.885148
 30
0.0
 10
999.751520
 20
553.052996
 30
0.0
 10
999.751520
 20
553.052996
 30
0.0
  0
LWPOLYLINE
  5
14d
100
AcDbEntity
  8
Layer_1
 62
6
100
AcDbPolyline
 90
2
 70
1
 10
959.023200
 20
559.242540
 30
0.0
 10
994.423200
 20
559.242540
 30
0.0
  0
SPLINE
  5
14e
100
AcDbEntity
  8
Layer_1
 62
6
100
AcDbSpline
 70
8
 71
3
 72
8
 73
4
 74
0
 40
0
 40
0
 40
0
 40
0
 40
1
 40
1
 40
1
 40
1
 10
999.751520
 20
415.252988
 30
0.0
 10
999.751520
 20
415.252988
 30
0.0
 10
999.600320
 20
411.536668
 30
0.0
 10
998.151520
 20
410.087868
 30
0.0
  0
SPLINE
  5
14f
100
AcDbEntity
  8
Layer_1
 62
6
100
AcDbSpline
 70
8
 71
3
 72
8
 73
4
 74
0
 40
0
 40
0
 40
0
 40
0
 40
1
 40
1
 40
1
 40
1
 10
998.151520
 20
410.087868
 30
0.0
 10
996.702720
 20
408.639068
 30
0.0
 10
993.823200
 20
408.887868
 30
0.0
 10
993.823200
 20
408.887868
 30
0.0
  0
LWPOLYLINE
  5
150
100
AcDbEntity
  8
Layer_1
 62
6
100
AcDbPolyline
 90
2
 70
1
 10
999.751520
 20
553.052996
 30
0.0
 10
999.751520
 20
415.252988
 30
0.0
  0
SPLINE
  5
151
100
AcDbEntity
  8
Layer_1
 62
6
100
AcDbSpline
 70
8
 71
3
 72
8
 73
4
 74
0
 40
0
 40
0
 40
0
 40
0
 40
1
 40
1
 40
1
 40
1
 10
956.823200
 20
408.887868
 30
0.0
 10
956.823200
 20
408.887868
 30
0.0
 10
954.594000
 20
408.352188
 30
0.0
 10
953.329600
 20
407.087868
 30
0.0
  0
SPLINE
  5
152
100
AcDbEntity
  8
Layer_1
 62
6
100
AcDbSpline
 70
8
 71
3
 72
8
 73
4
 74
0
 40
0
 40
0
 40
0
 40
0
 40
1
 40
1
 40
1
 40
1
 10
953.329600
 20
407.087868
 30
0.0
 10
952.065200
 20
405.823468
 30
0.0
 10
952.129600
 20
402.852988
 30
0.0
 10
952.129600
 20
402.852988
 30
0.0
  0
LWPOLYLINE
  5
153
100
AcDbEntity
  8
Layer_1
 62
6
100
AcDbPolyline
 90
2
 70
1
 10
993.823200
 20
408.887868
 30
0.0
 10
956.823200
 20
408.887868
 30
0.0
  0
SPLINE
  5
154
100
AcDbEntity
  8
Layer_1
 62
6
100
AcDbSpline
 70
8
 71
3
 72
8
 73
4
 74
0
 40
0
 40
0
 40
0
 40
0
 40
1
 40
1
 40
1
 40
1
 10
952.129600
 20
348.652988
 30
0.0
 10
952.129600
 20
348.652988
 30
0.0
 10
951.960000
 20
346.094908
 30
0.0
 10
953.329600
 20
344.725388
 30
0.0
  0
SPLINE
  5
155
100
AcDbEntity
  8
Layer_1
 62
6
100
AcDbSpline
 70
8
 71
3
 72
8
 73
4
 74
0
 40
0
 40
0
 40
0
 40
0
 40
1
 40
1
 40
1
 40
1
 10
953.329600
 20
344.725388
 30
0.0
 10
954.699200
 20
343.355788
 30
0.0
 10
958.423200
 20
343.325388
 30
0.0
 10
958.423200
 20
343.325388
 30
0.0
  0
LWPOLYLINE
  5
156
100
AcDbEntity
  8
Layer_1
 62
6
100
AcDbPolyline
 90
2
 70
1
 10
952.129600
 20
402.852988
 30
0.0
 10
952.129600
 20
348.652988
 30
0.0
  0
SPLINE
  5
157
100
AcDbEntity
  8
Layer_1
 62
6
100
AcDbSpline
 70
8
 71
3
 72
8
 73
4
 74
0
 40
0
 40
0
 40
0
 40
0
 40
1
 40
1
 40
1
 40
1
 10
993.823200
 20
343.325388
 30
0.0
 10
993.823200
 20
343.325388
 30
0.0
 10
996.502240
 20
343.374988
 30
0.0
 10
997.751520
 20
342.125388
 30
0.0
  0
SPLINE
  5
158
100
AcDbEntity
  8
Layer_1
 62
6
100
AcDbSpline
 70
8
 71
3
 72
8
 73
4
 74
0
 40
0
 40
0
 40
0
 40
0
 40
1
 40
1
 40
1
 40
1
 10
997.751520
 20
342.125388
 30
0.0
 10
999.000800
 20
340.876028
 30
0.0
 10
999.751520
 20
338.652988
 30
0.0
 10
999.751520
 20
338.652988
 30
0.0
  0
LWPOLYLINE
  5
159
100
AcDbEntity
  8
Layer_1
 62
6
100
AcDbPolyline
 90
2
 70
1
 10
958.423200
 20
343.325388
 30
0.0
 10
993.823200
 20
343.325388
 30
0.0
  0
SPLINE
  5
15a
100
AcDbEntity
  8
Layer_1
 62
6
100
AcDbSpline
 70
8
 71
3
 72
8
 73
4
 74
0
 40
0
 40
0
 40
0
 40
0
 40
1
 40
1
 40
1
 40
1
 10
787.707760
 20
620.453004
 30
0.0
 10
787.707760
 20
620.453004
 30
0.0
 10
787.403440
 20
622.700740
 30
0.0
 10
788.707760
 20
624.005052
 30
0.0
  0
SPLINE
  5
15b
100
AcDbEntity
  8
Layer_1
 62
6
100
AcDbSpline
 70
8
 71
3
 72
8
 73
4
 74
0
 40
0
 40
0
 40
0
 40
0
 40
1
 40
1
 40
1
 40
1
 10
788.707760
 20
624.005052
 30
0.0
 10
790.012080
 20
625.309364
 30
0.0
 10
794.423200
 20
624.805052
 30
0.0
 10
794.423200
 20
624.805052
 30
0.0
  0
LWPOLYLINE
  5
15c
100
AcDbEntity
  8
Layer_1
 62
6
100
AcDbPolyline
 90
6
 70
1
 10
999.751520
 20
338.652988
 30
0.0
 10
999.751520
 20
266.984748
 30
0.0
 10
843.834320
 20
266.984748
 30
0.0
 10
843.834320
 20
337.008188
 30
0.0
 10
787.707760
 20
337.008188
 30
0.0
 10
787.707760
 20
620.453004
 30
0.0
  0
SPLINE
  5
15d
100
AcDbEntity
  8
Layer_1
 62
6
100
AcDbSpline
 70
8
 71
3
 72
8
 73
4
 74
0
 40
0
 40
0
 40
0
 40
0
 40
1
 40
1
 40
1
 40
1
 10
838.423200
 20
624.805052
 30
0.0
 10
838.423200
 20
624.805052
 30
0.0
 10
841.165840
 20
625.073500
 30
0.0
 10
842.434320
 20
623.805052
 30
0.0
  0
SPLINE
  5
15e
100
AcDbEntity
  8
Layer_1
 62
6
100
AcDbSpline
 70
8
 71
3
 72
8
 73
4
 74
0
 40
0
 40
0
 40
0
 40
0
 40
1
 40
1
 40
1
 40
1
 10
842.434320
 20
623.805052
 30
0.0
 10
843.702800
 20
622.536604
 30
0.0
 10
843.834320
 20
619.453004
 30
0.0
 10
843.834320
 20
619.453004
 30
0.0
  0
LWPOLYLINE
  5
15f
100
AcDbEntity
  8
Layer_1
 62
6
100
AcDbPolyline
 90
2
 70
1
 10
794.423200
 20
624.805052
 30
0.0
 10
838.423200
 20
624.805052
 30
0.0
  0
SPLINE
  5
160
100
AcDbEntity
  8
Layer_1
 62
6
100
AcDbSpline
 70
8
 71
3
 72
8
 73
4
 74
0
 40
0
 40
0
 40
0
 40
0
 40
1
 40
1
 40
1
 40
1
 10
843.834320
 20
446.652988
 30
0.0
 10
843.834320
 20
446.652988
 30
0.0
 10
843.548000
 20
443.316348
 30
0.0
 10
845.034320
 20
441.830028
 30
0.0
  0
SPLINE
  5
161
100
AcDbEntity
  8
Layer_1
 62
6
100
AcDbSpline
 70
8
 71
3
 72
8
 73
4
 74
0
 40
0
 40
0
 40
0
 40
0
 40
1
 40
1
 40
1
 40
1
 10
845.034320
 20
441.830028
 30
0.0
 10
846.520640
 20
440.343708
 30
0.0
 10
849.823200
 20
440.030028
 30
0.0
 10
849.823200
 20
440.030028
 30
0.0
  0
LWPOLYLINE
  5
162
100
AcDbEntity
  8
Layer_1
 62
6
100
AcDbPolyline
 90
2
 70
1
 10
843.834320
 20
619.453004
 30
0.0
 10
843.834320
 20
446.652988
 30
0.0
  0
SPLINE
  5
163
100
AcDbEntity
  8
Layer_1
 62
6
100
AcDbSpline
 70
8
 71
3
 72
8
 73
4
 74
0
 40
0
 40
0
 40
0
 40
0
 40
1
 40
1
 40
1
 40
1
 10
887.223200
 20
440.030028
 30
0.0
 10
887.223200
 20
440.030028
 30
0.0
 10
889.141760
 20
439.915628
 30
0.0
 10
890.256160
 20
441.030028
 30
0.0
  0
SPLINE
  5
164
100
AcDbEntity
  8
Layer_1
 62
6
100
AcDbSpline
 70
8
 71
3
 72
8
 73
4
 74
0
 40
0
 40
0
 40
0
 40
0
 40
1
 40
1
 40
1
 40
1
 10
890.256160
 20
441.030028
 30
0.0
 10
891.370560
 20
442.144428
 30
0.0
 10
891.456160
 20
445.252988
 30
0.0
 10
891.456160
 20
445.252988
 30
0.0
  0
LWPOLYLINE
  5
165
100
AcDbEntity
  8
Layer_1
 62
6
100
AcDbPolyline
 90
2
 70
1
 10
849.823200
 20
440.030028
 30
0.0
 10
887.223200
 20
440.030028
 30
0.0
  0
SPLINE
  5
166
100
AcDbEntity
  8
Layer_1
 62
6
100
AcDbSpline
 70
8
 71
3
 72
8
 73
4
 74
0
 40
0
 40
0
 40
0
 40
0
 40
1
 40
1
 40
1
 40
1
 10
891.456160
 20
619.853004
 30
0.0
 10
891.456160
 20
619.853004
 30
0.0
 10
891.663600
 20
622.012508
 30
0.0
 10
892.856160
 20
623.205052
 30
0.0
  0
SPLINE
  5
167
100
AcDbEntity
  8
Layer_1
 62
6
100
AcDbSpline
 70
8
 71
3
 72
8
 73
4
 74
0
 40
0
 40
0
 40
0
 40
0
 40
1
 40
1
 40
1
 40
1
 10
892.856160
 20
623.205052
 30
0.0
 10
894.048720
 20
624.397596
 30
0.0
 10
896.623200
 20
624.805052
 30
0.0
 10
896.623200
 20
624.805052
 30
0.0
  0
LWPOLYLINE
  5
168
100
AcDbEntity
  8
Layer_1
 62
6
100
AcDbPolyline
 90
2
 70
1
 10
891.456160
 20
445.252988
 30
0.0
 10
891.456160
 20
619.853004
 30
0.0
  0
SPLINE
  5
169
100
AcDbEntity
  8
Layer_1
 62
6
100
AcDbSpline
 70
8
 71
3
 72
8
 73
4
 74
0
 40
0
 40
0
 40
0
 40
0
 40
1
 40
1
 40
1
 40
1
 10
945.823200
 20
624.805052
 30
0.0
 10
945.823200
 20
624.805052
 30
0.0
 10
949.132080
 20
624.802652
 30
0.0
 10
950.529600
 20
623.405052
 30
0.0
  0
LWPOLYLINE
  5
16a
100
AcDbEntity
  8
Layer_1
 62
6
100
AcDbPolyline
 90
2
 70
1
 10
896.623200
 20
624.805052
 30
0.0
 10
945.823200
 20
624.805052
 30
0.0
  0
LWPOLYLINE
  5
16b
100
AcDbEntity
  8
Layer_1
 62
6
100
AcDbPolyline
 90
2
 70
1
 10
950.529600
 20
623.405052
 30
0.0
 10
950.529600
 20
623.405052
 30
0.0
  0
LWPOLYLINE
  5
16c
100
AcDbEntity
  8
Layer_1
 62
5
100
AcDbPolyline
 90
65
 70
1
 10
67.365293
 20
74.098139
 30
0.0
 10
67.365293
 20
40.081043
 30
0.0
 10
124.057536
 20
40.081043
 30
0.0
 10
124.057536
 20
74.096619
 30
0.0
 10
154.529376
 20
74.096619
 30
0.0
 10
154.529376
 20
105.277819
 30
0.0
 10
148.151296
 20
105.277819
 30
0.0
 10
148.151296
 20
122.285659
 30
0.0
 10
154.529376
 20
122.285659
 30
0.0
 10
154.529376
 20
153.467019
 30
0.0
 10
172.954416
 20
153.467019
 30
0.0
 10
172.954416
 20
122.285659
 30
0.0
 10
179.332496
 20
122.285659
 30
0.0
 10
179.332496
 20
105.277819
 30
0.0
 10
172.954416
 20
105.277819
 30
0.0
 10
172.954416
 20
74.096619
 30
0.0
 10
233.899688
 20
74.096619
 30
0.0
 10
233.899688
 20
105.277819
 30
0.0
 10
227.521608
 20
105.277819
 30
0.0
 10
227.521608
 20
122.285659
 30
0.0
 10
233.899688
 20
122.285659
 30
0.0
 10
233.899688
 20
153.467019
 30
0.0
 10
252.324728
 20
153.467019
 30
0.0
 10
252.324728
 20
122.285659
 30
0.0
 10
258.702808
 20
122.285659
 30
0.0
 10
258.702808
 20
105.277819
 30
0.0
 10
252.324728
 20
105.277819
 30
0.0
 10
252.324728
 20
74.096619
 30
0.0
 10
282.798168
 20
74.096619
 30
0.0
 10
282.798168
 20
40.081043
 30
0.0
 10
339.491848
 20
40.081043
 30
0.0
 10
339.491848
 20
74.096619
 30
0.0
 10
339.491848
 20
890.474756
 30
0.0
 10
339.491848
 20
924.490379
 30
0.0
 10
282.798168
 20
924.490379
 30
0.0
 10
282.798168
 20
890.474756
 30
0.0
 10
252.324728
 20
890.474756
 30
0.0
 10
252.324728
 20
859.293508
 30
0.0
 10
258.702808
 20
859.293508
 30
0.0
 10
258.702808
 20
842.285692
 30
0.0
 10
252.324728
 20
842.285692
 30
0.0
 10
252.324728
 20
811.104444
 30
0.0
 10
233.899688
 20
811.104444
 30
0.0
 10
233.899688
 20
842.285692
 30
0.0
 10
227.521608
 20
842.285692
 30
0.0
 10
227.521608
 20
859.293508
 30
0.0
 10
233.899688
 20
859.293508
 30
0.0
 10
233.899688
 20
890.474756
 30
0.0
 10
172.954416
 20
890.474756
 30
0.0
 10
172.954416
 20
859.293508
 30
0.0
 10
179.332496
 20
859.293508
 30
0.0
 10
179.332496
 20
842.285692
 30
0.0
 10
172.954416
 20
842.285692
 30
0.0
 10
172.954416
 20
811.104444
 30
0.0
 10
154.529376
 20
811.104444
 30
0.0
 10
154.529376
 20
842.285692
 30
0.0
 10
148.151296
 20
842.285692
 30
0.0
 10
148.151296
 20
859.293508
 30
0.0
 10
154.529376
 20
859.293508
 30
0.0
 10
154.529376
 20
890.474756
 30
0.0
 10
124.057536
 20
890.474756
 30
0.0
 10
124.057536
 20
924.490379
 30
0.0
 10
67.365293
 20
924.490379
 30
0.0
 10
67.365293
 20
890.473196
 30
0.0
 10
67.365293
 20
74.098139
 30
0.0
  0
SPLINE
  5
16d
100
AcDbEntity
  8
Layer_1
 62
3
100
AcDbSpline
 70
8
 71
3
 72
8
 73
4
 74
0
 40
0
 40
0
 40
0
 40
0
 40
1
 40
1
 40
1
 40
1
 10
906.376990
 20
1001.653414
 30
0.0
 10
906.376992
 20
998.522354
 30
0.0
 10
903.838770
 20
995.984126
 30
0.0
 10
900.707710
 20
995.984118
 30
0.0
  0
SPLINE
  5
16e
100
AcDbEntity
  8
Layer_1
 62
3
100
AcDbSpline
 70
8
 71
3
 72
8
 73
4
 74
0
 40
0
 40
0
 40
0
 40
0
 40
1
 40
1
 40
1
 40
1
 10
900.707710
 20
995.984118
 30
0.0
 10
897.576649
 20
995.984126
 30
0.0
 10
895.038427
 20
998.522354
 30
0.0
 10
895.038430
 20
1001.653414
 30
0.0
  0
SPLINE
  5
16f
100
AcDbEntity
  8
Layer_1
 62
3
100
AcDbSpline
 70
8
 71
3
 72
8
 73
4
 74
0
 40
0
 40
0
 40
0
 40
0
 40
1
 40
1
 40
1
 40
1
 10
895.038430
 20
1001.653414
 30
0.0
 10
895.038432
 20
1004.784471
 30
0.0
 10
897.576652
 20
1007.322695
 30
0.0
 10
900.707710
 20
1007.322702
 30
0.0
  0
SPLINE
  5
170
100
AcDbEntity
  8
Layer_1
 62
3
100
AcDbSpline
 70
8
 71
3
 72
8
 73
4
 74
0
 40
0
 40
0
 40
0
 40
0
 40
1
 40
1
 40
1
 40
1
 10
900.707710
 20
1007.322702
 30
0.0
 10
903.838767
 20
1007.322695
 30
0.0
 10
906.376988
 20
1004.784471
 30
0.0
 10
906.376990
 20
1001.653414
 30
0.0
  0
LWPOLYLINE
  5
171
100
AcDbEntity
  8
Layer_1
 62
5
100
AcDbPolyline
 90
5
 70
1
 10
818.502990
 20
1022.913278
 30
0.0
 10
1654.723630
 20
1022.913278
 30
0.0
 10
1654.723630
 20
980.393590
 30
0.0
 10
818.502990
 20
980.393590
 30
0.0
 10
818.502990
 20
1022.913278
 30
0.0
  0
SPLINE
  5
172
100
AcDbEntity
  8
Layer_1
 62
3
100
AcDbSpline
 70
8
 71
3
 72
8
 73
4
 74
0
 40
0
 40
0
 40
0
 40
0
 40
1
 40
1
 40
1
 40
1
 10
1578.188110
 20
1001.653414
 30
0.0
 10
1578.188112
 20
998.522354
 30
0.0
 10
1575.649890
 20
995.984126
 30
0.0
 10
1572.518830
 20
995.984118
 30
0.0
  0
SPLINE
  5
173
100
AcDbEntity
  8
Layer_1
 62
3
100
AcDbSpline
 70
8
 71
3
 72
8
 73
4
 74
0
 40
0
 40
0
 40
0
 40
0
 40
1
 40
1
 40
1
 40
1
 10
1572.518830
 20
995.984118
 30
0.0
 10
1569.387769
 20
995.984126
 30
0.0
 10
1566.849547
 20
998.522354
 30
0.0
 10
1566.849550
 20
1001.653414
 30
0.0
  0
SPLINE
  5
174
100
AcDbEntity
  8
Layer_1
 62
3
100
AcDbSpline
 70
8
 71
3
 72
8
 73
4
 74
0
 40
0
 40
0
 40
0
 40
0
 40
1
 40
1
 40
1
 40
1
 10
1566.849550
 20
1001.653414
 30
0.0
 10
1566.849552
 20
1004.784471
 30
0.0
 10
1569.387772
 20
1007.322695
 30
0.0
 10
1572.518830
 20
1007.322702
 30
0.0
  0
SPLINE
  5
175
100
AcDbEntity
  8
Layer_1
 62
3
100
AcDbSpline
 70
8
 71
3
 72
8
 73
4
 74
0
 40
0
 40
0
 40
0
 40
0
 40
1
 40
1
 40
1
 40
1
 10
1572.518830
 20
1007.322702
 30
0.0
 10
1575.649887
 20
1007.322695
 30
0.0
 10
1578.188108
 20
1004.784471
 30
0.0
 10
1578.188110
 20
1001.653414
 30
0.0
  0
LWPOLYLINE
  5
176
100
AcDbEntity
  8
Layer_1
 62
3
100
AcDbPolyline
 90
2
 70
1
 10
906.376990
 20
1001.653414
 30
0.0
 10
906.376990
 20
1001.653414
 30
0.0
  0
LWPOLYLINE
  5
177
100
AcDbEntity
  8
Layer_1
 62
3
100
AcDbPolyline
 90
2
 70
1
 10
1578.188110
 20
1001.653414
 30
0.0
 10
1578.188110
 20
1001.653414
 30
0.0
  0
SPLINE
  5
178
100
AcDbEntity
  8
Layer_1
 62
6
100
AcDbSpline
 70
8
 71
3
 72
8
 73
4
 74
0
 40
0
 40
0
 40
0
 40
0
 40
1
 40
1
 40
1
 40
1
 10
951.924510
 20
1004.237406
 30
0.0
 10
952.243550
 20
1004.579204
 30
0.0
 10
952.610430
 20
1004.845806
 30
0.0
 10
953.025150
 20
1005.037214
 30
0.0
  0
SPLINE
  5
179
100
AcDbEntity
  8
Layer_1
 62
6
100
AcDbSpline
 70
8
 71
3
 72
8
 73
4
 74
0
 40
0
 40
0
 40
0
 40
0
 40
1
 40
1
 40
1
 40
1
 10
953.025150
 20
1005.037214
 30
0.0
 10
953.444403
 20
1005.228622
 30
0.0
 10
953.884163
 20
1005.324326
 30
0.0
 10
954.344430
 20
1005.324326
 30
0.0
  0
SPLINE
  5
17a
100
AcDbEntity
  8
Layer_1
 62
6
100
AcDbSpline
 70
8
 71
3
 72
8
 73
4
 74
0
 40
0
 40
0
 40
0
 40
0
 40
1
 40
1
 40
1
 40
1
 10
954.344430
 20
1005.324326
 30
0.0
 10
954.973336
 20
1005.324326
 30
0.0
 10
955.549843
 20
1005.157985
 30
0.0
 10
956.073950
 20
1004.825302
 30
0.0
  0
SPLINE
  5
17b
100
AcDbEntity
  8
Layer_1
 62
6
100
AcDbSpline
 70
8
 71
3
 72
8
 73
4
 74
0
 40
0
 40
0
 40
0
 40
0
 40
1
 40
1
 40
1
 40
1
 10
956.073950
 20
1004.825302
 30
0.0
 10
956.602590
 20
1004.492620
 30
0.0
 10
957.017310
 20
1004.041446
 30
0.0
 10
957.318110
 20
1003.471782
 30
0.0
  0
SPLINE
  5
17c
100
AcDbEntity
  8
Layer_1
 62
6
100
AcDbSpline
 70
8
 71
3
 72
8
 73
4
 74
0
 40
0
 40
0
 40
0
 40
0
 40
1
 40
1
 40
1
 40
1
 10
957.318110
 20
1003.471782
 30
0.0
 10
957.618856
 20
1002.906678
 30
0.0
 10
957.769230
 20
1002.289166
 30
0.0
 10
957.769230
 20
1001.619246
 30
0.0
  0
SPLINE
  5
17d
100
AcDbEntity
  8
Layer_1
 62
6
100
AcDbSpline
 70
8
 71
3
 72
8
 73
4
 74
0
 40
0
 40
0
 40
0
 40
0
 40
1
 40
1
 40
1
 40
1
 10
957.769230
 20
1001.619246
 30
0.0
 10
957.769230
 20
1000.953881
 30
0.0
 10
957.618856
 20
1000.338646
 30
0.0
 10
957.318110
 20
999.773542
 30
0.0
  0
SPLINE
  5
17e
100
AcDbEntity
  8
Layer_1
 62
6
100
AcDbSpline
 70
8
 71
3
 72
8
 73
4
 74
0
 40
0
 40
0
 40
0
 40
0
 40
1
 40
1
 40
1
 40
1
 10
957.318110
 20
999.773542
 30
0.0
 10
957.017310
 20
999.212993
 30
0.0
 10
956.602590
 20
998.766377
 30
0.0
 10
956.073950
 20
998.433694
 30
0.0
  0
SPLINE
  5
17f
100
AcDbEntity
  8
Layer_1
 62
6
100
AcDbSpline
 70
8
 71
3
 72
8
 73
4
 74
0
 40
0
 40
0
 40
0
 40
0
 40
1
 40
1
 40
1
 40
1
 10
956.073950
 20
998.433694
 30
0.0
 10
955.549843
 20
998.105572
 30
0.0
 10
954.973336
 20
997.941510
 30
0.0
 10
954.344430
 20
997.941510
 30
0.0
  0
SPLINE
  5
180
100
AcDbEntity
  8
Layer_1
 62
6
100
AcDbSpline
 70
8
 71
3
 72
8
 73
4
 74
0
 40
0
 40
0
 40
0
 40
0
 40
1
 40
1
 40
1
 40
1
 10
954.344430
 20
997.941510
 30
0.0
 10
953.492216
 20
997.941510
 30
0.0
 10
952.744830
 20
998.242292
 30
0.0
 10
952.102270
 20
998.843854
 30
0.0
  0
SPLINE
  5
181
100
AcDbEntity
  8
Layer_1
 62
6
100
AcDbSpline
 70
8
 71
3
 72
8
 73
4
 74
0
 40
0
 40
0
 40
0
 40
0
 40
1
 40
1
 40
1
 40
1
 10
952.102270
 20
998.843854
 30
0.0
 10
951.464243
 20
999.445417
 30
0.0
 10
951.083710
 20
1000.185977
 30
0.0
 10
950.960670
 20
1001.065534
 30
0.0
  0
LWPOLYLINE
  5
182
100
AcDbEntity
  8
Layer_1
 62
6
100
AcDbPolyline
 90
3
 70
1
 10
956.552430
 20
1007.648542
 30
0.0
 10
952.204830
 20
1007.648542
 30
0.0
 10
951.924510
 20
1004.237406
 30
0.0
  0
SPLINE
  5
183
100
AcDbEntity
  8
Layer_1
 62
6
100
AcDbSpline
 70
8
 71
3
 72
8
 73
4
 74
0
 40
0
 40
0
 40
0
 40
0
 40
1
 40
1
 40
1
 40
1
 10
951.575870
 20
1001.065534
 30
0.0
 10
951.698910
 20
1000.345481
 30
0.0
 10
952.020216
 20
999.746196
 30
0.0
 10
952.539790
 20
999.267678
 30
0.0
  0
SPLINE
  5
184
100
AcDbEntity
  8
Layer_1
 62
6
100
AcDbSpline
 70
8
 71
3
 72
8
 73
4
 74
0
 40
0
 40
0
 40
0
 40
0
 40
1
 40
1
 40
1
 40
1
 10
952.539790
 20
999.267678
 30
0.0
 10
953.063843
 20
998.789166
 30
0.0
 10
953.665390
 20
998.549910
 30
0.0
 10
954.344430
 20
998.549910
 30
0.0
  0
SPLINE
  5
185
100
AcDbEntity
  8
Layer_1
 62
6
100
AcDbSpline
 70
8
 71
3
 72
8
 73
4
 74
0
 40
0
 40
0
 40
0
 40
0
 40
1
 40
1
 40
1
 40
1
 10
954.344430
 20
998.549910
 30
0.0
 10
955.119203
 20
998.549910
 30
0.0
 10
955.782296
 20
998.850692
 30
0.0
 10
956.333710
 20
999.452254
 30
0.0
  0
SPLINE
  5
186
100
AcDbEntity
  8
Layer_1
 62
6
100
AcDbSpline
 70
8
 71
3
 72
8
 73
4
 74
0
 40
0
 40
0
 40
0
 40
0
 40
1
 40
1
 40
1
 40
1
 10
956.333710
 20
999.452254
 30
0.0
 10
956.889710
 20
1000.053817
 30
0.0
 10
957.167710
 20
1000.787540
 30
0.0
 10
957.167710
 20
1001.653422
 30
0.0
  0
SPLINE
  5
187
100
AcDbEntity
  8
Layer_1
 62
6
100
AcDbSpline
 70
8
 71
3
 72
8
 73
4
 74
0
 40
0
 40
0
 40
0
 40
0
 40
1
 40
1
 40
1
 40
1
 10
957.167710
 20
1001.653422
 30
0.0
 10
957.167710
 20
1002.514750
 30
0.0
 10
956.889710
 20
1003.243918
 30
0.0
 10
956.333710
 20
1003.840926
 30
0.0
  0
SPLINE
  5
188
100
AcDbEntity
  8
Layer_1
 62
6
100
AcDbSpline
 70
8
 71
3
 72
8
 73
4
 74
0
 40
0
 40
0
 40
0
 40
0
 40
1
 40
1
 40
1
 40
1
 10
956.333710
 20
1003.840926
 30
0.0
 10
955.782296
 20
1004.442489
 30
0.0
 10
955.119203
 20
1004.743270
 30
0.0
 10
954.344430
 20
1004.743270
 30
0.0
  0
SPLINE
  5
189
100
AcDbEntity
  8
Layer_1
 62
6
100
AcDbSpline
 70
8
 71
3
 72
8
 73
4
 74
0
 40
0
 40
0
 40
0
 40
0
 40
1
 40
1
 40
1
 40
1
 10
954.344430
 20
1004.743270
 30
0.0
 10
953.829443
 20
1004.743270
 30
0.0
 10
953.353203
 20
1004.597436
 30
0.0
 10
952.915710
 20
1004.305766
 30
0.0
  0
SPLINE
  5
18a
100
AcDbEntity
  8
Layer_1
 62
6
100
AcDbSpline
 70
8
 71
3
 72
8
 73
4
 74
0
 40
0
 40
0
 40
0
 40
0
 40
1
 40
1
 40
1
 40
1
 10
952.915710
 20
1004.305766
 30
0.0
 10
952.478216
 20
1004.018657
 30
0.0
 10
952.134136
 20
1003.633566
 30
0.0
 10
951.883470
 20
1003.150494
 30
0.0
  0
LWPOLYLINE
  5
18b
100
AcDbEntity
  8
Layer_1
 62
6
100
AcDbPolyline
 90
2
 70
1
 10
950.960670
 20
1001.065534
 30
0.0
 10
951.575870
 20
1001.065534
 30
0.0
  0
LWPOLYLINE
  5
18c
100
AcDbEntity
  8
Layer_1
 62
6
100
AcDbPolyline
 90
6
 70
1
 10
951.883470
 20
1003.150494
 30
0.0
 10
951.206750
 20
1003.150494
 30
0.0
 10
951.637390
 20
1008.263774
 30
0.0
 10
956.764350
 20
1008.263774
 30
0.0
 10
956.552430
 20
1007.648542
 30
0.0
 10
956.552430
 20
1007.648542
 30
0.0
  0
SPLINE
  5
18d
100
AcDbEntity
  8
Layer_1
 62
6
100
AcDbSpline
 70
8
 71
3
 72
8
 73
4
 74
0
 40
0
 40
0
 40
0
 40
0
 40
1
 40
1
 40
1
 40
1
 10
970.128590
 20
998.057718
 30
0.0
 10
970.051150
 20
998.326598
 30
0.0
 10
970.012430
 20
998.631937
 30
0.0
 10
970.012430
 20
998.973734
 30
0.0
  0
LWPOLYLINE
  5
18e
100
AcDbEntity
  8
Layer_1
 62
6
100
AcDbPolyline
 90
2
 70
1
 10
970.784910
 20
998.057718
 30
0.0
 10
970.128590
 20
998.057718
 30
0.0
  0
SPLINE
  5
18f
100
AcDbEntity
  8
Layer_1
 62
6
100
AcDbSpline
 70
8
 71
3
 72
8
 73
4
 74
0
 40
0
 40
0
 40
0
 40
0
 40
1
 40
1
 40
1
 40
1
 10
970.012430
 20
999.835062
 30
0.0
 10
969.839256
 20
999.361105
 30
0.0
 10
969.495176
 20
998.928164
 30
0.0
 10
968.980190
 20
998.536238
 30
0.0
  0
SPLINE
  5
190
100
AcDbEntity
  8
Layer_1
 62
6
100
AcDbSpline
 70
8
 71
3
 72
8
 73
4
 74
0
 40
0
 40
0
 40
0
 40
0
 40
1
 40
1
 40
1
 40
1
 10
968.980190
 20
998.536238
 30
0.0
 10
968.469790
 20
998.148868
 30
0.0
 10
967.957096
 20
997.955182
 30
0.0
 10
967.442110
 20
997.955182
 30
0.0
  0
SPLINE
  5
191
100
AcDbEntity
  8
Layer_1
 62
6
100
AcDbSpline
 70
8
 71
3
 72
8
 73
4
 74
0
 40
0
 40
0
 40
0
 40
0
 40
1
 40
1
 40
1
 40
1
 10
967.442110
 20
997.955182
 30
0.0
 10
966.863336
 20
997.955182
 30
0.0
 10
966.330136
 20
998.116966
 30
0.0
 10
965.842510
 20
998.440534
 30
0.0
  0
SPLINE
  5
192
100
AcDbEntity
  8
Layer_1
 62
6
100
AcDbSpline
 70
8
 71
3
 72
8
 73
4
 74
0
 40
0
 40
0
 40
0
 40
0
 40
1
 40
1
 40
1
 40
1
 10
965.842510
 20
998.440534
 30
0.0
 10
965.359416
 20
998.764102
 30
0.0
 10
964.978883
 20
999.199324
 30
0.0
 10
964.700910
 20
999.746198
 30
0.0
  0
SPLINE
  5
193
100
AcDbEntity
  8
Layer_1
 62
6
100
AcDbSpline
 70
8
 71
3
 72
8
 73
4
 74
0
 40
0
 40
0
 40
0
 40
0
 40
1
 40
1
 40
1
 40
1
 10
964.700910
 20
999.746198
 30
0.0
 10
964.427470
 20
1000.297628
 30
0.0
 10
964.290750
 20
1000.892353
 30
0.0
 10
964.290750
 20
1001.530374
 30
0.0
  0
SPLINE
  5
194
100
AcDbEntity
  8
Layer_1
 62
6
100
AcDbSpline
 70
8
 71
3
 72
8
 73
4
 74
0
 40
0
 40
0
 40
0
 40
0
 40
1
 40
1
 40
1
 40
1
 10
964.290750
 20
1001.530374
 30
0.0
 10
964.290750
 20
1002.168396
 30
0.0
 10
964.427470
 20
1002.758566
 30
0.0
 10
964.700910
 20
1003.300886
 30
0.0
  0
SPLINE
  5
195
100
AcDbEntity
  8
Layer_1
 62
6
100
AcDbSpline
 70
8
 71
3
 72
8
 73
4
 74
0
 40
0
 40
0
 40
0
 40
0
 40
1
 40
1
 40
1
 40
1
 10
964.700910
 20
1003.300886
 30
0.0
 10
964.978883
 20
1003.847761
 30
0.0
 10
965.359416
 20
1004.282982
 30
0.0
 10
965.842510
 20
1004.606550
 30
0.0
  0
SPLINE
  5
196
100
AcDbEntity
  8
Layer_1
 62
6
100
AcDbSpline
 70
8
 71
3
 72
8
 73
4
 74
0
 40
0
 40
0
 40
0
 40
0
 40
1
 40
1
 40
1
 40
1
 10
965.842510
 20
1004.606550
 30
0.0
 10
966.330136
 20
1004.934673
 30
0.0
 10
966.863336
 20
1005.098734
 30
0.0
 10
967.442110
 20
1005.098734
 30
0.0
  0
SPLINE
  5
197
100
AcDbEntity
  8
Layer_1
 62
6
100
AcDbSpline
 70
8
 71
3
 72
8
 73
4
 74
0
 40
0
 40
0
 40
0
 40
0
 40
1
 40
1
 40
1
 40
1
 10
967.442110
 20
1005.098734
 30
0.0
 10
967.966216
 20
1005.098734
 30
0.0
 10
968.483470
 20
1004.907329
 30
0.0
 10
968.993870
 20
1004.524518
 30
0.0
  0
SPLINE
  5
198
100
AcDbEntity
  8
Layer_1
 62
6
100
AcDbSpline
 70
8
 71
3
 72
8
 73
4
 74
0
 40
0
 40
0
 40
0
 40
0
 40
1
 40
1
 40
1
 40
1
 10
968.993870
 20
1004.524518
 30
0.0
 10
969.504270
 20
1004.146262
 30
0.0
 10
969.843790
 20
1003.708761
 30
0.0
 10
970.012430
 20
1003.212014
 30
0.0
  0
LWPOLYLINE
  5
199
100
AcDbEntity
  8
Layer_1
 62
6
100
AcDbPolyline
 90
2
 70
1
 10
970.012430
 20
998.973734
 30
0.0
 10
970.012430
 20
999.835062
 30
0.0
  0
SPLINE
  5
19a
100
AcDbEntity
  8
Layer_1
 62
6
100
AcDbSpline
 70
8
 71
3
 72
8
 73
4
 74
0
 40
0
 40
0
 40
0
 40
0
 40
1
 40
1
 40
1
 40
1
 10
970.620830
 20
998.973734
 30
0.0
 10
970.620830
 20
998.581809
 30
0.0
 10
970.675523
 20
998.276470
 30
0.0
 10
970.784910
 20
998.057718
 30
0.0
  0
LWPOLYLINE
  5
19b
100
AcDbEntity
  8
Layer_1
 62
6
100
AcDbPolyline
 90
4
 70
1
 10
970.012430
 20
1003.212014
 30
0.0
 10
970.012430
 20
1008.263774
 30
0.0
 10
970.620830
 20
1008.263774
 30
0.0
 10
970.620830
 20
998.973734
 30
0.0
  0
SPLINE
  5
19c
100
AcDbEntity
  8
Layer_1
 62
6
100
AcDbSpline
 70
8
 71
3
 72
8
 73
4
 74
0
 40
0
 40
0
 40
0
 40
0
 40
1
 40
1
 40
1
 40
1
 10
969.246830
 20
999.431742
 30
0.0
 10
969.757230
 20
1000.010521
 30
0.0
 10
970.012430
 20
1000.710065
 30
0.0
 10
970.012430
 20
1001.530374
 30
0.0
  0
SPLINE
  5
19d
100
AcDbEntity
  8
Layer_1
 62
6
100
AcDbSpline
 70
8
 71
3
 72
8
 73
4
 74
0
 40
0
 40
0
 40
0
 40
0
 40
1
 40
1
 40
1
 40
1
 10
970.012430
 20
1001.530374
 30
0.0
 10
970.012430
 20
1002.350689
 30
0.0
 10
969.759496
 20
1003.047956
 30
0.0
 10
969.253630
 20
1003.622174
 30
0.0
  0
SPLINE
  5
19e
100
AcDbEntity
  8
Layer_1
 62
6
100
AcDbSpline
 70
8
 71
3
 72
8
 73
4
 74
0
 40
0
 40
0
 40
0
 40
0
 40
1
 40
1
 40
1
 40
1
 10
969.253630
 20
1003.622174
 30
0.0
 10
968.747763
 20
1004.196393
 30
0.0
 10
968.143923
 20
1004.483502
 30
0.0
 10
967.442110
 20
1004.483502
 30
0.0
  0
SPLINE
  5
19f
100
AcDbEntity
  8
Layer_1
 62
6
100
AcDbSpline
 70
8
 71
3
 72
8
 73
4
 74
0
 40
0
 40
0
 40
0
 40
0
 40
1
 40
1
 40
1
 40
1
 10
967.442110
 20
1004.483502
 30
0.0
 10
966.744830
 20
1004.483502
 30
0.0
 10
966.140990
 20
1004.196393
 30
0.0
 10
965.630590
 20
1003.622174
 30
0.0
  0
SPLINE
  5
1a0
100
AcDbEntity
  8
Layer_1
 62
6
100
AcDbSpline
 70
8
 71
3
 72
8
 73
4
 74
0
 40
0
 40
0
 40
0
 40
0
 40
1
 40
1
 40
1
 40
1
 10
965.630590
 20
1003.622174
 30
0.0
 10
965.120190
 20
1003.047956
 30
0.0
 10
964.864990
 20
1002.350689
 30
0.0
 10
964.864990
 20
1001.530374
 30
0.0
  0
SPLINE
  5
1a1
100
AcDbEntity
  8
Layer_1
 62
6
100
AcDbSpline
 70
8
 71
3
 72
8
 73
4
 74
0
 40
0
 40
0
 40
0
 40
0
 40
1
 40
1
 40
1
 40
1
 10
964.864990
 20
1001.530374
 30
0.0
 10
964.864990
 20
1000.714620
 30
0.0
 10
965.120190
 20
1000.015076
 30
0.0
 10
965.630590
 20
999.431742
 30
0.0
  0
SPLINE
  5
1a2
100
AcDbEntity
  8
Layer_1
 62
6
100
AcDbSpline
 70
8
 71
3
 72
8
 73
4
 74
0
 40
0
 40
0
 40
0
 40
0
 40
1
 40
1
 40
1
 40
1
 10
965.630590
 20
999.431742
 30
0.0
 10
966.140990
 20
998.852969
 30
0.0
 10
966.744830
 20
998.563582
 30
0.0
 10
967.442110
 20
998.563582
 30
0.0
  0
SPLINE
  5
1a3
100
AcDbEntity
  8
Layer_1
 62
6
100
AcDbSpline
 70
8
 71
3
 72
8
 73
4
 74
0
 40
0
 40
0
 40
0
 40
0
 40
1
 40
1
 40
1
 40
1
 10
967.442110
 20
998.563582
 30
0.0
 10
968.139390
 20
998.563582
 30
0.0
 10
968.740963
 20
998.852969
 30
0.0
 10
969.246830
 20
999.431742
 30
0.0
  0
LWPOLYLINE
  5
1a4
100
AcDbEntity
  8
Layer_1
 62
6
100
AcDbPolyline
 90
2
 70
1
 10
970.784910
 20
998.057718
 30
0.0
 10
970.784910
 20
998.057718
 30
0.0
  0
LWPOLYLINE
  5
1a5
100
AcDbEntity
  8
Layer_1
 62
6
100
AcDbPolyline
 90
2
 70
1
 10
969.246830
 20
999.431742
 30
0.0
 10
969.246830
 20
999.431742
 30
0.0
  0
SPLINE
  5
1a6
100
AcDbEntity
  8
Layer_1
 62
6
100
AcDbSpline
 70
8
 71
3
 72
8
 73
4
 74
0
 40
0
 40
0
 40
0
 40
0
 40
1
 40
1
 40
1
 40
1
 10
973.389390
 20
1004.989358
 30
0.0
 10
973.475950
 20
1004.688580
 30
0.0
 10
973.519230
 20
1004.383241
 30
0.0
 10
973.519230
 20
1004.073342
 30
0.0
  0
LWPOLYLINE
  5
1a7
100
AcDbEntity
  8
Layer_1
 62
6
100
AcDbPolyline
 90
2
 70
1
 10
972.733150
 20
1004.989358
 30
0.0
 10
973.389390
 20
1004.989358
 30
0.0
  0
SPLINE
  5
1a8
100
AcDbEntity
  8
Layer_1
 62
6
100
AcDbSpline
 70
8
 71
3
 72
8
 73
4
 74
0
 40
0
 40
0
 40
0
 40
0
 40
1
 40
1
 40
1
 40
1
 10
973.519230
 20
1003.212014
 30
0.0
 10
973.692403
 20
1003.690532
 30
0.0
 10
974.034216
 20
1004.123476
 30
0.0
 10
974.544670
 20
1004.510846
 30
0.0
  0
SPLINE
  5
1a9
100
AcDbEntity
  8
Layer_1
 62
6
100
AcDbSpline
 70
8
 71
3
 72
8
 73
4
 74
0
 40
0
 40
0
 40
0
 40
0
 40
1
 40
1
 40
1
 40
1
 10
974.544670
 20
1004.510846
 30
0.0
 10
975.055070
 20
1004.902772
 30
0.0
 10
975.570030
 20
1005.098734
 30
0.0
 10
976.089550
 20
1005.098734
 30
0.0
  0
SPLINE
  5
1aa
100
AcDbEntity
  8
Layer_1
 62
6
100
AcDbSpline
 70
8
 71
3
 72
8
 73
4
 74
0
 40
0
 40
0
 40
0
 40
0
 40
1
 40
1
 40
1
 40
1
 10
976.089550
 20
1005.098734
 30
0.0
 10
976.668323
 20
1005.098734
 30
0.0
 10
977.199256
 20
1004.934673
 30
0.0
 10
977.682350
 20
1004.606550
 30
0.0
  0
SPLINE
  5
1ab
100
AcDbEntity
  8
Layer_1
 62
6
100
AcDbSpline
 70
8
 71
3
 72
8
 73
4
 74
0
 40
0
 40
0
 40
0
 40
0
 40
1
 40
1
 40
1
 40
1
 10
977.682350
 20
1004.606550
 30
0.0
 10
978.165390
 20
1004.282982
 30
0.0
 10
978.543630
 20
1003.847761
 30
0.0
 10
978.817070
 20
1003.300886
 30
0.0
  0
SPLINE
  5
1ac
100
AcDbEntity
  8
Layer_1
 62
6
100
AcDbSpline
 70
8
 71
3
 72
8
 73
4
 74
0
 40
0
 40
0
 40
0
 40
0
 40
1
 40
1
 40
1
 40
1
 10
978.817070
 20
1003.300886
 30
0.0
 10
979.095096
 20
1002.754012
 30
0.0
 10
979.234110
 20
1002.163841
 30
0.0
 10
979.234110
 20
1001.530374
 30
0.0
  0
SPLINE
  5
1ad
100
AcDbEntity
  8
Layer_1
 62
6
100
AcDbSpline
 70
8
 71
3
 72
8
 73
4
 74
0
 40
0
 40
0
 40
0
 40
0
 40
1
 40
1
 40
1
 40
1
 10
979.234110
 20
1001.530374
 30
0.0
 10
979.234110
 20
1000.892353
 30
0.0
 10
979.095096
 20
1000.297628
 30
0.0
 10
978.817070
 20
999.746198
 30
0.0
  0
SPLINE
  5
1ae
100
AcDbEntity
  8
Layer_1
 62
6
100
AcDbSpline
 70
8
 71
3
 72
8
 73
4
 74
0
 40
0
 40
0
 40
0
 40
0
 40
1
 40
1
 40
1
 40
1
 10
978.817070
 20
999.746198
 30
0.0
 10
978.543630
 20
999.199324
 30
0.0
 10
978.165390
 20
998.764102
 30
0.0
 10
977.682350
 20
998.440534
 30
0.0
  0
SPLINE
  5
1af
100
AcDbEntity
  8
Layer_1
 62
6
100
AcDbSpline
 70
8
 71
3
 72
8
 73
4
 74
0
 40
0
 40
0
 40
0
 40
0
 40
1
 40
1
 40
1
 40
1
 10
977.682350
 20
998.440534
 30
0.0
 10
977.199256
 20
998.116966
 30
0.0
 10
976.668323
 20
997.955182
 30
0.0
 10
976.089550
 20
997.955182
 30
0.0
  0
SPLINE
  5
1b0
100
AcDbEntity
  8
Layer_1
 62
6
100
AcDbSpline
 70
8
 71
3
 72
8
 73
4
 74
0
 40
0
 40
0
 40
0
 40
0
 40
1
 40
1
 40
1
 40
1
 10
976.089550
 20
997.955182
 30
0.0
 10
975.560910
 20
997.955182
 30
0.0
 10
975.041390
 20
998.142030
 30
0.0
 10
974.530990
 20
998.515726
 30
0.0
  0
SPLINE
  5
1b1
100
AcDbEntity
  8
Layer_1
 62
6
100
AcDbSpline
 70
8
 71
3
 72
8
 73
4
 74
0
 40
0
 40
0
 40
0
 40
0
 40
1
 40
1
 40
1
 40
1
 10
974.530990
 20
998.515726
 30
0.0
 10
974.025123
 20
998.893982
 30
0.0
 10
973.687870
 20
999.333761
 30
0.0
 10
973.519230
 20
999.835062
 30
0.0
  0
LWPOLYLINE
  5
1b2
100
AcDbEntity
  8
Layer_1
 62
6
100
AcDbPolyline
 90
2
 70
1
 10
973.519230
 20
1004.073342
 30
0.0
 10
973.519230
 20
1003.212014
 30
0.0
  0
SPLINE
  5
1b3
100
AcDbEntity
  8
Layer_1
 62
6
100
AcDbSpline
 70
8
 71
3
 72
8
 73
4
 74
0
 40
0
 40
0
 40
0
 40
0
 40
1
 40
1
 40
1
 40
1
 10
972.904030
 20
1004.073342
 30
0.0
 10
972.904030
 20
1004.465273
 30
0.0
 10
972.847070
 20
1004.770612
 30
0.0
 10
972.733150
 20
1004.989358
 30
0.0
  0
LWPOLYLINE
  5
1b4
100
AcDbEntity
  8
Layer_1
 62
6
100
AcDbPolyline
 90
4
 70
1
 10
973.519230
 20
999.835062
 30
0.0
 10
973.519230
 20
994.632918
 30
0.0
 10
972.904030
 20
994.632918
 30
0.0
 10
972.904030
 20
1004.073342
 30
0.0
  0
SPLINE
  5
1b5
100
AcDbEntity
  8
Layer_1
 62
6
100
AcDbSpline
 70
8
 71
3
 72
8
 73
4
 74
0
 40
0
 40
0
 40
0
 40
0
 40
1
 40
1
 40
1
 40
1
 10
974.278030
 20
1003.622174
 30
0.0
 10
973.772163
 20
1003.047956
 30
0.0
 10
973.519230
 20
1002.350689
 30
0.0
 10
973.519230
 20
1001.530374
 30
0.0
  0
SPLINE
  5
1b6
100
AcDbEntity
  8
Layer_1
 62
6
100
AcDbSpline
 70
8
 71
3
 72
8
 73
4
 74
0
 40
0
 40
0
 40
0
 40
0
 40
1
 40
1
 40
1
 40
1
 10
973.519230
 20
1001.530374
 30
0.0
 10
973.519230
 20
1000.710065
 30
0.0
 10
973.772163
 20
1000.010521
 30
0.0
 10
974.278030
 20
999.431742
 30
0.0
  0
SPLINE
  5
1b7
100
AcDbEntity
  8
Layer_1
 62
6
100
AcDbSpline
 70
8
 71
3
 72
8
 73
4
 74
0
 40
0
 40
0
 40
0
 40
0
 40
1
 40
1
 40
1
 40
1
 10
974.278030
 20
999.431742
 30
0.0
 10
974.783896
 20
998.852969
 30
0.0
 10
975.387736
 20
998.563582
 30
0.0
 10
976.089550
 20
998.563582
 30
0.0
  0
SPLINE
  5
1b8
100
AcDbEntity
  8
Layer_1
 62
6
100
AcDbSpline
 70
8
 71
3
 72
8
 73
4
 74
0
 40
0
 40
0
 40
0
 40
0
 40
1
 40
1
 40
1
 40
1
 10
976.089550
 20
998.563582
 30
0.0
 10
976.782243
 20
998.563582
 30
0.0
 10
977.383816
 20
998.852969
 30
0.0
 10
977.894270
 20
999.431742
 30
0.0
  0
SPLINE
  5
1b9
100
AcDbEntity
  8
Layer_1
 62
6
100
AcDbSpline
 70
8
 71
3
 72
8
 73
4
 74
0
 40
0
 40
0
 40
0
 40
0
 40
1
 40
1
 40
1
 40
1
 10
977.894270
 20
999.431742
 30
0.0
 10
978.404670
 20
1000.015076
 30
0.0
 10
978.659870
 20
1000.714620
 30
0.0
 10
978.659870
 20
1001.530374
 30
0.0
  0
SPLINE
  5
1ba
100
AcDbEntity
  8
Layer_1
 62
6
100
AcDbSpline
 70
8
 71
3
 72
8
 73
4
 74
0
 40
0
 40
0
 40
0
 40
0
 40
1
 40
1
 40
1
 40
1
 10
978.659870
 20
1001.530374
 30
0.0
 10
978.659870
 20
1002.350689
 30
0.0
 10
978.404670
 20
1003.047956
 30
0.0
 10
977.894270
 20
1003.622174
 30
0.0
  0
SPLINE
  5
1bb
100
AcDbEntity
  8
Layer_1
 62
6
100
AcDbSpline
 70
8
 71
3
 72
8
 73
4
 74
0
 40
0
 40
0
 40
0
 40
0
 40
1
 40
1
 40
1
 40
1
 10
977.894270
 20
1003.622174
 30
0.0
 10
977.383816
 20
1004.196393
 30
0.0
 10
976.782243
 20
1004.483502
 30
0.0
 10
976.089550
 20
1004.483502
 30
0.0
  0
SPLINE
  5
1bc
100
AcDbEntity
  8
Layer_1
 62
6
100
AcDbSpline
 70
8
 71
3
 72
8
 73
4
 74
0
 40
0
 40
0
 40
0
 40
0
 40
1
 40
1
 40
1
 40
1
 10
976.089550
 20
1004.483502
 30
0.0
 10
975.387736
 20
1004.483502
 30
0.0
 10
974.783896
 20
1004.196393
 30
0.0
 10
974.278030
 20
1003.622174
 30
0.0
  0
LWPOLYLINE
  5
1bd
100
AcDbEntity
  8
Layer_1
 62
6
100
AcDbPolyline
 90
2
 70
1
 10
972.733150
 20
1004.989358
 30
0.0
 10
972.733150
 20
1004.989358
 30
0.0
  0
SPLINE
  5
1be
100
AcDbEntity
  8
Layer_1
 62
6
100
AcDbSpline
 70
8
 71
3
 72
8
 73
4
 74
0
 40
0
 40
0
 40
0
 40
0
 40
1
 40
1
 40
1
 40
1
 10
980.970430
 20
1006.629990
 30
0.0
 10
980.970430
 20
1006.780380
 30
0.0
 10
981.022830
 20
1006.910262
 30
0.0
 10
981.127630
 20
1007.019638
 30
0.0
  0
SPLINE
  5
1bf
100
AcDbEntity
  8
Layer_1
 62
6
100
AcDbSpline
 70
8
 71
3
 72
8
 73
4
 74
0
 40
0
 40
0
 40
0
 40
0
 40
1
 40
1
 40
1
 40
1
 10
981.127630
 20
1007.019638
 30
0.0
 10
981.237016
 20
1007.129009
 30
0.0
 10
981.369176
 20
1007.183694
 30
0.0
 10
981.524110
 20
1007.183694
 30
0.0
  0
SPLINE
  5
1c0
100
AcDbEntity
  8
Layer_1
 62
6
100
AcDbSpline
 70
8
 71
3
 72
8
 73
4
 74
0
 40
0
 40
0
 40
0
 40
0
 40
1
 40
1
 40
1
 40
1
 10
981.524110
 20
1007.183694
 30
0.0
 10
981.674510
 20
1007.183694
 30
0.0
 10
981.802110
 20
1007.129009
 30
0.0
 10
981.906910
 20
1007.019638
 30
0.0
  0
SPLINE
  5
1c1
100
AcDbEntity
  8
Layer_1
 62
6
100
AcDbSpline
 70
8
 71
3
 72
8
 73
4
 74
0
 40
0
 40
0
 40
0
 40
0
 40
1
 40
1
 40
1
 40
1
 10
981.906910
 20
1007.019638
 30
0.0
 10
982.016296
 20
1006.910262
 30
0.0
 10
982.070990
 20
1006.780380
 30
0.0
 10
982.070990
 20
1006.629990
 30
0.0
  0
SPLINE
  5
1c2
100
AcDbEntity
  8
Layer_1
 62
6
100
AcDbSpline
 70
8
 71
3
 72
8
 73
4
 74
0
 40
0
 40
0
 40
0
 40
0
 40
1
 40
1
 40
1
 40
1
 10
982.070990
 20
1006.629990
 30
0.0
 10
982.070990
 20
1006.475041
 30
0.0
 10
982.018590
 20
1006.342878
 30
0.0
 10
981.913790
 20
1006.233502
 30
0.0
  0
SPLINE
  5
1c3
100
AcDbEntity
  8
Layer_1
 62
6
100
AcDbSpline
 70
8
 71
3
 72
8
 73
4
 74
0
 40
0
 40
0
 40
0
 40
0
 40
1
 40
1
 40
1
 40
1
 10
981.913790
 20
1006.233502
 30
0.0
 10
981.808990
 20
1006.128686
 30
0.0
 10
981.679096
 20
1006.076278
 30
0.0
 10
981.524110
 20
1006.076278
 30
0.0
  0
SPLINE
  5
1c4
100
AcDbEntity
  8
Layer_1
 62
6
100
AcDbSpline
 70
8
 71
3
 72
8
 73
4
 74
0
 40
0
 40
0
 40
0
 40
0
 40
1
 40
1
 40
1
 40
1
 10
981.524110
 20
1006.076278
 30
0.0
 10
981.369176
 20
1006.076278
 30
0.0
 10
981.237016
 20
1006.128686
 30
0.0
 10
981.127630
 20
1006.233502
 30
0.0
  0
SPLINE
  5
1c5
100
AcDbEntity
  8
Layer_1
 62
6
100
AcDbSpline
 70
8
 71
3
 72
8
 73
4
 74
0
 40
0
 40
0
 40
0
 40
0
 40
1
 40
1
 40
1
 40
1
 10
981.127630
 20
1006.233502
 30
0.0
 10
981.022830
 20
1006.342878
 30
0.0
 10
980.970430
 20
1006.475041
 30
0.0
 10
980.970430
 20
1006.629990
 30
0.0
  0
LWPOLYLINE
  5
1c6
100
AcDbEntity
  8
Layer_1
 62
6
100
AcDbPolyline
 90
2
 70
1
 10
974.278030
 20
1003.622174
 30
0.0
 10
974.278030
 20
1003.622174
 30
0.0
  0
LWPOLYLINE
  5
1c7
100
AcDbEntity
  8
Layer_1
 62
6
100
AcDbPolyline
 90
2
 70
1
 10
980.970430
 20
1006.629990
 30
0.0
 10
980.970430
 20
1006.629990
 30
0.0
  0
LWPOLYLINE
  5
1c8
100
AcDbEntity
  8
Layer_1
 62
6
100
AcDbPolyline
 90
6
 70
1
 10
981.831790
 20
998.057718
 30
0.0
 10
981.216510
 20
998.057718
 30
0.0
 10
981.216510
 20
1004.989358
 30
0.0
 10
981.831790
 20
1004.989358
 30
0.0
 10
981.831790
 20
998.057718
 30
0.0
 10
981.831790
 20
998.057718
 30
0.0
  0
SPLINE
  5
1c9
100
AcDbEntity
  8
Layer_1
 62
6
100
AcDbSpline
 70
8
 71
3
 72
8
 73
4
 74
0
 40
0
 40
0
 40
0
 40
0
 40
1
 40
1
 40
1
 40
1
 10
990.848350
 20
1008.817486
 30
0.0
 10
989.950590
 20
1006.803166
 30
0.0
 10
989.501710
 20
1004.740993
 30
0.0
 10
989.501710
 20
1002.630966
 30
0.0
  0
SPLINE
  5
1ca
100
AcDbEntity
  8
Layer_1
 62
6
100
AcDbSpline
 70
8
 71
3
 72
8
 73
4
 74
0
 40
0
 40
0
 40
0
 40
0
 40
1
 40
1
 40
1
 40
1
 10
989.501710
 20
1002.630966
 30
0.0
 10
989.501710
 20
1000.520940
 30
0.0
 10
989.964270
 20
998.383569
 30
0.0
 10
990.889390
 20
996.218854
 30
0.0
  0
LWPOLYLINE
  5
1cb
100
AcDbEntity
  8
Layer_1
 62
6
100
AcDbPolyline
 90
2
 70
1
 10
990.376670
 20
1008.817486
 30
0.0
 10
990.848350
 20
1008.817486
 30
0.0
  0
SPLINE
  5
1cc
100
AcDbEntity
  8
Layer_1
 62
6
100
AcDbSpline
 70
8
 71
3
 72
8
 73
4
 74
0
 40
0
 40
0
 40
0
 40
0
 40
1
 40
1
 40
1
 40
1
 10
990.424510
 20
996.218854
 30
0.0
 10
989.353576
 20
998.388124
 30
0.0
 10
988.818110
 20
1000.557393
 30
0.0
 10
988.818110
 20
1002.726662
 30
0.0
  0
SPLINE
  5
1cd
100
AcDbEntity
  8
Layer_1
 62
6
100
AcDbSpline
 70
8
 71
3
 72
8
 73
4
 74
0
 40
0
 40
0
 40
0
 40
0
 40
1
 40
1
 40
1
 40
1
 10
988.818110
 20
1002.726662
 30
0.0
 10
988.818110
 20
1004.836689
 30
0.0
 10
989.337630
 20
1006.866964
 30
0.0
 10
990.376670
 20
1008.817486
 30
0.0
  0
LWPOLYLINE
  5
1ce
100
AcDbEntity
  8
Layer_1
 62
6
100
AcDbPolyline
 90
2
 70
1
 10
990.889390
 20
996.218854
 30
0.0
 10
990.424510
 20
996.218854
 30
0.0
  0
LWPOLYLINE
  5
1cf
100
AcDbEntity
  8
Layer_1
 62
6
100
AcDbPolyline
 90
2
 70
1
 10
990.376670
 20
1008.817486
 30
0.0
 10
990.376670
 20
1008.817486
 30
0.0
  0
SPLINE
  5
1d0
100
AcDbEntity
  8
Layer_1
 62
6
100
AcDbSpline
 70
8
 71
3
 72
8
 73
4
 74
0
 40
0
 40
0
 40
0
 40
0
 40
1
 40
1
 40
1
 40
1
 10
991.996830
 20
998.351662
 30
0.0
 10
991.996830
 20
998.821065
 30
0.0
 10
992.101630
 20
999.260844
 30
0.0
 10
992.311230
 20
999.670998
 30
0.0
  0
SPLINE
  5
1d1
100
AcDbEntity
  8
Layer_1
 62
6
100
AcDbSpline
 70
8
 71
3
 72
8
 73
4
 74
0
 40
0
 40
0
 40
0
 40
0
 40
1
 40
1
 40
1
 40
1
 10
992.311230
 20
999.670998
 30
0.0
 10
992.525416
 20
1000.081158
 30
0.0
 10
992.801150
 20
1000.436628
 30
0.0
 10
993.138430
 20
1000.737406
 30
0.0
  0
SPLINE
  5
1d2
100
AcDbEntity
  8
Layer_1
 62
6
100
AcDbSpline
 70
8
 71
3
 72
8
 73
4
 74
0
 40
0
 40
0
 40
0
 40
0
 40
1
 40
1
 40
1
 40
1
 10
993.138430
 20
1000.737406
 30
0.0
 10
993.475656
 20
1001.038190
 30
0.0
 10
993.849336
 20
1001.325300
 30
0.0
 10
994.259470
 20
1001.598734
 30
0.0
  0
SPLINE
  5
1d3
100
AcDbEntity
  8
Layer_1
 62
6
100
AcDbSpline
 70
8
 71
3
 72
8
 73
4
 74
0
 40
0
 40
0
 40
0
 40
0
 40
1
 40
1
 40
1
 40
1
 10
994.259470
 20
1001.598734
 30
0.0
 10
994.669656
 20
1001.876729
 30
0.0
 10
995.077550
 20
1002.143332
 30
0.0
 10
995.483150
 20
1002.398542
 30
0.0
  0
SPLINE
  5
1d4
100
AcDbEntity
  8
Layer_1
 62
6
100
AcDbSpline
 70
8
 71
3
 72
8
 73
4
 74
0
 40
0
 40
0
 40
0
 40
0
 40
1
 40
1
 40
1
 40
1
 10
995.483150
 20
1002.398542
 30
0.0
 10
995.893283
 20
1002.653748
 30
0.0
 10
996.266963
 20
1002.911233
 30
0.0
 10
996.604190
 20
1003.170998
 30
0.0
  0
SPLINE
  5
1d5
100
AcDbEntity
  8
Layer_1
 62
6
100
AcDbSpline
 70
8
 71
3
 72
8
 73
4
 74
0
 40
0
 40
0
 40
0
 40
0
 40
1
 40
1
 40
1
 40
1
 10
996.604190
 20
1003.170998
 30
0.0
 10
996.941470
 20
1003.430769
 30
0.0
 10
997.214910
 20
1003.724716
 30
0.0
 10
997.424510
 20
1004.052838
 30
0.0
  0
SPLINE
  5
1d6
100
AcDbEntity
  8
Layer_1
 62
6
100
AcDbSpline
 70
8
 71
3
 72
8
 73
4
 74
0
 40
0
 40
0
 40
0
 40
0
 40
1
 40
1
 40
1
 40
1
 10
997.424510
 20
1004.052838
 30
0.0
 10
997.638696
 20
1004.385521
 30
0.0
 10
997.745790
 20
1004.738710
 30
0.0
 10
997.745790
 20
1005.112406
 30
0.0
  0
SPLINE
  5
1d7
100
AcDbEntity
  8
Layer_1
 62
6
100
AcDbSpline
 70
8
 71
3
 72
8
 73
4
 74
0
 40
0
 40
0
 40
0
 40
0
 40
1
 40
1
 40
1
 40
1
 10
997.745790
 20
1005.112406
 30
0.0
 10
997.745790
 20
1005.855249
 30
0.0
 10
997.515656
 20
1006.479598
 30
0.0
 10
997.055390
 20
1006.985454
 30
0.0
  0
SPLINE
  5
1d8
100
AcDbEntity
  8
Layer_1
 62
6
100
AcDbSpline
 70
8
 71
3
 72
8
 73
4
 74
0
 40
0
 40
0
 40
0
 40
0
 40
1
 40
1
 40
1
 40
1
 10
997.055390
 20
1006.985454
 30
0.0
 10
996.599656
 20
1007.491316
 30
0.0
 10
996.050510
 20
1007.744246
 30
0.0
 10
995.407950
 20
1007.744246
 30
0.0
  0
SPLINE
  5
1d9
100
AcDbEntity
  8
Layer_1
 62
6
100
AcDbSpline
 70
8
 71
3
 72
8
 73
4
 74
0
 40
0
 40
0
 40
0
 40
0
 40
1
 40
1
 40
1
 40
1
 10
995.407950
 20
1007.744246
 30
0.0
 10
994.756216
 20
1007.744246
 30
0.0
 10
994.195656
 20
1007.489038
 30
0.0
 10
993.726270
 20
1006.978622
 30
0.0
  0
SPLINE
  5
1da
100
AcDbEntity
  8
Layer_1
 62
6
100
AcDbSpline
 70
8
 71
3
 72
8
 73
4
 74
0
 40
0
 40
0
 40
0
 40
0
 40
1
 40
1
 40
1
 40
1
 10
993.726270
 20
1006.978622
 30
0.0
 10
993.261416
 20
1006.472761
 30
0.0
 10
993.028990
 20
1005.850689
 30
0.0
 10
993.028990
 20
1005.112406
 30
0.0
  0
LWPOLYLINE
  5
1db
100
AcDbEntity
  8
Layer_1
 62
6
100
AcDbPolyline
 90
3
 70
1
 10
998.648190
 20
998.057718
 30
0.0
 10
991.996830
 20
998.057718
 30
0.0
 10
991.996830
 20
998.351662
 30
0.0
  0
SPLINE
  5
1dc
100
AcDbEntity
  8
Layer_1
 62
6
100
AcDbSpline
 70
8
 71
3
 72
8
 73
4
 74
0
 40
0
 40
0
 40
0
 40
0
 40
1
 40
1
 40
1
 40
1
 10
992.427470
 20
1005.112406
 30
0.0
 10
992.427470
 20
1005.695740
 30
0.0
 10
992.557336
 20
1006.235780
 30
0.0
 10
992.817070
 20
1006.732526
 30
0.0
  0
SPLINE
  5
1dd
100
AcDbEntity
  8
Layer_1
 62
6
100
AcDbSpline
 70
8
 71
3
 72
8
 73
4
 74
0
 40
0
 40
0
 40
0
 40
0
 40
1
 40
1
 40
1
 40
1
 10
992.817070
 20
1006.732526
 30
0.0
 10
993.081443
 20
1007.229273
 30
0.0
 10
993.441470
 20
1007.623478
 30
0.0
 10
993.897150
 20
1007.915142
 30
0.0
  0
SPLINE
  5
1de
100
AcDbEntity
  8
Layer_1
 62
6
100
AcDbSpline
 70
8
 71
3
 72
8
 73
4
 74
0
 40
0
 40
0
 40
0
 40
0
 40
1
 40
1
 40
1
 40
1
 10
993.897150
 20
1007.915142
 30
0.0
 10
994.352883
 20
1008.206812
 30
0.0
 10
994.851923
 20
1008.352646
 30
0.0
 10
995.394270
 20
1008.352646
 30
0.0
  0
SPLINE
  5
1df
100
AcDbEntity
  8
Layer_1
 62
6
100
AcDbSpline
 70
8
 71
3
 72
8
 73
4
 74
0
 40
0
 40
0
 40
0
 40
0
 40
1
 40
1
 40
1
 40
1
 10
995.394270
 20
1008.352646
 30
0.0
 10
995.932030
 20
1008.352646
 30
0.0
 10
996.428776
 20
1008.206812
 30
0.0
 10
996.884510
 20
1007.915142
 30
0.0
  0
SPLINE
  5
1e0
100
AcDbEntity
  8
Layer_1
 62
6
100
AcDbSpline
 70
8
 71
3
 72
8
 73
4
 74
0
 40
0
 40
0
 40
0
 40
0
 40
1
 40
1
 40
1
 40
1
 10
996.884510
 20
1007.915142
 30
0.0
 10
997.340243
 20
1007.623478
 30
0.0
 10
997.697976
 20
1007.229273
 30
0.0
 10
997.957710
 20
1006.732526
 30
0.0
  0
SPLINE
  5
1e1
100
AcDbEntity
  8
Layer_1
 62
6
100
AcDbSpline
 70
8
 71
3
 72
8
 73
4
 74
0
 40
0
 40
0
 40
0
 40
0
 40
1
 40
1
 40
1
 40
1
 10
997.957710
 20
1006.732526
 30
0.0
 10
998.217496
 20
1006.235780
 30
0.0
 10
998.347390
 20
1005.695740
 30
0.0
 10
998.347390
 20
1005.112406
 30
0.0
  0
SPLINE
  5
1e2
100
AcDbEntity
  8
Layer_1
 62
6
100
AcDbSpline
 70
8
 71
3
 72
8
 73
4
 74
0
 40
0
 40
0
 40
0
 40
0
 40
1
 40
1
 40
1
 40
1
 10
998.347390
 20
1005.112406
 30
0.0
 10
998.347390
 20
1004.784284
 30
0.0
 10
998.285870
 20
1004.469830
 30
0.0
 10
998.162830
 20
1004.169046
 30
0.0
  0
SPLINE
  5
1e3
100
AcDbEntity
  8
Layer_1
 62
6
100
AcDbSpline
 70
8
 71
3
 72
8
 73
4
 74
0
 40
0
 40
0
 40
0
 40
0
 40
1
 40
1
 40
1
 40
1
 10
998.162830
 20
1004.169046
 30
0.0
 10
998.039790
 20
1003.872822
 30
0.0
 10
997.873443
 20
1003.606222
 30
0.0
 10
997.663790
 20
1003.369246
 30
0.0
  0
SPLINE
  5
1e4
100
AcDbEntity
  8
Layer_1
 62
6
100
AcDbSpline
 70
8
 71
3
 72
8
 73
4
 74
0
 40
0
 40
0
 40
0
 40
0
 40
1
 40
1
 40
1
 40
1
 10
997.663790
 20
1003.369246
 30
0.0
 10
997.454136
 20
1003.132265
 30
0.0
 10
997.212590
 20
1002.904401
 30
0.0
 10
996.939150
 20
1002.685654
 30
0.0
  0
SPLINE
  5
1e5
100
AcDbEntity
  8
Layer_1
 62
6
100
AcDbSpline
 70
8
 71
3
 72
8
 73
4
 74
0
 40
0
 40
0
 40
0
 40
0
 40
1
 40
1
 40
1
 40
1
 10
996.939150
 20
1002.685654
 30
0.0
 10
996.665710
 20
1002.466902
 30
0.0
 10
996.376323
 20
1002.259545
 30
0.0
 10
996.070990
 20
1002.063582
 30
0.0
  0
SPLINE
  5
1e6
100
AcDbEntity
  8
Layer_1
 62
6
100
AcDbSpline
 70
8
 71
3
 72
8
 73
4
 74
0
 40
0
 40
0
 40
0
 40
0
 40
1
 40
1
 40
1
 40
1
 10
996.070990
 20
1002.063582
 30
0.0
 10
995.765656
 20
1001.867620
 30
0.0
 10
995.458056
 20
1001.673934
 30
0.0
 10
995.148190
 20
1001.482526
 30
0.0
  0
SPLINE
  5
1e7
100
AcDbEntity
  8
Layer_1
 62
6
100
AcDbSpline
 70
8
 71
3
 72
8
 73
4
 74
0
 40
0
 40
0
 40
0
 40
0
 40
1
 40
1
 40
1
 40
1
 10
995.148190
 20
1001.482526
 30
0.0
 10
994.842856
 20
1001.291118
 30
0.0
 10
994.544350
 20
1001.090598
 30
0.0
 10
994.252670
 20
1000.880966
 30
0.0
  0
SPLINE
  5
1e8
100
AcDbEntity
  8
Layer_1
 62
6
100
AcDbSpline
 70
8
 71
3
 72
8
 73
4
 74
0
 40
0
 40
0
 40
0
 40
0
 40
1
 40
1
 40
1
 40
1
 10
994.252670
 20
1000.880966
 30
0.0
 10
993.965523
 20
1000.675884
 30
0.0
 10
993.705763
 20
1000.463969
 30
0.0
 10
993.473390
 20
1000.245222
 30
0.0
  0
SPLINE
  5
1e9
100
AcDbEntity
  8
Layer_1
 62
6
100
AcDbSpline
 70
8
 71
3
 72
8
 73
4
 74
0
 40
0
 40
0
 40
0
 40
0
 40
1
 40
1
 40
1
 40
1
 10
993.473390
 20
1000.245222
 30
0.0
 10
993.245496
 20
1000.031030
 30
0.0
 10
993.054083
 20
999.789494
 30
0.0
 10
992.899150
 20
999.520614
 30
0.0
  0
SPLINE
  5
1ea
100
AcDbEntity
  8
Layer_1
 62
6
100
AcDbSpline
 70
8
 71
3
 72
8
 73
4
 74
0
 40
0
 40
0
 40
0
 40
0
 40
1
 40
1
 40
1
 40
1
 10
992.899150
 20
999.520614
 30
0.0
 10
992.744216
 20
999.251734
 30
0.0
 10
992.646243
 20
998.969182
 30
0.0
 10
992.605230
 20
998.672958
 30
0.0
  0
LWPOLYLINE
  5
1eb
100
AcDbEntity
  8
Layer_1
 62
6
100
AcDbPolyline
 90
2
 70
1
 10
993.028990
 20
1005.112406
 30
0.0
 10
992.427470
 20
1005.112406
 30
0.0
  0
SPLINE
  5
1ec
100
AcDbEntity
  8
Layer_1
 62
6
100
AcDbSpline
 70
8
 71
3
 72
8
 73
4
 74
0
 40
0
 40
0
 40
0
 40
0
 40
1
 40
1
 40
1
 40
1
 10
1006.919630
 20
1003.150494
 30
0.0
 10
1006.919630
 20
1002.239038
 30
0.0
 10
1006.778350
 20
1001.389102
 30
0.0
 10
1006.495790
 20
1000.600686
 30
0.0
  0
SPLINE
  5
1ed
100
AcDbEntity
  8
Layer_1
 62
6
100
AcDbSpline
 70
8
 71
3
 72
8
 73
4
 74
0
 40
0
 40
0
 40
0
 40
0
 40
1
 40
1
 40
1
 40
1
 10
1006.495790
 20
1000.600686
 30
0.0
 10
1006.213283
 20
999.812276
 30
0.0
 10
1005.809976
 20
999.174257
 30
0.0
 10
1005.285870
 20
998.686630
 30
0.0
  0
SPLINE
  5
1ee
100
AcDbEntity
  8
Layer_1
 62
6
100
AcDbSpline
 70
8
 71
3
 72
8
 73
4
 74
0
 40
0
 40
0
 40
0
 40
0
 40
1
 40
1
 40
1
 40
1
 10
1005.285870
 20
998.686630
 30
0.0
 10
1004.766350
 20
998.198998
 30
0.0
 10
1004.185283
 20
997.955182
 30
0.0
 10
1003.542670
 20
997.955182
 30
0.0
  0
SPLINE
  5
1ef
100
AcDbEntity
  8
Layer_1
 62
6
100
AcDbSpline
 70
8
 71
3
 72
8
 73
4
 74
0
 40
0
 40
0
 40
0
 40
0
 40
1
 40
1
 40
1
 40
1
 10
1003.542670
 20
997.955182
 30
0.0
 10
1002.895576
 20
997.955182
 30
0.0
 10
1002.307683
 20
998.198998
 30
0.0
 10
1001.778990
 20
998.686630
 30
0.0
  0
SPLINE
  5
1f0
100
AcDbEntity
  8
Layer_1
 62
6
100
AcDbSpline
 70
8
 71
3
 72
8
 73
4
 74
0
 40
0
 40
0
 40
0
 40
0
 40
1
 40
1
 40
1
 40
1
 10
1001.778990
 20
998.686630
 30
0.0
 10
1001.254936
 20
999.174257
 30
0.0
 10
1000.851630
 20
999.812276
 30
0.0
 10
1000.569070
 20
1000.600686
 30
0.0
  0
SPLINE
  5
1f1
100
AcDbEntity
  8
Layer_1
 62
6
100
AcDbSpline
 70
8
 71
3
 72
8
 73
4
 74
0
 40
0
 40
0
 40
0
 40
0
 40
1
 40
1
 40
1
 40
1
 10
1000.569070
 20
1000.600686
 30
0.0
 10
1000.286510
 20
1001.389102
 30
0.0
 10
1000.145230
 20
1002.239038
 30
0.0
 10
1000.145230
 20
1003.150494
 30
0.0
  0
SPLINE
  5
1f2
100
AcDbEntity
  8
Layer_1
 62
6
100
AcDbSpline
 70
8
 71
3
 72
8
 73
4
 74
0
 40
0
 40
0
 40
0
 40
0
 40
1
 40
1
 40
1
 40
1
 10
1000.145230
 20
1003.150494
 30
0.0
 10
1000.145230
 20
1003.834089
 30
0.0
 10
1000.229550
 20
1004.490340
 30
0.0
 10
1000.398190
 20
1005.119246
 30
0.0
  0
SPLINE
  5
1f3
100
AcDbEntity
  8
Layer_1
 62
6
100
AcDbSpline
 70
8
 71
3
 72
8
 73
4
 74
0
 40
0
 40
0
 40
0
 40
0
 40
1
 40
1
 40
1
 40
1
 10
1000.398190
 20
1005.119246
 30
0.0
 10
1000.566776
 20
1005.752708
 30
0.0
 10
1000.796910
 20
1006.306417
 30
0.0
 10
1001.088590
 20
1006.780374
 30
0.0
  0
SPLINE
  5
1f4
100
AcDbEntity
  8
Layer_1
 62
6
100
AcDbSpline
 70
8
 71
3
 72
8
 73
4
 74
0
 40
0
 40
0
 40
0
 40
0
 40
1
 40
1
 40
1
 40
1
 10
1001.088590
 20
1006.780374
 30
0.0
 10
1001.380270
 20
1007.258892
 30
0.0
 10
1001.740296
 20
1007.639428
 30
0.0
 10
1002.168670
 20
1007.921982
 30
0.0
  0
SPLINE
  5
1f5
100
AcDbEntity
  8
Layer_1
 62
6
100
AcDbSpline
 70
8
 71
3
 72
8
 73
4
 74
0
 40
0
 40
0
 40
0
 40
0
 40
1
 40
1
 40
1
 40
1
 10
1002.168670
 20
1007.921982
 30
0.0
 10
1002.597043
 20
1008.209092
 30
0.0
 10
1003.055043
 20
1008.352646
 30
0.0
 10
1003.542670
 20
1008.352646
 30
0.0
  0
SPLINE
  5
1f6
100
AcDbEntity
  8
Layer_1
 62
6
100
AcDbSpline
 70
8
 71
3
 72
8
 73
4
 74
0
 40
0
 40
0
 40
0
 40
0
 40
1
 40
1
 40
1
 40
1
 10
1003.542670
 20
1008.352646
 30
0.0
 10
1004.185283
 20
1008.352646
 30
0.0
 10
1004.766350
 20
1008.108830
 30
0.0
 10
1005.285870
 20
1007.621198
 30
0.0
  0
SPLINE
  5
1f7
100
AcDbEntity
  8
Layer_1
 62
6
100
AcDbSpline
 70
8
 71
3
 72
8
 73
4
 74
0
 40
0
 40
0
 40
0
 40
0
 40
1
 40
1
 40
1
 40
1
 10
1005.285870
 20
1007.621198
 30
0.0
 10
1005.809976
 20
1007.138126
 30
0.0
 10
1006.213283
 20
1006.500105
 30
0.0
 10
1006.495790
 20
1005.707134
 30
0.0
  0
SPLINE
  5
1f8
100
AcDbEntity
  8
Layer_1
 62
6
100
AcDbSpline
 70
8
 71
3
 72
8
 73
4
 74
0
 40
0
 40
0
 40
0
 40
0
 40
1
 40
1
 40
1
 40
1
 10
1006.495790
 20
1005.707134
 30
0.0
 10
1006.778350
 20
1004.918724
 30
0.0
 10
1006.919630
 20
1004.066510
 30
0.0
 10
1006.919630
 20
1003.150494
 30
0.0
  0
LWPOLYLINE
  5
1f9
100
AcDbEntity
  8
Layer_1
 62
6
100
AcDbPolyline
 90
4
 70
1
 10
992.605230
 20
998.672958
 30
0.0
 10
998.648190
 20
998.672958
 30
0.0
 10
998.648190
 20
998.057718
 30
0.0
 10
998.648190
 20
998.057718
 30
0.0
  0
SPLINE
  5
1fa
100
AcDbEntity
  8
Layer_1
 62
6
100
AcDbSpline
 70
8
 71
3
 72
8
 73
4
 74
0
 40
0
 40
0
 40
0
 40
0
 40
1
 40
1
 40
1
 40
1
 10
1000.753630
 20
1003.150494
 30
0.0
 10
1000.753630
 20
1002.503358
 30
0.0
 10
1000.831096
 20
1001.890404
 30
0.0
 10
1000.986030
 20
1001.311630
 30
0.0
  0
SPLINE
  5
1fb
100
AcDbEntity
  8
Layer_1
 62
6
100
AcDbSpline
 70
8
 71
3
 72
8
 73
4
 74
0
 40
0
 40
0
 40
0
 40
0
 40
1
 40
1
 40
1
 40
1
 10
1000.986030
 20
1001.311630
 30
0.0
 10
1001.145550
 20
1000.737412
 30
0.0
 10
1001.355203
 20
1000.252060
 30
0.0
 10
1001.614990
 20
999.855574
 30
0.0
  0
SPLINE
  5
1fc
100
AcDbEntity
  8
Layer_1
 62
6
100
AcDbSpline
 70
8
 71
3
 72
8
 73
4
 74
0
 40
0
 40
0
 40
0
 40
0
 40
1
 40
1
 40
1
 40
1
 10
1001.614990
 20
999.855574
 30
0.0
 10
1001.874723
 20
999.459089
 30
0.0
 10
1002.173203
 20
999.144636
 30
0.0
 10
1002.510430
 20
998.912214
 30
0.0
  0
SPLINE
  5
1fd
100
AcDbEntity
  8
Layer_1
 62
6
100
AcDbSpline
 70
8
 71
3
 72
8
 73
4
 74
0
 40
0
 40
0
 40
0
 40
0
 40
1
 40
1
 40
1
 40
1
 10
1002.510430
 20
998.912214
 30
0.0
 10
1002.847710
 20
998.679793
 30
0.0
 10
1003.191790
 20
998.563582
 30
0.0
 10
1003.542670
 20
998.563582
 30
0.0
  0
SPLINE
  5
1fe
100
AcDbEntity
  8
Layer_1
 62
6
100
AcDbSpline
 70
8
 71
3
 72
8
 73
4
 74
0
 40
0
 40
0
 40
0
 40
0
 40
1
 40
1
 40
1
 40
1
 10
1003.542670
 20
998.563582
 30
0.0
 10
1003.820696
 20
998.563582
 30
0.0
 10
1004.094136
 20
998.636497
 30
0.0
 10
1004.362990
 20
998.782326
 30
0.0
  0
SPLINE
  5
1ff
100
AcDbEntity
  8
Layer_1
 62
6
100
AcDbSpline
 70
8
 71
3
 72
8
 73
4
 74
0
 40
0
 40
0
 40
0
 40
0
 40
1
 40
1
 40
1
 40
1
 10
1004.362990
 20
998.782326
 30
0.0
 10
1004.636430
 20
998.928161
 30
0.0
 10
1004.889363
 20
999.137798
 30
0.0
 10
1005.121790
 20
999.411238
 30
0.0
  0
SPLINE
  5
200
100
AcDbEntity
  8
Layer_1
 62
6
100
AcDbSpline
 70
8
 71
3
 72
8
 73
4
 74
0
 40
0
 40
0
 40
0
 40
0
 40
1
 40
1
 40
1
 40
1
 10
1005.121790
 20
999.411238
 30
0.0
 10
1005.354216
 20
999.689233
 30
0.0
 10
1005.559310
 20
1000.012801
 30
0.0
 10
1005.737070
 20
1000.381942
 30
0.0
  0
SPLINE
  5
201
100
AcDbEntity
  8
Layer_1
 62
6
100
AcDbSpline
 70
8
 71
3
 72
8
 73
4
 74
0
 40
0
 40
0
 40
0
 40
0
 40
1
 40
1
 40
1
 40
1
 10
1005.737070
 20
1000.381942
 30
0.0
 10
1005.914776
 20
1000.751078
 30
0.0
 10
1006.053763
 20
1001.174905
 30
0.0
 10
1006.154030
 20
1001.653422
 30
0.0
  0
SPLINE
  5
202
100
AcDbEntity
  8
Layer_1
 62
6
100
AcDbSpline
 70
8
 71
3
 72
8
 73
4
 74
0
 40
0
 40
0
 40
0
 40
0
 40
1
 40
1
 40
1
 40
1
 10
1006.154030
 20
1001.653422
 30
0.0
 10
1006.258830
 20
1002.131940
 30
0.0
 10
1006.311230
 20
1002.630964
 30
0.0
 10
1006.311230
 20
1003.150494
 30
0.0
  0
SPLINE
  5
203
100
AcDbEntity
  8
Layer_1
 62
6
100
AcDbSpline
 70
8
 71
3
 72
8
 73
4
 74
0
 40
0
 40
0
 40
0
 40
0
 40
1
 40
1
 40
1
 40
1
 10
1006.311230
 20
1003.150494
 30
0.0
 10
1006.311230
 20
1003.802185
 30
0.0
 10
1006.231496
 20
1004.417420
 30
0.0
 10
1006.072030
 20
1004.996198
 30
0.0
  0
SPLINE
  5
204
100
AcDbEntity
  8
Layer_1
 62
6
100
AcDbSpline
 70
8
 71
3
 72
8
 73
4
 74
0
 40
0
 40
0
 40
0
 40
0
 40
1
 40
1
 40
1
 40
1
 10
1006.072030
 20
1004.996198
 30
0.0
 10
1005.917043
 20
1005.574972
 30
0.0
 10
1005.709683
 20
1006.062601
 30
0.0
 10
1005.449950
 20
1006.459086
 30
0.0
  0
SPLINE
  5
205
100
AcDbEntity
  8
Layer_1
 62
6
100
AcDbSpline
 70
8
 71
3
 72
8
 73
4
 74
0
 40
0
 40
0
 40
0
 40
0
 40
1
 40
1
 40
1
 40
1
 10
1005.449950
 20
1006.459086
 30
0.0
 10
1005.194696
 20
1006.855572
 30
0.0
 10
1004.898456
 20
1007.167748
 30
0.0
 10
1004.561230
 20
1007.395614
 30
0.0
  0
SPLINE
  5
206
100
AcDbEntity
  8
Layer_1
 62
6
100
AcDbSpline
 70
8
 71
3
 72
8
 73
4
 74
0
 40
0
 40
0
 40
0
 40
0
 40
1
 40
1
 40
1
 40
1
 10
1004.561230
 20
1007.395614
 30
0.0
 10
1004.228536
 20
1007.628036
 30
0.0
 10
1003.889016
 20
1007.744246
 30
0.0
 10
1003.542670
 20
1007.744246
 30
0.0
  0
SPLINE
  5
207
100
AcDbEntity
  8
Layer_1
 62
6
100
AcDbSpline
 70
8
 71
3
 72
8
 73
4
 74
0
 40
0
 40
0
 40
0
 40
0
 40
1
 40
1
 40
1
 40
1
 10
1003.542670
 20
1007.744246
 30
0.0
 10
1003.191790
 20
1007.744246
 30
0.0
 10
1002.847710
 20
1007.628036
 30
0.0
 10
1002.510430
 20
1007.395614
 30
0.0
  0
SPLINE
  5
208
100
AcDbEntity
  8
Layer_1
 62
6
100
AcDbSpline
 70
8
 71
3
 72
8
 73
4
 74
0
 40
0
 40
0
 40
0
 40
0
 40
1
 40
1
 40
1
 40
1
 10
1002.510430
 20
1007.395614
 30
0.0
 10
1002.173203
 20
1007.167748
 30
0.0
 10
1001.874723
 20
1006.855572
 30
0.0
 10
1001.614990
 20
1006.459086
 30
0.0
  0
SPLINE
  5
209
100
AcDbEntity
  8
Layer_1
 62
6
100
AcDbSpline
 70
8
 71
3
 72
8
 73
4
 74
0
 40
0
 40
0
 40
0
 40
0
 40
1
 40
1
 40
1
 40
1
 10
1001.614990
 20
1006.459086
 30
0.0
 10
1001.355203
 20
1006.062601
 30
0.0
 10
1001.145550
 20
1005.574972
 30
0.0
 10
1000.986030
 20
1004.996198
 30
0.0
  0
SPLINE
  5
20a
100
AcDbEntity
  8
Layer_1
 62
6
100
AcDbSpline
 70
8
 71
3
 72
8
 73
4
 74
0
 40
0
 40
0
 40
0
 40
0
 40
1
 40
1
 40
1
 40
1
 10
1000.986030
 20
1004.996198
 30
0.0
 10
1000.831096
 20
1004.417420
 30
0.0
 10
1000.753630
 20
1003.802185
 30
0.0
 10
1000.753630
 20
1003.150494
 30
0.0
  0
LWPOLYLINE
  5
20b
100
AcDbEntity
  8
Layer_1
 62
6
100
AcDbPolyline
 90
2
 70
1
 10
1006.919630
 20
1003.150494
 30
0.0
 10
1006.919630
 20
1003.150494
 30
0.0
  0
LWPOLYLINE
  5
20c
100
AcDbEntity
  8
Layer_1
 62
6
100
AcDbPolyline
 90
2
 70
1
 10
1000.753630
 20
1003.150494
 30
0.0
 10
1000.753630
 20
1003.150494
 30
0.0
  0
LWPOLYLINE
  5
20d
100
AcDbEntity
  8
Layer_1
 62
6
100
AcDbPolyline
 90
6
 70
1
 10
1014.842510
 20
1008.263774
 30
0.0
 10
1015.608110
 20
1008.263774
 30
0.0
 10
1008.348350
 20
998.057718
 30
0.0
 10
1007.603230
 20
998.057718
 30
0.0
 10
1014.842510
 20
1008.263774
 30
0.0
 10
1014.842510
 20
1008.263774
 30
0.0
  0
SPLINE
  5
20e
100
AcDbEntity
  8
Layer_1
 62
6
100
AcDbSpline
 70
8
 71
3
 72
8
 73
4
 74
0
 40
0
 40
0
 40
0
 40
0
 40
1
 40
1
 40
1
 40
1
 10
1031.200910
 20
1003.150494
 30
0.0
 10
1031.200910
 20
1002.239038
 30
0.0
 10
1031.059630
 20
1001.389102
 30
0.0
 10
1030.777070
 20
1000.600686
 30
0.0
  0
SPLINE
  5
20f
100
AcDbEntity
  8
Layer_1
 62
6
100
AcDbSpline
 70
8
 71
3
 72
8
 73
4
 74
0
 40
0
 40
0
 40
0
 40
0
 40
1
 40
1
 40
1
 40
1
 10
1030.777070
 20
1000.600686
 30
0.0
 10
1030.494510
 20
999.812276
 30
0.0
 10
1030.091176
 20
999.174257
 30
0.0
 10
1029.567070
 20
998.686630
 30
0.0
  0
SPLINE
  5
210
100
AcDbEntity
  8
Layer_1
 62
6
100
AcDbSpline
 70
8
 71
3
 72
8
 73
4
 74
0
 40
0
 40
0
 40
0
 40
0
 40
1
 40
1
 40
1
 40
1
 10
1029.567070
 20
998.686630
 30
0.0
 10
1029.047550
 20
998.198998
 30
0.0
 10
1028.466510
 20
997.955182
 30
0.0
 10
1027.823950
 20
997.955182
 30
0.0
  0
SPLINE
  5
211
100
AcDbEntity
  8
Layer_1
 62
6
100
AcDbSpline
 70
8
 71
3
 72
8
 73
4
 74
0
 40
0
 40
0
 40
0
 40
0
 40
1
 40
1
 40
1
 40
1
 10
1027.823950
 20
997.955182
 30
0.0
 10
1027.176803
 20
997.955182
 30
0.0
 10
1026.588910
 20
998.198998
 30
0.0
 10
1026.060270
 20
998.686630
 30
0.0
  0
SPLINE
  5
212
100
AcDbEntity
  8
Layer_1
 62
6
100
AcDbSpline
 70
8
 71
3
 72
8
 73
4
 74
0
 40
0
 40
0
 40
0
 40
0
 40
1
 40
1
 40
1
 40
1
 10
1026.060270
 20
998.686630
 30
0.0
 10
1025.536163
 20
999.174257
 30
0.0
 10
1025.132856
 20
999.812276
 30
0.0
 10
1024.850350
 20
1000.600686
 30
0.0
  0
SPLINE
  5
213
100
AcDbEntity
  8
Layer_1
 62
6
100
AcDbSpline
 70
8
 71
3
 72
8
 73
4
 74
0
 40
0
 40
0
 40
0
 40
0
 40
1
 40
1
 40
1
 40
1
 10
1024.850350
 20
1000.600686
 30
0.0
 10
1024.567790
 20
1001.389102
 30
0.0
 10
1024.426510
 20
1002.239038
 30
0.0
 10
1024.426510
 20
1003.150494
 30
0.0
  0
SPLINE
  5
214
100
AcDbEntity
  8
Layer_1
 62
6
100
AcDbSpline
 70
8
 71
3
 72
8
 73
4
 74
0
 40
0
 40
0
 40
0
 40
0
 40
1
 40
1
 40
1
 40
1
 10
1024.426510
 20
1003.150494
 30
0.0
 10
1024.426510
 20
1003.834089
 30
0.0
 10
1024.510803
 20
1004.490340
 30
0.0
 10
1024.679390
 20
1005.119246
 30
0.0
  0
SPLINE
  5
215
100
AcDbEntity
  8
Layer_1
 62
6
100
AcDbSpline
 70
8
 71
3
 72
8
 73
4
 74
0
 40
0
 40
0
 40
0
 40
0
 40
1
 40
1
 40
1
 40
1
 10
1024.679390
 20
1005.119246
 30
0.0
 10
1024.848030
 20
1005.752708
 30
0.0
 10
1025.078190
 20
1006.306417
 30
0.0
 10
1025.369870
 20
1006.780374
 30
0.0
  0
SPLINE
  5
216
100
AcDbEntity
  8
Layer_1
 62
6
100
AcDbSpline
 70
8
 71
3
 72
8
 73
4
 74
0
 40
0
 40
0
 40
0
 40
0
 40
1
 40
1
 40
1
 40
1
 10
1025.369870
 20
1006.780374
 30
0.0
 10
1025.661496
 20
1007.258892
 30
0.0
 10
1026.021523
 20
1007.639428
 30
0.0
 10
1026.449950
 20
1007.921982
 30
0.0
  0
SPLINE
  5
217
100
AcDbEntity
  8
Layer_1
 62
6
100
AcDbSpline
 70
8
 71
3
 72
8
 73
4
 74
0
 40
0
 40
0
 40
0
 40
0
 40
1
 40
1
 40
1
 40
1
 10
1026.449950
 20
1007.921982
 30
0.0
 10
1026.878323
 20
1008.209092
 30
0.0
 10
1027.336323
 20
1008.352646
 30
0.0
 10
1027.823950
 20
1008.352646
 30
0.0
  0
SPLINE
  5
218
100
AcDbEntity
  8
Layer_1
 62
6
100
AcDbSpline
 70
8
 71
3
 72
8
 73
4
 74
0
 40
0
 40
0
 40
0
 40
0
 40
1
 40
1
 40
1
 40
1
 10
1027.823950
 20
1008.352646
 30
0.0
 10
1028.466510
 20
1008.352646
 30
0.0
 10
1029.047550
 20
1008.108830
 30
0.0
 10
1029.567070
 20
1007.621198
 30
0.0
  0
SPLINE
  5
219
100
AcDbEntity
  8
Layer_1
 62
6
100
AcDbSpline
 70
8
 71
3
 72
8
 73
4
 74
0
 40
0
 40
0
 40
0
 40
0
 40
1
 40
1
 40
1
 40
1
 10
1029.567070
 20
1007.621198
 30
0.0
 10
1030.091176
 20
1007.138126
 30
0.0
 10
1030.494510
 20
1006.500105
 30
0.0
 10
1030.777070
 20
1005.707134
 30
0.0
  0
SPLINE
  5
21a
100
AcDbEntity
  8
Layer_1
 62
6
100
AcDbSpline
 70
8
 71
3
 72
8
 73
4
 74
0
 40
0
 40
0
 40
0
 40
0
 40
1
 40
1
 40
1
 40
1
 10
1030.777070
 20
1005.707134
 30
0.0
 10
1031.059630
 20
1004.918724
 30
0.0
 10
1031.200910
 20
1004.066510
 30
0.0
 10
1031.200910
 20
1003.150494
 30
0.0
  0
LWPOLYLINE
  5
21b
100
AcDbEntity
  8
Layer_1
 62
6
100
AcDbPolyline
 90
8
 70
1
 10
1019.367870
 20
998.057718
 30
0.0
 10
1019.340670
 20
1007.163190
 30
0.0
 10
1018.233310
 20
1006.500102
 30
0.0
 10
1017.925630
 20
1007.040142
 30
0.0
 10
1019.983310
 20
1008.263774
 30
0.0
 10
1019.983310
 20
998.057718
 30
0.0
 10
1019.368030
 20
998.057718
 30
0.0
 10
1019.367870
 20
998.057718
 30
0.0
  0
SPLINE
  5
21c
100
AcDbEntity
  8
Layer_1
 62
6
100
AcDbSpline
 70
8
 71
3
 72
8
 73
4
 74
0
 40
0
 40
0
 40
0
 40
0
 40
1
 40
1
 40
1
 40
1
 10
1025.034910
 20
1003.150494
 30
0.0
 10
1025.034910
 20
1002.503358
 30
0.0
 10
1025.112376
 20
1001.890404
 30
0.0
 10
1025.267310
 20
1001.311630
 30
0.0
  0
SPLINE
  5
21d
100
AcDbEntity
  8
Layer_1
 62
6
100
AcDbSpline
 70
8
 71
3
 72
8
 73
4
 74
0
 40
0
 40
0
 40
0
 40
0
 40
1
 40
1
 40
1
 40
1
 10
1025.267310
 20
1001.311630
 30
0.0
 10
1025.426830
 20
1000.737412
 30
0.0
 10
1025.636456
 20
1000.252060
 30
0.0
 10
1025.896190
 20
999.855574
 30
0.0
  0
SPLINE
  5
21e
100
AcDbEntity
  8
Layer_1
 62
6
100
AcDbSpline
 70
8
 71
3
 72
8
 73
4
 74
0
 40
0
 40
0
 40
0
 40
0
 40
1
 40
1
 40
1
 40
1
 10
1025.896190
 20
999.855574
 30
0.0
 10
1026.155976
 20
999.459089
 30
0.0
 10
1026.454483
 20
999.144636
 30
0.0
 10
1026.791710
 20
998.912214
 30
0.0
  0
SPLINE
  5
21f
100
AcDbEntity
  8
Layer_1
 62
6
100
AcDbSpline
 70
8
 71
3
 72
8
 73
4
 74
0
 40
0
 40
0
 40
0
 40
0
 40
1
 40
1
 40
1
 40
1
 10
1026.791710
 20
998.912214
 30
0.0
 10
1027.128936
 20
998.679793
 30
0.0
 10
1027.473016
 20
998.563582
 30
0.0
 10
1027.823950
 20
998.563582
 30
0.0
  0
SPLINE
  5
220
100
AcDbEntity
  8
Layer_1
 62
6
100
AcDbSpline
 70
8
 71
3
 72
8
 73
4
 74
0
 40
0
 40
0
 40
0
 40
0
 40
1
 40
1
 40
1
 40
1
 10
1027.823950
 20
998.563582
 30
0.0
 10
1028.101923
 20
998.563582
 30
0.0
 10
1028.375363
 20
998.636497
 30
0.0
 10
1028.644270
 20
998.782326
 30
0.0
  0
SPLINE
  5
221
100
AcDbEntity
  8
Layer_1
 62
6
100
AcDbSpline
 70
8
 71
3
 72
8
 73
4
 74
0
 40
0
 40
0
 40
0
 40
0
 40
1
 40
1
 40
1
 40
1
 10
1028.644270
 20
998.782326
 30
0.0
 10
1028.917710
 20
998.928161
 30
0.0
 10
1029.170643
 20
999.137798
 30
0.0
 10
1029.403070
 20
999.411238
 30
0.0
  0
SPLINE
  5
222
100
AcDbEntity
  8
Layer_1
 62
6
100
AcDbSpline
 70
8
 71
3
 72
8
 73
4
 74
0
 40
0
 40
0
 40
0
 40
0
 40
1
 40
1
 40
1
 40
1
 10
1029.403070
 20
999.411238
 30
0.0
 10
1029.635496
 20
999.689233
 30
0.0
 10
1029.840563
 20
1000.012801
 30
0.0
 10
1030.018270
 20
1000.381942
 30
0.0
  0
SPLINE
  5
223
100
AcDbEntity
  8
Layer_1
 62
6
100
AcDbSpline
 70
8
 71
3
 72
8
 73
4
 74
0
 40
0
 40
0
 40
0
 40
0
 40
1
 40
1
 40
1
 40
1
 10
1030.018270
 20
1000.381942
 30
0.0
 10
1030.196030
 20
1000.751078
 30
0.0
 10
1030.335043
 20
1001.174905
 30
0.0
 10
1030.435310
 20
1001.653422
 30
0.0
  0
SPLINE
  5
224
100
AcDbEntity
  8
Layer_1
 62
6
100
AcDbSpline
 70
8
 71
3
 72
8
 73
4
 74
0
 40
0
 40
0
 40
0
 40
0
 40
1
 40
1
 40
1
 40
1
 10
1030.435310
 20
1001.653422
 30
0.0
 10
1030.540110
 20
1002.131940
 30
0.0
 10
1030.592510
 20
1002.630964
 30
0.0
 10
1030.592510
 20
1003.150494
 30
0.0
  0
SPLINE
  5
225
100
AcDbEntity
  8
Layer_1
 62
6
100
AcDbSpline
 70
8
 71
3
 72
8
 73
4
 74
0
 40
0
 40
0
 40
0
 40
0
 40
1
 40
1
 40
1
 40
1
 10
1030.592510
 20
1003.150494
 30
0.0
 10
1030.592510
 20
1003.802185
 30
0.0
 10
1030.512750
 20
1004.417420
 30
0.0
 10
1030.353230
 20
1004.996198
 30
0.0
  0
SPLINE
  5
226
100
AcDbEntity
  8
Layer_1
 62
6
100
AcDbSpline
 70
8
 71
3
 72
8
 73
4
 74
0
 40
0
 40
0
 40
0
 40
0
 40
1
 40
1
 40
1
 40
1
 10
1030.353230
 20
1004.996198
 30
0.0
 10
1030.198296
 20
1005.574972
 30
0.0
 10
1029.990936
 20
1006.062601
 30
0.0
 10
1029.731150
 20
1006.459086
 30
0.0
  0
SPLINE
  5
227
100
AcDbEntity
  8
Layer_1
 62
6
100
AcDbSpline
 70
8
 71
3
 72
8
 73
4
 74
0
 40
0
 40
0
 40
0
 40
0
 40
1
 40
1
 40
1
 40
1
 10
1029.731150
 20
1006.459086
 30
0.0
 10
1029.475950
 20
1006.855572
 30
0.0
 10
1029.179736
 20
1007.167748
 30
0.0
 10
1028.842510
 20
1007.395614
 30
0.0
  0
SPLINE
  5
228
100
AcDbEntity
  8
Layer_1
 62
6
100
AcDbSpline
 70
8
 71
3
 72
8
 73
4
 74
0
 40
0
 40
0
 40
0
 40
0
 40
1
 40
1
 40
1
 40
1
 10
1028.842510
 20
1007.395614
 30
0.0
 10
1028.509816
 20
1007.628036
 30
0.0
 10
1028.170296
 20
1007.744246
 30
0.0
 10
1027.823950
 20
1007.744246
 30
0.0
  0
SPLINE
  5
229
100
AcDbEntity
  8
Layer_1
 62
6
100
AcDbSpline
 70
8
 71
3
 72
8
 73
4
 74
0
 40
0
 40
0
 40
0
 40
0
 40
1
 40
1
 40
1
 40
1
 10
1027.823950
 20
1007.744246
 30
0.0
 10
1027.473016
 20
1007.744246
 30
0.0
 10
1027.128936
 20
1007.628036
 30
0.0
 10
1026.791710
 20
1007.395614
 30
0.0
  0
SPLINE
  5
22a
100
AcDbEntity
  8
Layer_1
 62
6
100
AcDbSpline
 70
8
 71
3
 72
8
 73
4
 74
0
 40
0
 40
0
 40
0
 40
0
 40
1
 40
1
 40
1
 40
1
 10
1026.791710
 20
1007.395614
 30
0.0
 10
1026.454483
 20
1007.167748
 30
0.0
 10
1026.155976
 20
1006.855572
 30
0.0
 10
1025.896190
 20
1006.459086
 30
0.0
  0
SPLINE
  5
22b
100
AcDbEntity
  8
Layer_1
 62
6
100
AcDbSpline
 70
8
 71
3
 72
8
 73
4
 74
0
 40
0
 40
0
 40
0
 40
0
 40
1
 40
1
 40
1
 40
1
 10
1025.896190
 20
1006.459086
 30
0.0
 10
1025.636456
 20
1006.062601
 30
0.0
 10
1025.426830
 20
1005.574972
 30
0.0
 10
1025.267310
 20
1004.996198
 30
0.0
  0
SPLINE
  5
22c
100
AcDbEntity
  8
Layer_1
 62
6
100
AcDbSpline
 70
8
 71
3
 72
8
 73
4
 74
0
 40
0
 40
0
 40
0
 40
0
 40
1
 40
1
 40
1
 40
1
 10
1025.267310
 20
1004.996198
 30
0.0
 10
1025.112376
 20
1004.417420
 30
0.0
 10
1025.034910
 20
1003.802185
 30
0.0
 10
1025.034910
 20
1003.150494
 30
0.0
  0
LWPOLYLINE
  5
22d
100
AcDbEntity
  8
Layer_1
 62
6
100
AcDbPolyline
 90
2
 70
1
 10
1031.200910
 20
1003.150494
 30
0.0
 10
1031.200910
 20
1003.150494
 30
0.0
  0
LWPOLYLINE
  5
22e
100
AcDbEntity
  8
Layer_1
 62
6
100
AcDbPolyline
 90
2
 70
1
 10
1025.034910
 20
1003.150494
 30
0.0
 10
1025.034910
 20
1003.150494
 30
0.0
  0
SPLINE
  5
22f
100
AcDbEntity
  8
Layer_1
 62
6
100
AcDbSpline
 70
8
 71
3
 72
8
 73
4
 74
0
 40
0
 40
0
 40
0
 40
0
 40
1
 40
1
 40
1
 40
1
 10
1038.570030
 20
999.664166
 30
0.0
 10
1038.287470
 20
999.153750
 30
0.0
 10
1037.906936
 20
998.745873
 30
0.0
 10
1037.428430
 20
998.440534
 30
0.0
  0
SPLINE
  5
230
100
AcDbEntity
  8
Layer_1
 62
6
100
AcDbSpline
 70
8
 71
3
 72
8
 73
4
 74
0
 40
0
 40
0
 40
0
 40
0
 40
1
 40
1
 40
1
 40
1
 10
1037.428430
 20
998.440534
 30
0.0
 10
1036.954456
 20
998.135196
 30
0.0
 10
1036.439496
 20
997.982526
 30
0.0
 10
1035.883550
 20
997.982526
 30
0.0
  0
SPLINE
  5
231
100
AcDbEntity
  8
Layer_1
 62
6
100
AcDbSpline
 70
8
 71
3
 72
8
 73
4
 74
0
 40
0
 40
0
 40
0
 40
0
 40
1
 40
1
 40
1
 40
1
 10
1035.883550
 20
997.982526
 30
0.0
 10
1035.304776
 20
997.982526
 30
0.0
 10
1034.771550
 20
998.142030
 30
0.0
 10
1034.283870
 20
998.461038
 30
0.0
  0
SPLINE
  5
232
100
AcDbEntity
  8
Layer_1
 62
6
100
AcDbSpline
 70
8
 71
3
 72
8
 73
4
 74
0
 40
0
 40
0
 40
0
 40
0
 40
1
 40
1
 40
1
 40
1
 10
1034.283870
 20
998.461038
 30
0.0
 10
1033.800830
 20
998.784606
 30
0.0
 10
1033.420296
 20
999.219828
 30
0.0
 10
1033.142270
 20
999.766702
 30
0.0
  0
SPLINE
  5
233
100
AcDbEntity
  8
Layer_1
 62
6
100
AcDbSpline
 70
8
 71
3
 72
8
 73
4
 74
0
 40
0
 40
0
 40
0
 40
0
 40
1
 40
1
 40
1
 40
1
 10
1033.142270
 20
999.766702
 30
0.0
 10
1032.868830
 20
1000.313577
 30
0.0
 10
1032.732110
 20
1000.906025
 30
0.0
 10
1032.732110
 20
1001.544046
 30
0.0
  0
SPLINE
  5
234
100
AcDbEntity
  8
Layer_1
 62
6
100
AcDbSpline
 70
8
 71
3
 72
8
 73
4
 74
0
 40
0
 40
0
 40
0
 40
0
 40
1
 40
1
 40
1
 40
1
 10
1032.732110
 20
1001.544046
 30
0.0
 10
1032.732110
 20
1002.186628
 30
0.0
 10
1032.868830
 20
1002.781356
 30
0.0
 10
1033.142270
 20
1003.328230
 30
0.0
  0
SPLINE
  5
235
100
AcDbEntity
  8
Layer_1
 62
6
100
AcDbSpline
 70
8
 71
3
 72
8
 73
4
 74
0
 40
0
 40
0
 40
0
 40
0
 40
1
 40
1
 40
1
 40
1
 10
1033.142270
 20
1003.328230
 30
0.0
 10
1033.420296
 20
1003.875105
 30
0.0
 10
1033.800830
 20
1004.308046
 30
0.0
 10
1034.283870
 20
1004.627054
 30
0.0
  0
SPLINE
  5
236
100
AcDbEntity
  8
Layer_1
 62
6
100
AcDbSpline
 70
8
 71
3
 72
8
 73
4
 74
0
 40
0
 40
0
 40
0
 40
0
 40
1
 40
1
 40
1
 40
1
 10
1034.283870
 20
1004.627054
 30
0.0
 10
1034.771550
 20
1004.950622
 30
0.0
 10
1035.304776
 20
1005.112406
 30
0.0
 10
1035.883550
 20
1005.112406
 30
0.0
  0
SPLINE
  5
237
100
AcDbEntity
  8
Layer_1
 62
6
100
AcDbSpline
 70
8
 71
3
 72
8
 73
4
 74
0
 40
0
 40
0
 40
0
 40
0
 40
1
 40
1
 40
1
 40
1
 10
1035.883550
 20
1005.112406
 30
0.0
 10
1036.439496
 20
1005.112406
 30
0.0
 10
1036.954456
 20
1004.959737
 30
0.0
 10
1037.428430
 20
1004.654398
 30
0.0
  0
SPLINE
  5
238
100
AcDbEntity
  8
Layer_1
 62
6
100
AcDbSpline
 70
8
 71
3
 72
8
 73
4
 74
0
 40
0
 40
0
 40
0
 40
0
 40
1
 40
1
 40
1
 40
1
 10
1037.428430
 20
1004.654398
 30
0.0
 10
1037.906936
 20
1004.349060
 30
0.0
 10
1038.287470
 20
1003.941182
 30
0.0
 10
1038.570030
 20
1003.430766
 30
0.0
  0
LWPOLYLINE
  5
239
100
AcDbEntity
  8
Layer_1
 62
6
100
AcDbPolyline
 90
2
 70
1
 10
1038.050510
 20
999.971782
 30
0.0
 10
1038.570030
 20
999.664166
 30
0.0
  0
SPLINE
  5
23a
100
AcDbEntity
  8
Layer_1
 62
6
100
AcDbSpline
 70
8
 71
3
 72
8
 73
4
 74
0
 40
0
 40
0
 40
0
 40
0
 40
1
 40
1
 40
1
 40
1
 10
1038.050510
 20
1003.123150
 30
0.0
 10
1037.808963
 20
1003.542420
 30
0.0
 10
1037.496776
 20
1003.872822
 30
0.0
 10
1037.113950
 20
1004.114358
 30
0.0
  0
SPLINE
  5
23b
100
AcDbEntity
  8
Layer_1
 62
6
100
AcDbSpline
 70
8
 71
3
 72
8
 73
4
 74
0
 40
0
 40
0
 40
0
 40
0
 40
1
 40
1
 40
1
 40
1
 10
1037.113950
 20
1004.114358
 30
0.0
 10
1036.735710
 20
1004.360454
 30
0.0
 10
1036.325576
 20
1004.483502
 30
0.0
 10
1035.883550
 20
1004.483502
 30
0.0
  0
SPLINE
  5
23c
100
AcDbEntity
  8
Layer_1
 62
6
100
AcDbSpline
 70
8
 71
3
 72
8
 73
4
 74
0
 40
0
 40
0
 40
0
 40
0
 40
1
 40
1
 40
1
 40
1
 10
1035.883550
 20
1004.483502
 30
0.0
 10
1035.186270
 20
1004.483502
 30
0.0
 10
1034.582430
 20
1004.200950
 30
0.0
 10
1034.072030
 20
1003.635846
 30
0.0
  0
SPLINE
  5
23d
100
AcDbEntity
  8
Layer_1
 62
6
100
AcDbSpline
 70
8
 71
3
 72
8
 73
4
 74
0
 40
0
 40
0
 40
0
 40
0
 40
1
 40
1
 40
1
 40
1
 10
1034.072030
 20
1003.635846
 30
0.0
 10
1033.561576
 20
1003.070742
 30
0.0
 10
1033.306350
 20
1002.380313
 30
0.0
 10
1033.306350
 20
1001.564558
 30
0.0
  0
SPLINE
  5
23e
100
AcDbEntity
  8
Layer_1
 62
6
100
AcDbSpline
 70
8
 71
3
 72
8
 73
4
 74
0
 40
0
 40
0
 40
0
 40
0
 40
1
 40
1
 40
1
 40
1
 10
1033.306350
 20
1001.564558
 30
0.0
 10
1033.306350
 20
1000.744244
 30
0.0
 10
1033.561576
 20
1000.046977
 30
0.0
 10
1034.072030
 20
999.472758
 30
0.0
  0
SPLINE
  5
23f
100
AcDbEntity
  8
Layer_1
 62
6
100
AcDbSpline
 70
8
 71
3
 72
8
 73
4
 74
0
 40
0
 40
0
 40
0
 40
0
 40
1
 40
1
 40
1
 40
1
 10
1034.072030
 20
999.472758
 30
0.0
 10
1034.582430
 20
998.898540
 30
0.0
 10
1035.186270
 20
998.611430
 30
0.0
 10
1035.883550
 20
998.611430
 30
0.0
  0
SPLINE
  5
240
100
AcDbEntity
  8
Layer_1
 62
6
100
AcDbSpline
 70
8
 71
3
 72
8
 73
4
 74
0
 40
0
 40
0
 40
0
 40
0
 40
1
 40
1
 40
1
 40
1
 10
1035.883550
 20
998.611430
 30
0.0
 10
1036.325576
 20
998.611430
 30
0.0
 10
1036.738003
 20
998.732198
 30
0.0
 10
1037.120830
 20
998.973734
 30
0.0
  0
SPLINE
  5
241
100
AcDbEntity
  8
Layer_1
 62
6
100
AcDbSpline
 70
8
 71
3
 72
8
 73
4
 74
0
 40
0
 40
0
 40
0
 40
0
 40
1
 40
1
 40
1
 40
1
 10
1037.120830
 20
998.973734
 30
0.0
 10
1037.503656
 20
999.215270
 30
0.0
 10
1037.813550
 20
999.547953
 30
0.0
 10
1038.050510
 20
999.971782
 30
0.0
  0
LWPOLYLINE
  5
242
100
AcDbEntity
  8
Layer_1
 62
6
100
AcDbPolyline
 90
2
 70
1
 10
1038.570030
 20
1003.430766
 30
0.0
 10
1038.050510
 20
1003.123150
 30
0.0
  0
LWPOLYLINE
  5
243
100
AcDbEntity
  8
Layer_1
 62
6
100
AcDbPolyline
 90
2
 70
1
 10
1038.050510
 20
999.971782
 30
0.0
 10
1038.050510
 20
999.971782
 30
0.0
  0
SPLINE
  5
244
100
AcDbEntity
  8
Layer_1
 62
6
100
AcDbSpline
 70
8
 71
3
 72
8
 73
4
 74
0
 40
0
 40
0
 40
0
 40
0
 40
1
 40
1
 40
1
 40
1
 10
1041.037790
 20
1004.989358
 30
0.0
 10
1041.124403
 20
1004.688580
 30
0.0
 10
1041.167710
 20
1004.383241
 30
0.0
 10
1041.167710
 20
1004.073342
 30
0.0
  0
LWPOLYLINE
  5
245
100
AcDbEntity
  8
Layer_1
 62
6
100
AcDbPolyline
 90
2
 70
1
 10
1040.381550
 20
1004.989358
 30
0.0
 10
1041.037790
 20
1004.989358
 30
0.0
  0
SPLINE
  5
246
100
AcDbEntity
  8
Layer_1
 62
6
100
AcDbSpline
 70
8
 71
3
 72
8
 73
4
 74
0
 40
0
 40
0
 40
0
 40
0
 40
1
 40
1
 40
1
 40
1
 10
1041.167710
 20
1003.075302
 30
0.0
 10
1041.386430
 20
1003.613062
 30
0.0
 10
1041.700883
 20
1004.084740
 30
0.0
 10
1042.111070
 20
1004.490334
 30
0.0
  0
SPLINE
  5
247
100
AcDbEntity
  8
Layer_1
 62
6
100
AcDbSpline
 70
8
 71
3
 72
8
 73
4
 74
0
 40
0
 40
0
 40
0
 40
0
 40
1
 40
1
 40
1
 40
1
 10
1042.111070
 20
1004.490334
 30
0.0
 10
1042.521203
 20
1004.895934
 30
0.0
 10
1042.908563
 20
1005.098734
 30
0.0
 10
1043.273150
 20
1005.098734
 30
0.0
  0
SPLINE
  5
248
100
AcDbEntity
  8
Layer_1
 62
6
100
AcDbSpline
 70
8
 71
3
 72
8
 73
4
 74
0
 40
0
 40
0
 40
0
 40
0
 40
1
 40
1
 40
1
 40
1
 10
1043.273150
 20
1005.098734
 30
0.0
 10
1043.815496
 20
1005.098734
 30
0.0
 10
1044.250723
 20
1004.909606
 30
0.0
 10
1044.578830
 20
1004.531350
 30
0.0
  0
SPLINE
  5
249
100
AcDbEntity
  8
Layer_1
 62
6
100
AcDbSpline
 70
8
 71
3
 72
8
 73
4
 74
0
 40
0
 40
0
 40
0
 40
0
 40
1
 40
1
 40
1
 40
1
 10
1044.578830
 20
1004.531350
 30
0.0
 10
1044.906936
 20
1004.157654
 30
0.0
 10
1045.114296
 20
1003.672305
 30
0.0
 10
1045.200910
 20
1003.075302
 30
0.0
  0
SPLINE
  5
24a
100
AcDbEntity
  8
Layer_1
 62
6
100
AcDbSpline
 70
8
 71
3
 72
8
 73
4
 74
0
 40
0
 40
0
 40
0
 40
0
 40
1
 40
1
 40
1
 40
1
 10
1045.200910
 20
1003.075302
 30
0.0
 10
1045.428750
 20
1003.631292
 30
0.0
 10
1045.734083
 20
1004.102969
 30
0.0
 10
1046.116910
 20
1004.490334
 30
0.0
  0
SPLINE
  5
24b
100
AcDbEntity
  8
Layer_1
 62
6
100
AcDbSpline
 70
8
 71
3
 72
8
 73
4
 74
0
 40
0
 40
0
 40
0
 40
0
 40
1
 40
1
 40
1
 40
1
 10
1046.116910
 20
1004.490334
 30
0.0
 10
1046.504270
 20
1004.882265
 30
0.0
 10
1046.884803
 20
1005.078230
 30
0.0
 10
1047.258510
 20
1005.078230
 30
0.0
  0
SPLINE
  5
24c
100
AcDbEntity
  8
Layer_1
 62
6
100
AcDbSpline
 70
8
 71
3
 72
8
 73
4
 74
0
 40
0
 40
0
 40
0
 40
0
 40
1
 40
1
 40
1
 40
1
 10
1047.258510
 20
1005.078230
 30
0.0
 10
1047.686883
 20
1005.078230
 30
0.0
 10
1048.049203
 20
1004.943790
 30
0.0
 10
1048.345470
 20
1004.674910
 30
0.0
  0
SPLINE
  5
24d
100
AcDbEntity
  8
Layer_1
 62
6
100
AcDbSpline
 70
8
 71
3
 72
8
 73
4
 74
0
 40
0
 40
0
 40
0
 40
0
 40
1
 40
1
 40
1
 40
1
 10
1048.345470
 20
1004.674910
 30
0.0
 10
1048.646216
 20
1004.410585
 30
0.0
 10
1048.860403
 20
1004.075622
 30
0.0
 10
1048.988030
 20
1003.670022
 30
0.0
  0
SPLINE
  5
24e
100
AcDbEntity
  8
Layer_1
 62
6
100
AcDbSpline
 70
8
 71
3
 72
8
 73
4
 74
0
 40
0
 40
0
 40
0
 40
0
 40
1
 40
1
 40
1
 40
1
 10
1048.988030
 20
1003.670022
 30
0.0
 10
1049.120190
 20
1003.268982
 30
0.0
 10
1049.186270
 20
1002.820089
 30
0.0
 10
1049.186270
 20
1002.323342
 30
0.0
  0
LWPOLYLINE
  5
24f
100
AcDbEntity
  8
Layer_1
 62
6
100
AcDbPolyline
 90
2
 70
1
 10
1041.167710
 20
1004.073342
 30
0.0
 10
1041.167710
 20
1003.075302
 30
0.0
  0
SPLINE
  5
250
100
AcDbEntity
  8
Layer_1
 62
6
100
AcDbSpline
 70
8
 71
3
 72
8
 73
4
 74
0
 40
0
 40
0
 40
0
 40
0
 40
1
 40
1
 40
1
 40
1
 10
1048.570990
 20
1002.323342
 30
0.0
 10
1048.570990
 20
1002.569438
 30
0.0
 10
1048.550456
 20
1002.808697
 30
0.0
 10
1048.509390
 20
1003.041118
 30
0.0
  0
SPLINE
  5
251
100
AcDbEntity
  8
Layer_1
 62
6
100
AcDbSpline
 70
8
 71
3
 72
8
 73
4
 74
0
 40
0
 40
0
 40
0
 40
0
 40
1
 40
1
 40
1
 40
1
 10
1048.509390
 20
1003.041118
 30
0.0
 10
1048.468323
 20
1003.273540
 30
0.0
 10
1048.399976
 20
1003.501404
 30
0.0
 10
1048.304350
 20
1003.724710
 30
0.0
  0
SPLINE
  5
252
100
AcDbEntity
  8
Layer_1
 62
6
100
AcDbSpline
 70
8
 71
3
 72
8
 73
4
 74
0
 40
0
 40
0
 40
0
 40
0
 40
1
 40
1
 40
1
 40
1
 10
1048.304350
 20
1003.724710
 30
0.0
 10
1048.213203
 20
1003.948017
 30
0.0
 10
1048.076483
 20
1004.128030
 30
0.0
 10
1047.894190
 20
1004.264750
 30
0.0
  0
SPLINE
  5
253
100
AcDbEntity
  8
Layer_1
 62
6
100
AcDbSpline
 70
8
 71
3
 72
8
 73
4
 74
0
 40
0
 40
0
 40
0
 40
0
 40
1
 40
1
 40
1
 40
1
 10
1047.894190
 20
1004.264750
 30
0.0
 10
1047.711896
 20
1004.401470
 30
0.0
 10
1047.495416
 20
1004.469830
 30
0.0
 10
1047.244750
 20
1004.469830
 30
0.0
  0
SPLINE
  5
254
100
AcDbEntity
  8
Layer_1
 62
6
100
AcDbSpline
 70
8
 71
3
 72
8
 73
4
 74
0
 40
0
 40
0
 40
0
 40
0
 40
1
 40
1
 40
1
 40
1
 10
1047.244750
 20
1004.469830
 30
0.0
 10
1046.939416
 20
1004.469830
 30
0.0
 10
1046.620403
 20
1004.296654
 30
0.0
 10
1046.287710
 20
1003.950302
 30
0.0
  0
SPLINE
  5
255
100
AcDbEntity
  8
Layer_1
 62
6
100
AcDbSpline
 70
8
 71
3
 72
8
 73
4
 74
0
 40
0
 40
0
 40
0
 40
0
 40
1
 40
1
 40
1
 40
1
 10
1046.287710
 20
1003.950302
 30
0.0
 10
1045.955016
 20
1003.608505
 30
0.0
 10
1045.683870
 20
1003.205182
 30
0.0
 10
1045.474270
 20
1002.740334
 30
0.0
  0
SPLINE
  5
256
100
AcDbEntity
  8
Layer_1
 62
6
100
AcDbSpline
 70
8
 71
3
 72
8
 73
4
 74
0
 40
0
 40
0
 40
0
 40
0
 40
1
 40
1
 40
1
 40
1
 10
1045.474270
 20
1002.740334
 30
0.0
 10
1045.264616
 20
1002.275492
 30
0.0
 10
1045.159790
 20
1001.863057
 30
0.0
 10
1045.159790
 20
1001.503030
 30
0.0
  0
LWPOLYLINE
  5
257
100
AcDbEntity
  8
Layer_1
 62
6
100
AcDbPolyline
 90
4
 70
1
 10
1049.186270
 20
1002.323342
 30
0.0
 10
1049.186270
 20
998.057718
 30
0.0
 10
1048.570990
 20
998.057718
 30
0.0
 10
1048.570990
 20
1002.323342
 30
0.0
  0
SPLINE
  5
258
100
AcDbEntity
  8
Layer_1
 62
6
100
AcDbSpline
 70
8
 71
3
 72
8
 73
4
 74
0
 40
0
 40
0
 40
0
 40
0
 40
1
 40
1
 40
1
 40
1
 10
1044.544590
 20
1002.337014
 30
0.0
 10
1044.544590
 20
1002.587665
 30
0.0
 10
1044.524056
 20
1002.829204
 30
0.0
 10
1044.482990
 20
1003.061630
 30
0.0
  0
SPLINE
  5
259
100
AcDbEntity
  8
Layer_1
 62
6
100
AcDbSpline
 70
8
 71
3
 72
8
 73
4
 74
0
 40
0
 40
0
 40
0
 40
0
 40
1
 40
1
 40
1
 40
1
 10
1044.482990
 20
1003.061630
 30
0.0
 10
1044.441923
 20
1003.294052
 30
0.0
 10
1044.375843
 20
1003.521916
 30
0.0
 10
1044.284750
 20
1003.745222
 30
0.0
  0
SPLINE
  5
25a
100
AcDbEntity
  8
Layer_1
 62
6
100
AcDbSpline
 70
8
 71
3
 72
8
 73
4
 74
0
 40
0
 40
0
 40
0
 40
0
 40
1
 40
1
 40
1
 40
1
 10
1044.284750
 20
1003.745222
 30
0.0
 10
1044.193603
 20
1003.968529
 30
0.0
 10
1044.054590
 20
1004.146262
 30
0.0
 10
1043.867710
 20
1004.278422
 30
0.0
  0
SPLINE
  5
25b
100
AcDbEntity
  8
Layer_1
 62
6
100
AcDbSpline
 70
8
 71
3
 72
8
 73
4
 74
0
 40
0
 40
0
 40
0
 40
0
 40
1
 40
1
 40
1
 40
1
 10
1043.867710
 20
1004.278422
 30
0.0
 10
1043.685416
 20
1004.415142
 30
0.0
 10
1043.466670
 20
1004.483502
 30
0.0
 10
1043.211470
 20
1004.483502
 30
0.0
  0
SPLINE
  5
25c
100
AcDbEntity
  8
Layer_1
 62
6
100
AcDbSpline
 70
8
 71
3
 72
8
 73
4
 74
0
 40
0
 40
0
 40
0
 40
0
 40
1
 40
1
 40
1
 40
1
 10
1043.211470
 20
1004.483502
 30
0.0
 10
1042.928910
 20
1004.483502
 30
0.0
 10
1042.623576
 20
1004.319441
 30
0.0
 10
1042.295470
 20
1003.991318
 30
0.0
  0
SPLINE
  5
25d
100
AcDbEntity
  8
Layer_1
 62
6
100
AcDbSpline
 70
8
 71
3
 72
8
 73
4
 74
0
 40
0
 40
0
 40
0
 40
0
 40
1
 40
1
 40
1
 40
1
 10
1042.295470
 20
1003.991318
 30
0.0
 10
1041.971896
 20
1003.663190
 30
0.0
 10
1041.703016
 20
1003.266705
 30
0.0
 10
1041.488830
 20
1002.801862
 30
0.0
  0
SPLINE
  5
25e
100
AcDbEntity
  8
Layer_1
 62
6
100
AcDbSpline
 70
8
 71
3
 72
8
 73
4
 74
0
 40
0
 40
0
 40
0
 40
0
 40
1
 40
1
 40
1
 40
1
 10
1041.488830
 20
1002.801862
 30
0.0
 10
1041.274643
 20
1002.337020
 30
0.0
 10
1041.167550
 20
1001.913190
 30
0.0
 10
1041.167550
 20
1001.530374
 30
0.0
  0
LWPOLYLINE
  5
25f
100
AcDbEntity
  8
Layer_1
 62
6
100
AcDbPolyline
 90
4
 70
1
 10
1045.159790
 20
1001.503030
 30
0.0
 10
1045.159790
 20
998.057718
 30
0.0
 10
1044.544590
 20
998.057718
 30
0.0
 10
1044.544590
 20
1002.337014
 30
0.0
  0
SPLINE
  5
260
100
AcDbEntity
  8
Layer_1
 62
6
100
AcDbSpline
 70
8
 71
3
 72
8
 73
4
 74
0
 40
0
 40
0
 40
0
 40
0
 40
1
 40
1
 40
1
 40
1
 10
1040.552270
 20
1004.073342
 30
0.0
 10
1040.552270
 20
1004.465273
 30
0.0
 10
1040.495310
 20
1004.770612
 30
0.0
 10
1040.381390
 20
1004.989358
 30
0.0
  0
LWPOLYLINE
  5
261
100
AcDbEntity
  8
Layer_1
 62
6
100
AcDbPolyline
 90
4
 70
1
 10
1041.167550
 20
1001.530374
 30
0.0
 10
1041.167550
 20
998.057718
 30
0.0
 10
1040.552270
 20
998.057718
 30
0.0
 10
1040.552270
 20
1004.073342
 30
0.0
  0
LWPOLYLINE
  5
262
100
AcDbEntity
  8
Layer_1
 62
6
100
AcDbPolyline
 90
2
 70
1
 10
1040.381390
 20
1004.989358
 30
0.0
 10
1040.381550
 20
1004.989358
 30
0.0
  0
SPLINE
  5
263
100
AcDbEntity
  8
Layer_1
 62
6
100
AcDbSpline
 70
8
 71
3
 72
8
 73
4
 74
0
 40
0
 40
0
 40
0
 40
0
 40
1
 40
1
 40
1
 40
1
 10
1051.250670
 20
1008.817486
 30
0.0
 10
1052.298883
 20
1006.835065
 30
0.0
 10
1052.822990
 20
1004.804790
 30
0.0
 10
1052.822990
 20
1002.726662
 30
0.0
  0
SPLINE
  5
264
100
AcDbEntity
  8
Layer_1
 62
6
100
AcDbSpline
 70
8
 71
3
 72
8
 73
4
 74
0
 40
0
 40
0
 40
0
 40
0
 40
1
 40
1
 40
1
 40
1
 10
1052.822990
 20
1002.726662
 30
0.0
 10
1052.822990
 20
1000.612081
 30
0.0
 10
1052.287496
 20
998.442812
 30
0.0
 10
1051.216510
 20
996.218854
 30
0.0
  0
LWPOLYLINE
  5
265
100
AcDbEntity
  8
Layer_1
 62
6
100
AcDbPolyline
 90
2
 70
1
 10
1050.785870
 20
1008.817486
 30
0.0
 10
1051.250670
 20
1008.817486
 30
0.0
  0
SPLINE
  5
266
100
AcDbEntity
  8
Layer_1
 62
6
100
AcDbSpline
 70
8
 71
3
 72
8
 73
4
 74
0
 40
0
 40
0
 40
0
 40
0
 40
1
 40
1
 40
1
 40
1
 10
1050.738030
 20
996.218854
 30
0.0
 10
1051.672270
 20
998.388124
 30
0.0
 10
1052.139390
 20
1000.525494
 30
0.0
 10
1052.139390
 20
1002.630966
 30
0.0
  0
SPLINE
  5
267
100
AcDbEntity
  8
Layer_1
 62
6
100
AcDbSpline
 70
8
 71
3
 72
8
 73
4
 74
0
 40
0
 40
0
 40
0
 40
0
 40
1
 40
1
 40
1
 40
1
 10
1052.139390
 20
1002.630966
 30
0.0
 10
1052.139390
 20
1004.699974
 30
0.0
 10
1051.688216
 20
1006.762148
 30
0.0
 10
1050.785870
 20
1008.817486
 30
0.0
  0
LWPOLYLINE
  5
268
100
AcDbEntity
  8
Layer_1
 62
6
100
AcDbPolyline
 90
2
 70
1
 10
1051.216510
 20
996.218854
 30
0.0
 10
1050.738030
 20
996.218854
 30
0.0
  0
LWPOLYLINE
  5
269
100
AcDbEntity
  8
Layer_1
 62
6
100
AcDbPolyline
 90
2
 70
1
 10
1050.785870
 20
1008.817486
 30
0.0
 10
1050.785870
 20
1008.817486
 30
0.0
  0
SPLINE
  5
26a
100
AcDbEntity
  8
Layer_1
 62
3
100
AcDbSpline
 70
8
 71
3
 72
8
 73
4
 74
0
 40
0
 40
0
 40
0
 40
0
 40
1
 40
1
 40
1
 40
1
 10
906.293230
 20
954.917966
 30
0.0
 10
906.293232
 20
951.786906
 30
0.0
 10
903.755010
 20
949.248678
 30
0.0
 10
900.623950
 20
949.248670
 30
0.0
  0
SPLINE
  5
26b
100
AcDbEntity
  8
Layer_1
 62
3
100
AcDbSpline
 70
8
 71
3
 72
8
 73
4
 74
0
 40
0
 40
0
 40
0
 40
0
 40
1
 40
1
 40
1
 40
1
 10
900.623950
 20
949.248670
 30
0.0
 10
897.492889
 20
949.248678
 30
0.0
 10
894.954667
 20
951.786906
 30
0.0
 10
894.954670
 20
954.917966
 30
0.0
  0
SPLINE
  5
26c
100
AcDbEntity
  8
Layer_1
 62
3
100
AcDbSpline
 70
8
 71
3
 72
8
 73
4
 74
0
 40
0
 40
0
 40
0
 40
0
 40
1
 40
1
 40
1
 40
1
 10
894.954670
 20
954.917966
 30
0.0
 10
894.954672
 20
958.049023
 30
0.0
 10
897.492892
 20
960.587247
 30
0.0
 10
900.623950
 20
960.587254
 30
0.0
  0
SPLINE
  5
26d
100
AcDbEntity
  8
Layer_1
 62
3
100
AcDbSpline
 70
8
 71
3
 72
8
 73
4
 74
0
 40
0
 40
0
 40
0
 40
0
 40
1
 40
1
 40
1
 40
1
 10
900.623950
 20
960.587254
 30
0.0
 10
903.755007
 20
960.587247
 30
0.0
 10
906.293228
 20
958.049023
 30
0.0
 10
906.293230
 20
954.917966
 30
0.0
  0
LWPOLYLINE
  5
26e
100
AcDbEntity
  8
Layer_1
 62
5
100
AcDbPolyline
 90
5
 70
1
 10
818.419230
 20
976.177822
 30
0.0
 10
1654.639870
 20
976.177822
 30
0.0
 10
1654.639870
 20
933.658142
 30
0.0
 10
818.419230
 20
933.658142
 30
0.0
 10
818.419230
 20
976.177822
 30
0.0
  0
SPLINE
  5
26f
100
AcDbEntity
  8
Layer_1
 62
3
100
AcDbSpline
 70
8
 71
3
 72
8
 73
4
 74
0
 40
0
 40
0
 40
0
 40
0
 40
1
 40
1
 40
1
 40
1
 10
1578.104430
 20
954.917966
 30
0.0
 10
1578.104432
 20
951.786906
 30
0.0
 10
1575.566210
 20
949.248678
 30
0.0
 10
1572.435150
 20
949.248670
 30
0.0
  0
SPLINE
  5
270
100
AcDbEntity
  8
Layer_1
 62
3
100
AcDbSpline
 70
8
 71
3
 72
8
 73
4
 74
0
 40
0
 40
0
 40
0
 40
0
 40
1
 40
1
 40
1
 40
1
 10
1572.435150
 20
949.248670
 30
0.0
 10
1570.931547
 20
949.248653
 30
0.0
 10
1569.489523
 20
949.845944
 30
0.0
 10
1568.426309
 20
950.909145
 30
0.0
  0
SPLINE
  5
271
100
AcDbEntity
  8
Layer_1
 62
3
100
AcDbSpline
 70
8
 71
3
 72
8
 73
4
 74
0
 40
0
 40
0
 40
0
 40
0
 40
1
 40
1
 40
1
 40
1
 10
1568.426309
 20
950.909145
 30
0.0
 10
1567.363096
 20
951.972347
 30
0.0
 10
1566.765789
 20
953.414364
 30
0.0
 10
1566.765790
 20
954.917966
 30
0.0
  0
SPLINE
  5
272
100
AcDbEntity
  8
Layer_1
 62
3
100
AcDbSpline
 70
8
 71
3
 72
8
 73
4
 74
0
 40
0
 40
0
 40
0
 40
0
 40
1
 40
1
 40
1
 40
1
 10
1566.765790
 20
954.917966
 30
0.0
 10
1566.765791
 20
956.421567
 30
0.0
 10
1567.363099
 20
957.863583
 30
0.0
 10
1568.426312
 20
958.926782
 30
0.0
  0
SPLINE
  5
273
100
AcDbEntity
  8
Layer_1
 62
3
100
AcDbSpline
 70
8
 71
3
 72
8
 73
4
 74
0
 40
0
 40
0
 40
0
 40
0
 40
1
 40
1
 40
1
 40
1
 10
1568.426312
 20
958.926782
 30
0.0
 10
1569.489525
 20
959.989982
 30
0.0
 10
1570.931549
 20
960.587272
 30
0.0
 10
1572.435150
 20
960.587254
 30
0.0
  0
SPLINE
  5
274
100
AcDbEntity
  8
Layer_1
 62
3
100
AcDbSpline
 70
8
 71
3
 72
8
 73
4
 74
0
 40
0
 40
0
 40
0
 40
0
 40
1
 40
1
 40
1
 40
1
 10
1572.435150
 20
960.587254
 30
0.0
 10
1575.566207
 20
960.587247
 30
0.0
 10
1578.104428
 20
958.049023
 30
0.0
 10
1578.104430
 20
954.917966
 30
0.0
  0
LWPOLYLINE
  5
275
100
AcDbEntity
  8
Layer_1
 62
3
100
AcDbPolyline
 90
2
 70
1
 10
906.293230
 20
954.917966
 30
0.0
 10
906.293230
 20
954.917966
 30
0.0
  0
LWPOLYLINE
  5
276
100
AcDbEntity
  8
Layer_1
 62
3
100
AcDbPolyline
 90
2
 70
1
 10
1578.104430
 20
954.917966
 30
0.0
 10
1578.104430
 20
954.917966
 30
0.0
  0
SPLINE
  5
277
100
AcDbEntity
  8
Layer_1
 62
6
100
AcDbSpline
 70
8
 71
3
 72
8
 73
4
 74
0
 40
0
 40
0
 40
0
 40
0
 40
1
 40
1
 40
1
 40
1
 10
951.840750
 20
957.501974
 30
0.0
 10
952.159790
 20
957.843772
 30
0.0
 10
952.526670
 20
958.110374
 30
0.0
 10
952.941390
 20
958.301782
 30
0.0
  0
SPLINE
  5
278
100
AcDbEntity
  8
Layer_1
 62
6
100
AcDbSpline
 70
8
 71
3
 72
8
 73
4
 74
0
 40
0
 40
0
 40
0
 40
0
 40
1
 40
1
 40
1
 40
1
 10
952.941390
 20
958.301782
 30
0.0
 10
953.360643
 20
958.493190
 30
0.0
 10
953.800403
 20
958.588894
 30
0.0
 10
954.260670
 20
958.588894
 30
0.0
  0
SPLINE
  5
279
100
AcDbEntity
  8
Layer_1
 62
6
100
AcDbSpline
 70
8
 71
3
 72
8
 73
4
 74
0
 40
0
 40
0
 40
0
 40
0
 40
1
 40
1
 40
1
 40
1
 10
954.260670
 20
958.588894
 30
0.0
 10
954.889576
 20
958.588894
 30
0.0
 10
955.466083
 20
958.422553
 30
0.0
 10
955.990190
 20
958.089870
 30
0.0
  0
SPLINE
  5
27a
100
AcDbEntity
  8
Layer_1
 62
6
100
AcDbSpline
 70
8
 71
3
 72
8
 73
4
 74
0
 40
0
 40
0
 40
0
 40
0
 40
1
 40
1
 40
1
 40
1
 10
955.990190
 20
958.089870
 30
0.0
 10
956.518830
 20
957.757188
 30
0.0
 10
956.933550
 20
957.306014
 30
0.0
 10
957.234350
 20
956.736350
 30
0.0
  0
SPLINE
  5
27b
100
AcDbEntity
  8
Layer_1
 62
6
100
AcDbSpline
 70
8
 71
3
 72
8
 73
4
 74
0
 40
0
 40
0
 40
0
 40
0
 40
1
 40
1
 40
1
 40
1
 10
957.234350
 20
956.736350
 30
0.0
 10
957.535096
 20
956.171246
 30
0.0
 10
957.685470
 20
955.553734
 30
0.0
 10
957.685470
 20
954.883814
 30
0.0
  0
SPLINE
  5
27c
100
AcDbEntity
  8
Layer_1
 62
6
100
AcDbSpline
 70
8
 71
3
 72
8
 73
4
 74
0
 40
0
 40
0
 40
0
 40
0
 40
1
 40
1
 40
1
 40
1
 10
957.685470
 20
954.883814
 30
0.0
 10
957.685470
 20
954.218449
 30
0.0
 10
957.535096
 20
953.603214
 30
0.0
 10
957.234350
 20
953.038110
 30
0.0
  0
SPLINE
  5
27d
100
AcDbEntity
  8
Layer_1
 62
6
100
AcDbSpline
 70
8
 71
3
 72
8
 73
4
 74
0
 40
0
 40
0
 40
0
 40
0
 40
1
 40
1
 40
1
 40
1
 10
957.234350
 20
953.038110
 30
0.0
 10
956.933550
 20
952.477561
 30
0.0
 10
956.518830
 20
952.030945
 30
0.0
 10
955.990190
 20
951.698262
 30
0.0
  0
SPLINE
  5
27e
100
AcDbEntity
  8
Layer_1
 62
6
100
AcDbSpline
 70
8
 71
3
 72
8
 73
4
 74
0
 40
0
 40
0
 40
0
 40
0
 40
1
 40
1
 40
1
 40
1
 10
955.990190
 20
951.698262
 30
0.0
 10
955.466083
 20
951.370140
 30
0.0
 10
954.889576
 20
951.206078
 30
0.0
 10
954.260670
 20
951.206078
 30
0.0
  0
SPLINE
  5
27f
100
AcDbEntity
  8
Layer_1
 62
6
100
AcDbSpline
 70
8
 71
3
 72
8
 73
4
 74
0
 40
0
 40
0
 40
0
 40
0
 40
1
 40
1
 40
1
 40
1
 10
954.260670
 20
951.206078
 30
0.0
 10
953.408456
 20
951.206078
 30
0.0
 10
952.661070
 20
951.506860
 30
0.0
 10
952.018510
 20
952.108422
 30
0.0
  0
SPLINE
  5
280
100
AcDbEntity
  8
Layer_1
 62
6
100
AcDbSpline
 70
8
 71
3
 72
8
 73
4
 74
0
 40
0
 40
0
 40
0
 40
0
 40
1
 40
1
 40
1
 40
1
 10
952.018510
 20
952.108422
 30
0.0
 10
951.380483
 20
952.709985
 30
0.0
 10
950.999950
 20
953.450545
 30
0.0
 10
950.876910
 20
954.330102
 30
0.0
  0
LWPOLYLINE
  5
281
100
AcDbEntity
  8
Layer_1
 62
6
100
AcDbPolyline
 90
3
 70
1
 10
956.468670
 20
960.913110
 30
0.0
 10
952.121070
 20
960.913110
 30
0.0
 10
951.840750
 20
957.501974
 30
0.0
  0
SPLINE
  5
282
100
AcDbEntity
  8
Layer_1
 62
6
100
AcDbSpline
 70
8
 71
3
 72
8
 73
4
 74
0
 40
0
 40
0
 40
0
 40
0
 40
1
 40
1
 40
1
 40
1
 10
951.492110
 20
954.330102
 30
0.0
 10
951.615150
 20
953.610049
 30
0.0
 10
951.936456
 20
953.010764
 30
0.0
 10
952.456030
 20
952.532246
 30
0.0
  0
SPLINE
  5
283
100
AcDbEntity
  8
Layer_1
 62
6
100
AcDbSpline
 70
8
 71
3
 72
8
 73
4
 74
0
 40
0
 40
0
 40
0
 40
0
 40
1
 40
1
 40
1
 40
1
 10
952.456030
 20
952.532246
 30
0.0
 10
952.980083
 20
952.053734
 30
0.0
 10
953.581630
 20
951.814478
 30
0.0
 10
954.260670
 20
951.814478
 30
0.0
  0
SPLINE
  5
284
100
AcDbEntity
  8
Layer_1
 62
6
100
AcDbSpline
 70
8
 71
3
 72
8
 73
4
 74
0
 40
0
 40
0
 40
0
 40
0
 40
1
 40
1
 40
1
 40
1
 10
954.260670
 20
951.814478
 30
0.0
 10
955.035443
 20
951.814478
 30
0.0
 10
955.698536
 20
952.115260
 30
0.0
 10
956.249950
 20
952.716822
 30
0.0
  0
SPLINE
  5
285
100
AcDbEntity
  8
Layer_1
 62
6
100
AcDbSpline
 70
8
 71
3
 72
8
 73
4
 74
0
 40
0
 40
0
 40
0
 40
0
 40
1
 40
1
 40
1
 40
1
 10
956.249950
 20
952.716822
 30
0.0
 10
956.805950
 20
953.318385
 30
0.0
 10
957.083950
 20
954.052108
 30
0.0
 10
957.083950
 20
954.917990
 30
0.0
  0
SPLINE
  5
286
100
AcDbEntity
  8
Layer_1
 62
6
100
AcDbSpline
 70
8
 71
3
 72
8
 73
4
 74
0
 40
0
 40
0
 40
0
 40
0
 40
1
 40
1
 40
1
 40
1
 10
957.083950
 20
954.917990
 30
0.0
 10
957.083950
 20
955.779318
 30
0.0
 10
956.805950
 20
956.508486
 30
0.0
 10
956.249950
 20
957.105494
 30
0.0
  0
SPLINE
  5
287
100
AcDbEntity
  8
Layer_1
 62
6
100
AcDbSpline
 70
8
 71
3
 72
8
 73
4
 74
0
 40
0
 40
0
 40
0
 40
0
 40
1
 40
1
 40
1
 40
1
 10
956.249950
 20
957.105494
 30
0.0
 10
955.698536
 20
957.707057
 30
0.0
 10
955.035443
 20
958.007838
 30
0.0
 10
954.260670
 20
958.007838
 30
0.0
  0
SPLINE
  5
288
100
AcDbEntity
  8
Layer_1
 62
6
100
AcDbSpline
 70
8
 71
3
 72
8
 73
4
 74
0
 40
0
 40
0
 40
0
 40
0
 40
1
 40
1
 40
1
 40
1
 10
954.260670
 20
958.007838
 30
0.0
 10
953.745683
 20
958.007838
 30
0.0
 10
953.269443
 20
957.862004
 30
0.0
 10
952.831950
 20
957.570334
 30
0.0
  0
SPLINE
  5
289
100
AcDbEntity
  8
Layer_1
 62
6
100
AcDbSpline
 70
8
 71
3
 72
8
 73
4
 74
0
 40
0
 40
0
 40
0
 40
0
 40
1
 40
1
 40
1
 40
1
 10
952.831950
 20
957.570334
 30
0.0
 10
952.394456
 20
957.283225
 30
0.0
 10
952.050376
 20
956.898134
 30
0.0
 10
951.799710
 20
956.415062
 30
0.0
  0
LWPOLYLINE
  5
28a
100
AcDbEntity
  8
Layer_1
 62
6
100
AcDbPolyline
 90
2
 70
1
 10
950.876910
 20
954.330102
 30
0.0
 10
951.492110
 20
954.330102
 30
0.0
  0
LWPOLYLINE
  5
28b
100
AcDbEntity
  8
Layer_1
 62
6
100
AcDbPolyline
 90
6
 70
1
 10
951.799710
 20
956.415062
 30
0.0
 10
951.122990
 20
956.415062
 30
0.0
 10
951.553630
 20
961.528342
 30
0.0
 10
956.680590
 20
961.528342
 30
0.0
 10
956.468670
 20
960.913110
 30
0.0
 10
956.468670
 20
960.913110
 30
0.0
  0
SPLINE
  5
28c
100
AcDbEntity
  8
Layer_1
 62
6
100
AcDbSpline
 70
8
 71
3
 72
8
 73
4
 74
0
 40
0
 40
0
 40
0
 40
0
 40
1
 40
1
 40
1
 40
1
 10
970.044830
 20
951.322286
 30
0.0
 10
969.967390
 20
951.591166
 30
0.0
 10
969.928670
 20
951.896505
 30
0.0
 10
969.928670
 20
952.238302
 30
0.0
  0
LWPOLYLINE
  5
28d
100
AcDbEntity
  8
Layer_1
 62
6
100
AcDbPolyline
 90
2
 70
1
 10
970.701150
 20
951.322286
 30
0.0
 10
970.044830
 20
951.322286
 30
0.0
  0
SPLINE
  5
28e
100
AcDbEntity
  8
Layer_1
 62
6
100
AcDbSpline
 70
8
 71
3
 72
8
 73
4
 74
0
 40
0
 40
0
 40
0
 40
0
 40
1
 40
1
 40
1
 40
1
 10
969.928670
 20
953.099630
 30
0.0
 10
969.755496
 20
952.625673
 30
0.0
 10
969.411416
 20
952.192732
 30
0.0
 10
968.896430
 20
951.800806
 30
0.0
  0
SPLINE
  5
28f
100
AcDbEntity
  8
Layer_1
 62
6
100
AcDbSpline
 70
8
 71
3
 72
8
 73
4
 74
0
 40
0
 40
0
 40
0
 40
0
 40
1
 40
1
 40
1
 40
1
 10
968.896430
 20
951.800806
 30
0.0
 10
968.386030
 20
951.413436
 30
0.0
 10
967.873336
 20
951.219750
 30
0.0
 10
967.358350
 20
951.219750
 30
0.0
  0
SPLINE
  5
290
100
AcDbEntity
  8
Layer_1
 62
6
100
AcDbSpline
 70
8
 71
3
 72
8
 73
4
 74
0
 40
0
 40
0
 40
0
 40
0
 40
1
 40
1
 40
1
 40
1
 10
967.358350
 20
951.219750
 30
0.0
 10
966.779576
 20
951.219750
 30
0.0
 10
966.246376
 20
951.381534
 30
0.0
 10
965.758750
 20
951.705102
 30
0.0
  0
SPLINE
  5
291
100
AcDbEntity
  8
Layer_1
 62
6
100
AcDbSpline
 70
8
 71
3
 72
8
 73
4
 74
0
 40
0
 40
0
 40
0
 40
0
 40
1
 40
1
 40
1
 40
1
 10
965.758750
 20
951.705102
 30
0.0
 10
965.275656
 20
952.028670
 30
0.0
 10
964.895123
 20
952.463892
 30
0.0
 10
964.617150
 20
953.010766
 30
0.0
  0
SPLINE
  5
292
100
AcDbEntity
  8
Layer_1
 62
6
100
AcDbSpline
 70
8
 71
3
 72
8
 73
4
 74
0
 40
0
 40
0
 40
0
 40
0
 40
1
 40
1
 40
1
 40
1
 10
964.617150
 20
953.010766
 30
0.0
 10
964.343710
 20
953.562196
 30
0.0
 10
964.206990
 20
954.156921
 30
0.0
 10
964.206990
 20
954.794942
 30
0.0
  0
SPLINE
  5
293
100
AcDbEntity
  8
Layer_1
 62
6
100
AcDbSpline
 70
8
 71
3
 72
8
 73
4
 74
0
 40
0
 40
0
 40
0
 40
0
 40
1
 40
1
 40
1
 40
1
 10
964.206990
 20
954.794942
 30
0.0
 10
964.206990
 20
955.432964
 30
0.0
 10
964.343710
 20
956.023134
 30
0.0
 10
964.617150
 20
956.565454
 30
0.0
  0
SPLINE
  5
294
100
AcDbEntity
  8
Layer_1
 62
6
100
AcDbSpline
 70
8
 71
3
 72
8
 73
4
 74
0
 40
0
 40
0
 40
0
 40
0
 40
1
 40
1
 40
1
 40
1
 10
964.617150
 20
956.565454
 30
0.0
 10
964.895123
 20
957.112329
 30
0.0
 10
965.275656
 20
957.547550
 30
0.0
 10
965.758750
 20
957.871118
 30
0.0
  0
SPLINE
  5
295
100
AcDbEntity
  8
Layer_1
 62
6
100
AcDbSpline
 70
8
 71
3
 72
8
 73
4
 74
0
 40
0
 40
0
 40
0
 40
0
 40
1
 40
1
 40
1
 40
1
 10
965.758750
 20
957.871118
 30
0.0
 10
966.246376
 20
958.199241
 30
0.0
 10
966.779576
 20
958.363302
 30
0.0
 10
967.358350
 20
958.363302
 30
0.0
  0
SPLINE
  5
296
100
AcDbEntity
  8
Layer_1
 62
6
100
AcDbSpline
 70
8
 71
3
 72
8
 73
4
 74
0
 40
0
 40
0
 40
0
 40
0
 40
1
 40
1
 40
1
 40
1
 10
967.358350
 20
958.363302
 30
0.0
 10
967.882456
 20
958.363302
 30
0.0
 10
968.399710
 20
958.171897
 30
0.0
 10
968.910110
 20
957.789086
 30
0.0
  0
SPLINE
  5
297
100
AcDbEntity
  8
Layer_1
 62
6
100
AcDbSpline
 70
8
 71
3
 72
8
 73
4
 74
0
 40
0
 40
0
 40
0
 40
0
 40
1
 40
1
 40
1
 40
1
 10
968.910110
 20
957.789086
 30
0.0
 10
969.420510
 20
957.410830
 30
0.0
 10
969.760030
 20
956.973329
 30
0.0
 10
969.928670
 20
956.476582
 30
0.0
  0
LWPOLYLINE
  5
298
100
AcDbEntity
  8
Layer_1
 62
6
100
AcDbPolyline
 90
2
 70
1
 10
969.928670
 20
952.238302
 30
0.0
 10
969.928670
 20
953.099630
 30
0.0
  0
SPLINE
  5
299
100
AcDbEntity
  8
Layer_1
 62
6
100
AcDbSpline
 70
8
 71
3
 72
8
 73
4
 74
0
 40
0
 40
0
 40
0
 40
0
 40
1
 40
1
 40
1
 40
1
 10
970.537070
 20
952.238302
 30
0.0
 10
970.537070
 20
951.846377
 30
0.0
 10
970.591763
 20
951.541038
 30
0.0
 10
970.701150
 20
951.322286
 30
0.0
  0
LWPOLYLINE
  5
29a
100
AcDbEntity
  8
Layer_1
 62
6
100
AcDbPolyline
 90
4
 70
1
 10
969.928670
 20
956.476582
 30
0.0
 10
969.928670
 20
961.528342
 30
0.0
 10
970.537070
 20
961.528342
 30
0.0
 10
970.537070
 20
952.238302
 30
0.0
  0
SPLINE
  5
29b
100
AcDbEntity
  8
Layer_1
 62
6
100
AcDbSpline
 70
8
 71
3
 72
8
 73
4
 74
0
 40
0
 40
0
 40
0
 40
0
 40
1
 40
1
 40
1
 40
1
 10
969.163070
 20
952.696310
 30
0.0
 10
969.673470
 20
953.275089
 30
0.0
 10
969.928670
 20
953.974633
 30
0.0
 10
969.928670
 20
954.794942
 30
0.0
  0
SPLINE
  5
29c
100
AcDbEntity
  8
Layer_1
 62
6
100
AcDbSpline
 70
8
 71
3
 72
8
 73
4
 74
0
 40
0
 40
0
 40
0
 40
0
 40
1
 40
1
 40
1
 40
1
 10
969.928670
 20
954.794942
 30
0.0
 10
969.928670
 20
955.615257
 30
0.0
 10
969.675736
 20
956.312524
 30
0.0
 10
969.169870
 20
956.886742
 30
0.0
  0
SPLINE
  5
29d
100
AcDbEntity
  8
Layer_1
 62
6
100
AcDbSpline
 70
8
 71
3
 72
8
 73
4
 74
0
 40
0
 40
0
 40
0
 40
0
 40
1
 40
1
 40
1
 40
1
 10
969.169870
 20
956.886742
 30
0.0
 10
968.664003
 20
957.460961
 30
0.0
 10
968.060163
 20
957.748070
 30
0.0
 10
967.358350
 20
957.748070
 30
0.0
  0
SPLINE
  5
29e
100
AcDbEntity
  8
Layer_1
 62
6
100
AcDbSpline
 70
8
 71
3
 72
8
 73
4
 74
0
 40
0
 40
0
 40
0
 40
0
 40
1
 40
1
 40
1
 40
1
 10
967.358350
 20
957.748070
 30
0.0
 10
966.661070
 20
957.748070
 30
0.0
 10
966.057230
 20
957.460961
 30
0.0
 10
965.546830
 20
956.886742
 30
0.0
  0
SPLINE
  5
29f
100
AcDbEntity
  8
Layer_1
 62
6
100
AcDbSpline
 70
8
 71
3
 72
8
 73
4
 74
0
 40
0
 40
0
 40
0
 40
0
 40
1
 40
1
 40
1
 40
1
 10
965.546830
 20
956.886742
 30
0.0
 10
965.036430
 20
956.312524
 30
0.0
 10
964.781230
 20
955.615257
 30
0.0
 10
964.781230
 20
954.794942
 30
0.0
  0
SPLINE
  5
2a0
100
AcDbEntity
  8
Layer_1
 62
6
100
AcDbSpline
 70
8
 71
3
 72
8
 73
4
 74
0
 40
0
 40
0
 40
0
 40
0
 40
1
 40
1
 40
1
 40
1
 10
964.781230
 20
954.794942
 30
0.0
 10
964.781230
 20
953.979188
 30
0.0
 10
965.036430
 20
953.279644
 30
0.0
 10
965.546830
 20
952.696310
 30
0.0
  0
SPLINE
  5
2a1
100
AcDbEntity
  8
Layer_1
 62
6
100
AcDbSpline
 70
8
 71
3
 72
8
 73
4
 74
0
 40
0
 40
0
 40
0
 40
0
 40
1
 40
1
 40
1
 40
1
 10
965.546830
 20
952.696310
 30
0.0
 10
966.057230
 20
952.117537
 30
0.0
 10
966.661070
 20
951.828150
 30
0.0
 10
967.358350
 20
951.828150
 30
0.0
  0
SPLINE
  5
2a2
100
AcDbEntity
  8
Layer_1
 62
6
100
AcDbSpline
 70
8
 71
3
 72
8
 73
4
 74
0
 40
0
 40
0
 40
0
 40
0
 40
1
 40
1
 40
1
 40
1
 10
967.358350
 20
951.828150
 30
0.0
 10
968.055630
 20
951.828150
 30
0.0
 10
968.657203
 20
952.117537
 30
0.0
 10
969.163070
 20
952.696310
 30
0.0
  0
LWPOLYLINE
  5
2a3
100
AcDbEntity
  8
Layer_1
 62
6
100
AcDbPolyline
 90
2
 70
1
 10
970.701150
 20
951.322286
 30
0.0
 10
970.701150
 20
951.322286
 30
0.0
  0
LWPOLYLINE
  5
2a4
100
AcDbEntity
  8
Layer_1
 62
6
100
AcDbPolyline
 90
2
 70
1
 10
969.163070
 20
952.696310
 30
0.0
 10
969.163070
 20
952.696310
 30
0.0
  0
SPLINE
  5
2a5
100
AcDbEntity
  8
Layer_1
 62
6
100
AcDbSpline
 70
8
 71
3
 72
8
 73
4
 74
0
 40
0
 40
0
 40
0
 40
0
 40
1
 40
1
 40
1
 40
1
 10
973.305630
 20
958.253926
 30
0.0
 10
973.392190
 20
957.953148
 30
0.0
 10
973.435470
 20
957.647809
 30
0.0
 10
973.435470
 20
957.337910
 30
0.0
  0
LWPOLYLINE
  5
2a6
100
AcDbEntity
  8
Layer_1
 62
6
100
AcDbPolyline
 90
2
 70
1
 10
972.649390
 20
958.253926
 30
0.0
 10
973.305630
 20
958.253926
 30
0.0
  0
SPLINE
  5
2a7
100
AcDbEntity
  8
Layer_1
 62
6
100
AcDbSpline
 70
8
 71
3
 72
8
 73
4
 74
0
 40
0
 40
0
 40
0
 40
0
 40
1
 40
1
 40
1
 40
1
 10
973.435470
 20
956.476582
 30
0.0
 10
973.608643
 20
956.955100
 30
0.0
 10
973.950456
 20
957.388044
 30
0.0
 10
974.460910
 20
957.775414
 30
0.0
  0
SPLINE
  5
2a8
100
AcDbEntity
  8
Layer_1
 62
6
100
AcDbSpline
 70
8
 71
3
 72
8
 73
4
 74
0
 40
0
 40
0
 40
0
 40
0
 40
1
 40
1
 40
1
 40
1
 10
974.460910
 20
957.775414
 30
0.0
 10
974.971310
 20
958.167340
 30
0.0
 10
975.486270
 20
958.363302
 30
0.0
 10
976.005790
 20
958.363302
 30
0.0
  0
SPLINE
  5
2a9
100
AcDbEntity
  8
Layer_1
 62
6
100
AcDbSpline
 70
8
 71
3
 72
8
 73
4
 74
0
 40
0
 40
0
 40
0
 40
0
 40
1
 40
1
 40
1
 40
1
 10
976.005790
 20
958.363302
 30
0.0
 10
976.584563
 20
958.363302
 30
0.0
 10
977.115496
 20
958.199241
 30
0.0
 10
977.598590
 20
957.871118
 30
0.0
  0
SPLINE
  5
2aa
100
AcDbEntity
  8
Layer_1
 62
6
100
AcDbSpline
 70
8
 71
3
 72
8
 73
4
 74
0
 40
0
 40
0
 40
0
 40
0
 40
1
 40
1
 40
1
 40
1
 10
977.598590
 20
957.871118
 30
0.0
 10
978.081630
 20
957.547550
 30
0.0
 10
978.459870
 20
957.112329
 30
0.0
 10
978.733310
 20
956.565454
 30
0.0
  0
SPLINE
  5
2ab
100
AcDbEntity
  8
Layer_1
 62
6
100
AcDbSpline
 70
8
 71
3
 72
8
 73
4
 74
0
 40
0
 40
0
 40
0
 40
0
 40
1
 40
1
 40
1
 40
1
 10
978.733310
 20
956.565454
 30
0.0
 10
979.011336
 20
956.018580
 30
0.0
 10
979.150350
 20
955.428409
 30
0.0
 10
979.150350
 20
954.794942
 30
0.0
  0
SPLINE
  5
2ac
100
AcDbEntity
  8
Layer_1
 62
6
100
AcDbSpline
 70
8
 71
3
 72
8
 73
4
 74
0
 40
0
 40
0
 40
0
 40
0
 40
1
 40
1
 40
1
 40
1
 10
979.150350
 20
954.794942
 30
0.0
 10
979.150350
 20
954.156921
 30
0.0
 10
979.011336
 20
953.562196
 30
0.0
 10
978.733310
 20
953.010766
 30
0.0
  0
SPLINE
  5
2ad
100
AcDbEntity
  8
Layer_1
 62
6
100
AcDbSpline
 70
8
 71
3
 72
8
 73
4
 74
0
 40
0
 40
0
 40
0
 40
0
 40
1
 40
1
 40
1
 40
1
 10
978.733310
 20
953.010766
 30
0.0
 10
978.459870
 20
952.463892
 30
0.0
 10
978.081630
 20
952.028670
 30
0.0
 10
977.598590
 20
951.705102
 30
0.0
  0
SPLINE
  5
2ae
100
AcDbEntity
  8
Layer_1
 62
6
100
AcDbSpline
 70
8
 71
3
 72
8
 73
4
 74
0
 40
0
 40
0
 40
0
 40
0
 40
1
 40
1
 40
1
 40
1
 10
977.598590
 20
951.705102
 30
0.0
 10
977.115496
 20
951.381534
 30
0.0
 10
976.584563
 20
951.219750
 30
0.0
 10
976.005790
 20
951.219750
 30
0.0
  0
SPLINE
  5
2af
100
AcDbEntity
  8
Layer_1
 62
6
100
AcDbSpline
 70
8
 71
3
 72
8
 73
4
 74
0
 40
0
 40
0
 40
0
 40
0
 40
1
 40
1
 40
1
 40
1
 10
976.005790
 20
951.219750
 30
0.0
 10
975.477150
 20
951.219750
 30
0.0
 10
974.957630
 20
951.406598
 30
0.0
 10
974.447230
 20
951.780294
 30
0.0
  0
SPLINE
  5
2b0
100
AcDbEntity
  8
Layer_1
 62
6
100
AcDbSpline
 70
8
 71
3
 72
8
 73
4
 74
0
 40
0
 40
0
 40
0
 40
0
 40
1
 40
1
 40
1
 40
1
 10
974.447230
 20
951.780294
 30
0.0
 10
973.941363
 20
952.158550
 30
0.0
 10
973.604110
 20
952.598329
 30
0.0
 10
973.435470
 20
953.099630
 30
0.0
  0
LWPOLYLINE
  5
2b1
100
AcDbEntity
  8
Layer_1
 62
6
100
AcDbPolyline
 90
2
 70
1
 10
973.435470
 20
957.337910
 30
0.0
 10
973.435470
 20
956.476582
 30
0.0
  0
SPLINE
  5
2b2
100
AcDbEntity
  8
Layer_1
 62
6
100
AcDbSpline
 70
8
 71
3
 72
8
 73
4
 74
0
 40
0
 40
0
 40
0
 40
0
 40
1
 40
1
 40
1
 40
1
 10
972.820270
 20
957.337910
 30
0.0
 10
972.820270
 20
957.729841
 30
0.0
 10
972.763310
 20
958.035180
 30
0.0
 10
972.649390
 20
958.253926
 30
0.0
  0
LWPOLYLINE
  5
2b3
100
AcDbEntity
  8
Layer_1
 62
6
100
AcDbPolyline
 90
4
 70
1
 10
973.435470
 20
953.099630
 30
0.0
 10
973.435470
 20
947.897486
 30
0.0
 10
972.820270
 20
947.897486
 30
0.0
 10
972.820270
 20
957.337910
 30
0.0
  0
SPLINE
  5
2b4
100
AcDbEntity
  8
Layer_1
 62
6
100
AcDbSpline
 70
8
 71
3
 72
8
 73
4
 74
0
 40
0
 40
0
 40
0
 40
0
 40
1
 40
1
 40
1
 40
1
 10
974.194270
 20
956.886742
 30
0.0
 10
973.688403
 20
956.312524
 30
0.0
 10
973.435470
 20
955.615257
 30
0.0
 10
973.435470
 20
954.794942
 30
0.0
  0
SPLINE
  5
2b5
100
AcDbEntity
  8
Layer_1
 62
6
100
AcDbSpline
 70
8
 71
3
 72
8
 73
4
 74
0
 40
0
 40
0
 40
0
 40
0
 40
1
 40
1
 40
1
 40
1
 10
973.435470
 20
954.794942
 30
0.0
 10
973.435470
 20
953.974633
 30
0.0
 10
973.688403
 20
953.275089
 30
0.0
 10
974.194270
 20
952.696310
 30
0.0
  0
SPLINE
  5
2b6
100
AcDbEntity
  8
Layer_1
 62
6
100
AcDbSpline
 70
8
 71
3
 72
8
 73
4
 74
0
 40
0
 40
0
 40
0
 40
0
 40
1
 40
1
 40
1
 40
1
 10
974.194270
 20
952.696310
 30
0.0
 10
974.700136
 20
952.117537
 30
0.0
 10
975.303976
 20
951.828150
 30
0.0
 10
976.005790
 20
951.828150
 30
0.0
  0
SPLINE
  5
2b7
100
AcDbEntity
  8
Layer_1
 62
6
100
AcDbSpline
 70
8
 71
3
 72
8
 73
4
 74
0
 40
0
 40
0
 40
0
 40
0
 40
1
 40
1
 40
1
 40
1
 10
976.005790
 20
951.828150
 30
0.0
 10
976.698483
 20
951.828150
 30
0.0
 10
977.300056
 20
952.117537
 30
0.0
 10
977.810510
 20
952.696310
 30
0.0
  0
SPLINE
  5
2b8
100
AcDbEntity
  8
Layer_1
 62
6
100
AcDbSpline
 70
8
 71
3
 72
8
 73
4
 74
0
 40
0
 40
0
 40
0
 40
0
 40
1
 40
1
 40
1
 40
1
 10
977.810510
 20
952.696310
 30
0.0
 10
978.320910
 20
953.279644
 30
0.0
 10
978.576110
 20
953.979188
 30
0.0
 10
978.576110
 20
954.794942
 30
0.0
  0
SPLINE
  5
2b9
100
AcDbEntity
  8
Layer_1
 62
6
100
AcDbSpline
 70
8
 71
3
 72
8
 73
4
 74
0
 40
0
 40
0
 40
0
 40
0
 40
1
 40
1
 40
1
 40
1
 10
978.576110
 20
954.794942
 30
0.0
 10
978.576110
 20
955.615257
 30
0.0
 10
978.320910
 20
956.312524
 30
0.0
 10
977.810510
 20
956.886742
 30
0.0
  0
SPLINE
  5
2ba
100
AcDbEntity
  8
Layer_1
 62
6
100
AcDbSpline
 70
8
 71
3
 72
8
 73
4
 74
0
 40
0
 40
0
 40
0
 40
0
 40
1
 40
1
 40
1
 40
1
 10
977.810510
 20
956.886742
 30
0.0
 10
977.300056
 20
957.460961
 30
0.0
 10
976.698483
 20
957.748070
 30
0.0
 10
976.005790
 20
957.748070
 30
0.0
  0
SPLINE
  5
2bb
100
AcDbEntity
  8
Layer_1
 62
6
100
AcDbSpline
 70
8
 71
3
 72
8
 73
4
 74
0
 40
0
 40
0
 40
0
 40
0
 40
1
 40
1
 40
1
 40
1
 10
976.005790
 20
957.748070
 30
0.0
 10
975.303976
 20
957.748070
 30
0.0
 10
974.700136
 20
957.460961
 30
0.0
 10
974.194270
 20
956.886742
 30
0.0
  0
LWPOLYLINE
  5
2bc
100
AcDbEntity
  8
Layer_1
 62
6
100
AcDbPolyline
 90
2
 70
1
 10
972.649390
 20
958.253926
 30
0.0
 10
972.649390
 20
958.253926
 30
0.0
  0
SPLINE
  5
2bd
100
AcDbEntity
  8
Layer_1
 62
6
100
AcDbSpline
 70
8
 71
3
 72
8
 73
4
 74
0
 40
0
 40
0
 40
0
 40
0
 40
1
 40
1
 40
1
 40
1
 10
980.886670
 20
959.894558
 30
0.0
 10
980.886670
 20
960.044948
 30
0.0
 10
980.939070
 20
960.174830
 30
0.0
 10
981.043870
 20
960.284206
 30
0.0
  0
SPLINE
  5
2be
100
AcDbEntity
  8
Layer_1
 62
6
100
AcDbSpline
 70
8
 71
3
 72
8
 73
4
 74
0
 40
0
 40
0
 40
0
 40
0
 40
1
 40
1
 40
1
 40
1
 10
981.043870
 20
960.284206
 30
0.0
 10
981.153256
 20
960.393577
 30
0.0
 10
981.285416
 20
960.448262
 30
0.0
 10
981.440350
 20
960.448262
 30
0.0
  0
SPLINE
  5
2bf
100
AcDbEntity
  8
Layer_1
 62
6
100
AcDbSpline
 70
8
 71
3
 72
8
 73
4
 74
0
 40
0
 40
0
 40
0
 40
0
 40
1
 40
1
 40
1
 40
1
 10
981.440350
 20
960.448262
 30
0.0
 10
981.590750
 20
960.448262
 30
0.0
 10
981.718350
 20
960.393577
 30
0.0
 10
981.823150
 20
960.284206
 30
0.0
  0
SPLINE
  5
2c0
100
AcDbEntity
  8
Layer_1
 62
6
100
AcDbSpline
 70
8
 71
3
 72
8
 73
4
 74
0
 40
0
 40
0
 40
0
 40
0
 40
1
 40
1
 40
1
 40
1
 10
981.823150
 20
960.284206
 30
0.0
 10
981.932536
 20
960.174830
 30
0.0
 10
981.987230
 20
960.044948
 30
0.0
 10
981.987230
 20
959.894558
 30
0.0
  0
SPLINE
  5
2c1
100
AcDbEntity
  8
Layer_1
 62
6
100
AcDbSpline
 70
8
 71
3
 72
8
 73
4
 74
0
 40
0
 40
0
 40
0
 40
0
 40
1
 40
1
 40
1
 40
1
 10
981.987230
 20
959.894558
 30
0.0
 10
981.987230
 20
959.739609
 30
0.0
 10
981.934830
 20
959.607446
 30
0.0
 10
981.830030
 20
959.498070
 30
0.0
  0
SPLINE
  5
2c2
100
AcDbEntity
  8
Layer_1
 62
6
100
AcDbSpline
 70
8
 71
3
 72
8
 73
4
 74
0
 40
0
 40
0
 40
0
 40
0
 40
1
 40
1
 40
1
 40
1
 10
981.830030
 20
959.498070
 30
0.0
 10
981.725230
 20
959.393254
 30
0.0
 10
981.595336
 20
959.340846
 30
0.0
 10
981.440350
 20
959.340846
 30
0.0
  0
SPLINE
  5
2c3
100
AcDbEntity
  8
Layer_1
 62
6
100
AcDbSpline
 70
8
 71
3
 72
8
 73
4
 74
0
 40
0
 40
0
 40
0
 40
0
 40
1
 40
1
 40
1
 40
1
 10
981.440350
 20
959.340846
 30
0.0
 10
981.285416
 20
959.340846
 30
0.0
 10
981.153256
 20
959.393254
 30
0.0
 10
981.043870
 20
959.498070
 30
0.0
  0
SPLINE
  5
2c4
100
AcDbEntity
  8
Layer_1
 62
6
100
AcDbSpline
 70
8
 71
3
 72
8
 73
4
 74
0
 40
0
 40
0
 40
0
 40
0
 40
1
 40
1
 40
1
 40
1
 10
981.043870
 20
959.498070
 30
0.0
 10
980.939070
 20
959.607446
 30
0.0
 10
980.886670
 20
959.739609
 30
0.0
 10
980.886670
 20
959.894558
 30
0.0
  0
LWPOLYLINE
  5
2c5
100
AcDbEntity
  8
Layer_1
 62
6
100
AcDbPolyline
 90
2
 70
1
 10
974.194270
 20
956.886742
 30
0.0
 10
974.194270
 20
956.886742
 30
0.0
  0
LWPOLYLINE
  5
2c6
100
AcDbEntity
  8
Layer_1
 62
6
100
AcDbPolyline
 90
2
 70
1
 10
980.886670
 20
959.894558
 30
0.0
 10
980.886670
 20
959.894558
 30
0.0
  0
LWPOLYLINE
  5
2c7
100
AcDbEntity
  8
Layer_1
 62
6
100
AcDbPolyline
 90
6
 70
1
 10
981.748030
 20
951.322286
 30
0.0
 10
981.132750
 20
951.322286
 30
0.0
 10
981.132750
 20
958.253926
 30
0.0
 10
981.748030
 20
958.253926
 30
0.0
 10
981.748030
 20
951.322286
 30
0.0
 10
981.748030
 20
951.322286
 30
0.0
  0
SPLINE
  5
2c8
100
AcDbEntity
  8
Layer_1
 62
6
100
AcDbSpline
 70
8
 71
3
 72
8
 73
4
 74
0
 40
0
 40
0
 40
0
 40
0
 40
1
 40
1
 40
1
 40
1
 10
990.764590
 20
962.082054
 30
0.0
 10
989.866830
 20
960.067734
 30
0.0
 10
989.417950
 20
958.005561
 30
0.0
 10
989.417950
 20
955.895534
 30
0.0
  0
SPLINE
  5
2c9
100
AcDbEntity
  8
Layer_1
 62
6
100
AcDbSpline
 70
8
 71
3
 72
8
 73
4
 74
0
 40
0
 40
0
 40
0
 40
0
 40
1
 40
1
 40
1
 40
1
 10
989.417950
 20
955.895534
 30
0.0
 10
989.417950
 20
953.785508
 30
0.0
 10
989.880510
 20
951.648137
 30
0.0
 10
990.805630
 20
949.483422
 30
0.0
  0
LWPOLYLINE
  5
2ca
100
AcDbEntity
  8
Layer_1
 62
6
100
AcDbPolyline
 90
2
 70
1
 10
990.292910
 20
962.082054
 30
0.0
 10
990.764590
 20
962.082054
 30
0.0
  0
SPLINE
  5
2cb
100
AcDbEntity
  8
Layer_1
 62
6
100
AcDbSpline
 70
8
 71
3
 72
8
 73
4
 74
0
 40
0
 40
0
 40
0
 40
0
 40
1
 40
1
 40
1
 40
1
 10
990.340750
 20
949.483422
 30
0.0
 10
989.269816
 20
951.652692
 30
0.0
 10
988.734350
 20
953.821961
 30
0.0
 10
988.734350
 20
955.991230
 30
0.0
  0
SPLINE
  5
2cc
100
AcDbEntity
  8
Layer_1
 62
6
100
AcDbSpline
 70
8
 71
3
 72
8
 73
4
 74
0
 40
0
 40
0
 40
0
 40
0
 40
1
 40
1
 40
1
 40
1
 10
988.734350
 20
955.991230
 30
0.0
 10
988.734350
 20
958.101257
 30
0.0
 10
989.253870
 20
960.131532
 30
0.0
 10
990.292910
 20
962.082054
 30
0.0
  0
LWPOLYLINE
  5
2cd
100
AcDbEntity
  8
Layer_1
 62
6
100
AcDbPolyline
 90
2
 70
1
 10
990.805630
 20
949.483422
 30
0.0
 10
990.340750
 20
949.483422
 30
0.0
  0
LWPOLYLINE
  5
2ce
100
AcDbEntity
  8
Layer_1
 62
6
100
AcDbPolyline
 90
2
 70
1
 10
990.292910
 20
962.082054
 30
0.0
 10
990.292910
 20
962.082054
 30
0.0
  0
SPLINE
  5
2cf
100
AcDbEntity
  8
Layer_1
 62
6
100
AcDbSpline
 70
8
 71
3
 72
8
 73
4
 74
0
 40
0
 40
0
 40
0
 40
0
 40
1
 40
1
 40
1
 40
1
 10
991.913070
 20
951.616230
 30
0.0
 10
991.913070
 20
952.085633
 30
0.0
 10
992.017870
 20
952.525412
 30
0.0
 10
992.227470
 20
952.935566
 30
0.0
  0
SPLINE
  5
2d0
100
AcDbEntity
  8
Layer_1
 62
6
100
AcDbSpline
 70
8
 71
3
 72
8
 73
4
 74
0
 40
0
 40
0
 40
0
 40
0
 40
1
 40
1
 40
1
 40
1
 10
992.227470
 20
952.935566
 30
0.0
 10
992.441656
 20
953.345726
 30
0.0
 10
992.717390
 20
953.701196
 30
0.0
 10
993.054670
 20
954.001974
 30
0.0
  0
SPLINE
  5
2d1
100
AcDbEntity
  8
Layer_1
 62
6
100
AcDbSpline
 70
8
 71
3
 72
8
 73
4
 74
0
 40
0
 40
0
 40
0
 40
0
 40
1
 40
1
 40
1
 40
1
 10
993.054670
 20
954.001974
 30
0.0
 10
993.391896
 20
954.302758
 30
0.0
 10
993.765576
 20
954.589868
 30
0.0
 10
994.175710
 20
954.863302
 30
0.0
  0
SPLINE
  5
2d2
100
AcDbEntity
  8
Layer_1
 62
6
100
AcDbSpline
 70
8
 71
3
 72
8
 73
4
 74
0
 40
0
 40
0
 40
0
 40
0
 40
1
 40
1
 40
1
 40
1
 10
994.175710
 20
954.863302
 30
0.0
 10
994.585896
 20
955.141297
 30
0.0
 10
994.993790
 20
955.407900
 30
0.0
 10
995.399390
 20
955.663110
 30
0.0
  0
SPLINE
  5
2d3
100
AcDbEntity
  8
Layer_1
 62
6
100
AcDbSpline
 70
8
 71
3
 72
8
 73
4
 74
0
 40
0
 40
0
 40
0
 40
0
 40
1
 40
1
 40
1
 40
1
 10
995.399390
 20
955.663110
 30
0.0
 10
995.809523
 20
955.918316
 30
0.0
 10
996.183203
 20
956.175801
 30
0.0
 10
996.520430
 20
956.435566
 30
0.0
  0
SPLINE
  5
2d4
100
AcDbEntity
  8
Layer_1
 62
6
100
AcDbSpline
 70
8
 71
3
 72
8
 73
4
 74
0
 40
0
 40
0
 40
0
 40
0
 40
1
 40
1
 40
1
 40
1
 10
996.520430
 20
956.435566
 30
0.0
 10
996.857710
 20
956.695337
 30
0.0
 10
997.131150
 20
956.989284
 30
0.0
 10
997.340750
 20
957.317406
 30
0.0
  0
SPLINE
  5
2d5
100
AcDbEntity
  8
Layer_1
 62
6
100
AcDbSpline
 70
8
 71
3
 72
8
 73
4
 74
0
 40
0
 40
0
 40
0
 40
0
 40
1
 40
1
 40
1
 40
1
 10
997.340750
 20
957.317406
 30
0.0
 10
997.554936
 20
957.650089
 30
0.0
 10
997.662030
 20
958.003278
 30
0.0
 10
997.662030
 20
958.376974
 30
0.0
  0
SPLINE
  5
2d6
100
AcDbEntity
  8
Layer_1
 62
6
100
AcDbSpline
 70
8
 71
3
 72
8
 73
4
 74
0
 40
0
 40
0
 40
0
 40
0
 40
1
 40
1
 40
1
 40
1
 10
997.662030
 20
958.376974
 30
0.0
 10
997.662030
 20
959.119817
 30
0.0
 10
997.431896
 20
959.744166
 30
0.0
 10
996.971630
 20
960.250022
 30
0.0
  0
SPLINE
  5
2d7
100
AcDbEntity
  8
Layer_1
 62
6
100
AcDbSpline
 70
8
 71
3
 72
8
 73
4
 74
0
 40
0
 40
0
 40
0
 40
0
 40
1
 40
1
 40
1
 40
1
 10
996.971630
 20
960.250022
 30
0.0
 10
996.515896
 20
960.755884
 30
0.0
 10
995.966750
 20
961.008814
 30
0.0
 10
995.324190
 20
961.008814
 30
0.0
  0
SPLINE
  5
2d8
100
AcDbEntity
  8
Layer_1
 62
6
100
AcDbSpline
 70
8
 71
3
 72
8
 73
4
 74
0
 40
0
 40
0
 40
0
 40
0
 40
1
 40
1
 40
1
 40
1
 10
995.324190
 20
961.008814
 30
0.0
 10
994.672456
 20
961.008814
 30
0.0
 10
994.111896
 20
960.753606
 30
0.0
 10
993.642510
 20
960.243190
 30
0.0
  0
SPLINE
  5
2d9
100
AcDbEntity
  8
Layer_1
 62
6
100
AcDbSpline
 70
8
 71
3
 72
8
 73
4
 74
0
 40
0
 40
0
 40
0
 40
0
 40
1
 40
1
 40
1
 40
1
 10
993.642510
 20
960.243190
 30
0.0
 10
993.177656
 20
959.737329
 30
0.0
 10
992.945230
 20
959.115257
 30
0.0
 10
992.945230
 20
958.376974
 30
0.0
  0
LWPOLYLINE
  5
2da
100
AcDbEntity
  8
Layer_1
 62
6
100
AcDbPolyline
 90
3
 70
1
 10
998.564430
 20
951.322286
 30
0.0
 10
991.913070
 20
951.322286
 30
0.0
 10
991.913070
 20
951.616230
 30
0.0
  0
SPLINE
  5
2db
100
AcDbEntity
  8
Layer_1
 62
6
100
AcDbSpline
 70
8
 71
3
 72
8
 73
4
 74
0
 40
0
 40
0
 40
0
 40
0
 40
1
 40
1
 40
1
 40
1
 10
992.343710
 20
958.376974
 30
0.0
 10
992.343710
 20
958.960308
 30
0.0
 10
992.473576
 20
959.500348
 30
0.0
 10
992.733310
 20
959.997094
 30
0.0
  0
SPLINE
  5
2dc
100
AcDbEntity
  8
Layer_1
 62
6
100
AcDbSpline
 70
8
 71
3
 72
8
 73
4
 74
0
 40
0
 40
0
 40
0
 40
0
 40
1
 40
1
 40
1
 40
1
 10
992.733310
 20
959.997094
 30
0.0
 10
992.997683
 20
960.493841
 30
0.0
 10
993.357710
 20
960.888046
 30
0.0
 10
993.813390
 20
961.179710
 30
0.0
  0
SPLINE
  5
2dd
100
AcDbEntity
  8
Layer_1
 62
6
100
AcDbSpline
 70
8
 71
3
 72
8
 73
4
 74
0
 40
0
 40
0
 40
0
 40
0
 40
1
 40
1
 40
1
 40
1
 10
993.813390
 20
961.179710
 30
0.0
 10
994.269123
 20
961.471380
 30
0.0
 10
994.768163
 20
961.617214
 30
0.0
 10
995.310510
 20
961.617214
 30
0.0
  0
SPLINE
  5
2de
100
AcDbEntity
  8
Layer_1
 62
6
100
AcDbSpline
 70
8
 71
3
 72
8
 73
4
 74
0
 40
0
 40
0
 40
0
 40
0
 40
1
 40
1
 40
1
 40
1
 10
995.310510
 20
961.617214
 30
0.0
 10
995.848270
 20
961.617214
 30
0.0
 10
996.345016
 20
961.471380
 30
0.0
 10
996.800750
 20
961.179710
 30
0.0
  0
SPLINE
  5
2df
100
AcDbEntity
  8
Layer_1
 62
6
100
AcDbSpline
 70
8
 71
3
 72
8
 73
4
 74
0
 40
0
 40
0
 40
0
 40
0
 40
1
 40
1
 40
1
 40
1
 10
996.800750
 20
961.179710
 30
0.0
 10
997.256483
 20
960.888046
 30
0.0
 10
997.614216
 20
960.493841
 30
0.0
 10
997.873950
 20
959.997094
 30
0.0
  0
SPLINE
  5
2e0
100
AcDbEntity
  8
Layer_1
 62
6
100
AcDbSpline
 70
8
 71
3
 72
8
 73
4
 74
0
 40
0
 40
0
 40
0
 40
0
 40
1
 40
1
 40
1
 40
1
 10
997.873950
 20
959.997094
 30
0.0
 10
998.133736
 20
959.500348
 30
0.0
 10
998.263630
 20
958.960308
 30
0.0
 10
998.263630
 20
958.376974
 30
0.0
  0
SPLINE
  5
2e1
100
AcDbEntity
  8
Layer_1
 62
6
100
AcDbSpline
 70
8
 71
3
 72
8
 73
4
 74
0
 40
0
 40
0
 40
0
 40
0
 40
1
 40
1
 40
1
 40
1
 10
998.263630
 20
958.376974
 30
0.0
 10
998.263630
 20
958.048852
 30
0.0
 10
998.202110
 20
957.734398
 30
0.0
 10
998.079070
 20
957.433614
 30
0.0
  0
SPLINE
  5
2e2
100
AcDbEntity
  8
Layer_1
 62
6
100
AcDbSpline
 70
8
 71
3
 72
8
 73
4
 74
0
 40
0
 40
0
 40
0
 40
0
 40
1
 40
1
 40
1
 40
1
 10
998.079070
 20
957.433614
 30
0.0
 10
997.956030
 20
957.137390
 30
0.0
 10
997.789683
 20
956.870790
 30
0.0
 10
997.580030
 20
956.633814
 30
0.0
  0
SPLINE
  5
2e3
100
AcDbEntity
  8
Layer_1
 62
6
100
AcDbSpline
 70
8
 71
3
 72
8
 73
4
 74
0
 40
0
 40
0
 40
0
 40
0
 40
1
 40
1
 40
1
 40
1
 10
997.580030
 20
956.633814
 30
0.0
 10
997.370376
 20
956.396833
 30
0.0
 10
997.128830
 20
956.168969
 30
0.0
 10
996.855390
 20
955.950222
 30
0.0
  0
SPLINE
  5
2e4
100
AcDbEntity
  8
Layer_1
 62
6
100
AcDbSpline
 70
8
 71
3
 72
8
 73
4
 74
0
 40
0
 40
0
 40
0
 40
0
 40
1
 40
1
 40
1
 40
1
 10
996.855390
 20
955.950222
 30
0.0
 10
996.581950
 20
955.731470
 30
0.0
 10
996.292563
 20
955.524113
 30
0.0
 10
995.987230
 20
955.328150
 30
0.0
  0
SPLINE
  5
2e5
100
AcDbEntity
  8
Layer_1
 62
6
100
AcDbSpline
 70
8
 71
3
 72
8
 73
4
 74
0
 40
0
 40
0
 40
0
 40
0
 40
1
 40
1
 40
1
 40
1
 10
995.987230
 20
955.328150
 30
0.0
 10
995.681896
 20
955.132188
 30
0.0
 10
995.374296
 20
954.938502
 30
0.0
 10
995.064430
 20
954.747094
 30
0.0
  0
SPLINE
  5
2e6
100
AcDbEntity
  8
Layer_1
 62
6
100
AcDbSpline
 70
8
 71
3
 72
8
 73
4
 74
0
 40
0
 40
0
 40
0
 40
0
 40
1
 40
1
 40
1
 40
1
 10
995.064430
 20
954.747094
 30
0.0
 10
994.759096
 20
954.555686
 30
0.0
 10
994.460590
 20
954.355166
 30
0.0
 10
994.168910
 20
954.145534
 30
0.0
  0
SPLINE
  5
2e7
100
AcDbEntity
  8
Layer_1
 62
6
100
AcDbSpline
 70
8
 71
3
 72
8
 73
4
 74
0
 40
0
 40
0
 40
0
 40
0
 40
1
 40
1
 40
1
 40
1
 10
994.168910
 20
954.145534
 30
0.0
 10
993.881763
 20
953.940452
 30
0.0
 10
993.622003
 20
953.728537
 30
0.0
 10
993.389630
 20
953.509790
 30
0.0
  0
SPLINE
  5
2e8
100
AcDbEntity
  8
Layer_1
 62
6
100
AcDbSpline
 70
8
 71
3
 72
8
 73
4
 74
0
 40
0
 40
0
 40
0
 40
0
 40
1
 40
1
 40
1
 40
1
 10
993.389630
 20
953.509790
 30
0.0
 10
993.161736
 20
953.295598
 30
0.0
 10
992.970323
 20
953.054062
 30
0.0
 10
992.815390
 20
952.785182
 30
0.0
  0
SPLINE
  5
2e9
100
AcDbEntity
  8
Layer_1
 62
6
100
AcDbSpline
 70
8
 71
3
 72
8
 73
4
 74
0
 40
0
 40
0
 40
0
 40
0
 40
1
 40
1
 40
1
 40
1
 10
992.815390
 20
952.785182
 30
0.0
 10
992.660456
 20
952.516302
 30
0.0
 10
992.562483
 20
952.233750
 30
0.0
 10
992.521470
 20
951.937526
 30
0.0
  0
LWPOLYLINE
  5
2ea
100
AcDbEntity
  8
Layer_1
 62
6
100
AcDbPolyline
 90
2
 70
1
 10
992.945230
 20
958.376974
 30
0.0
 10
992.343710
 20
958.376974
 30
0.0
  0
SPLINE
  5
2eb
100
AcDbEntity
  8
Layer_1
 62
6
100
AcDbSpline
 70
8
 71
3
 72
8
 73
4
 74
0
 40
0
 40
0
 40
0
 40
0
 40
1
 40
1
 40
1
 40
1
 10
1006.835870
 20
956.415062
 30
0.0
 10
1006.835870
 20
955.503606
 30
0.0
 10
1006.694590
 20
954.653670
 30
0.0
 10
1006.412030
 20
953.865254
 30
0.0
  0
SPLINE
  5
2ec
100
AcDbEntity
  8
Layer_1
 62
6
100
AcDbSpline
 70
8
 71
3
 72
8
 73
4
 74
0
 40
0
 40
0
 40
0
 40
0
 40
1
 40
1
 40
1
 40
1
 10
1006.412030
 20
953.865254
 30
0.0
 10
1006.129523
 20
953.076844
 30
0.0
 10
1005.726216
 20
952.438825
 30
0.0
 10
1005.202110
 20
951.951198
 30
0.0
  0
SPLINE
  5
2ed
100
AcDbEntity
  8
Layer_1
 62
6
100
AcDbSpline
 70
8
 71
3
 72
8
 73
4
 74
0
 40
0
 40
0
 40
0
 40
0
 40
1
 40
1
 40
1
 40
1
 10
1005.202110
 20
951.951198
 30
0.0
 10
1004.682590
 20
951.463566
 30
0.0
 10
1004.101523
 20
951.219750
 30
0.0
 10
1003.458910
 20
951.219750
 30
0.0
  0
SPLINE
  5
2ee
100
AcDbEntity
  8
Layer_1
 62
6
100
AcDbSpline
 70
8
 71
3
 72
8
 73
4
 74
0
 40
0
 40
0
 40
0
 40
0
 40
1
 40
1
 40
1
 40
1
 10
1003.458910
 20
951.219750
 30
0.0
 10
1002.811816
 20
951.219750
 30
0.0
 10
1002.223923
 20
951.463566
 30
0.0
 10
1001.695230
 20
951.951198
 30
0.0
  0
SPLINE
  5
2ef
100
AcDbEntity
  8
Layer_1
 62
6
100
AcDbSpline
 70
8
 71
3
 72
8
 73
4
 74
0
 40
0
 40
0
 40
0
 40
0
 40
1
 40
1
 40
1
 40
1
 10
1001.695230
 20
951.951198
 30
0.0
 10
1001.171176
 20
952.438825
 30
0.0
 10
1000.767870
 20
953.076844
 30
0.0
 10
1000.485310
 20
953.865254
 30
0.0
  0
SPLINE
  5
2f0
100
AcDbEntity
  8
Layer_1
 62
6
100
AcDbSpline
 70
8
 71
3
 72
8
 73
4
 74
0
 40
0
 40
0
 40
0
 40
0
 40
1
 40
1
 40
1
 40
1
 10
1000.485310
 20
953.865254
 30
0.0
 10
1000.202750
 20
954.653670
 30
0.0
 10
1000.061470
 20
955.503606
 30
0.0
 10
1000.061470
 20
956.415062
 30
0.0
  0
SPLINE
  5
2f1
100
AcDbEntity
  8
Layer_1
 62
6
100
AcDbSpline
 70
8
 71
3
 72
8
 73
4
 74
0
 40
0
 40
0
 40
0
 40
0
 40
1
 40
1
 40
1
 40
1
 10
1000.061470
 20
956.415062
 30
0.0
 10
1000.061470
 20
957.098657
 30
0.0
 10
1000.145790
 20
957.754908
 30
0.0
 10
1000.314430
 20
958.383814
 30
0.0
  0
SPLINE
  5
2f2
100
AcDbEntity
  8
Layer_1
 62
6
100
AcDbSpline
 70
8
 71
3
 72
8
 73
4
 74
0
 40
0
 40
0
 40
0
 40
0
 40
1
 40
1
 40
1
 40
1
 10
1000.314430
 20
958.383814
 30
0.0
 10
1000.483016
 20
959.017276
 30
0.0
 10
1000.713150
 20
959.570985
 30
0.0
 10
1001.004830
 20
960.044942
 30
0.0
  0
SPLINE
  5
2f3
100
AcDbEntity
  8
Layer_1
 62
6
100
AcDbSpline
 70
8
 71
3
 72
8
 73
4
 74
0
 40
0
 40
0
 40
0
 40
0
 40
1
 40
1
 40
1
 40
1
 10
1001.004830
 20
960.044942
 30
0.0
 10
1001.296510
 20
960.523460
 30
0.0
 10
1001.656536
 20
960.903996
 30
0.0
 10
1002.084910
 20
961.186550
 30
0.0
  0
SPLINE
  5
2f4
100
AcDbEntity
  8
Layer_1
 62
6
100
AcDbSpline
 70
8
 71
3
 72
8
 73
4
 74
0
 40
0
 40
0
 40
0
 40
0
 40
1
 40
1
 40
1
 40
1
 10
1002.084910
 20
961.186550
 30
0.0
 10
1002.513283
 20
961.473660
 30
0.0
 10
1002.971283
 20
961.617214
 30
0.0
 10
1003.458910
 20
961.617214
 30
0.0
  0
SPLINE
  5
2f5
100
AcDbEntity
  8
Layer_1
 62
6
100
AcDbSpline
 70
8
 71
3
 72
8
 73
4
 74
0
 40
0
 40
0
 40
0
 40
0
 40
1
 40
1
 40
1
 40
1
 10
1003.458910
 20
961.617214
 30
0.0
 10
1004.101523
 20
961.617214
 30
0.0
 10
1004.682590
 20
961.373398
 30
0.0
 10
1005.202110
 20
960.885766
 30
0.0
  0
SPLINE
  5
2f6
100
AcDbEntity
  8
Layer_1
 62
6
100
AcDbSpline
 70
8
 71
3
 72
8
 73
4
 74
0
 40
0
 40
0
 40
0
 40
0
 40
1
 40
1
 40
1
 40
1
 10
1005.202110
 20
960.885766
 30
0.0
 10
1005.726216
 20
960.402694
 30
0.0
 10
1006.129523
 20
959.764673
 30
0.0
 10
1006.412030
 20
958.971702
 30
0.0
  0
SPLINE
  5
2f7
100
AcDbEntity
  8
Layer_1
 62
6
100
AcDbSpline
 70
8
 71
3
 72
8
 73
4
 74
0
 40
0
 40
0
 40
0
 40
0
 40
1
 40
1
 40
1
 40
1
 10
1006.412030
 20
958.971702
 30
0.0
 10
1006.694590
 20
958.183292
 30
0.0
 10
1006.835870
 20
957.331078
 30
0.0
 10
1006.835870
 20
956.415062
 30
0.0
  0
LWPOLYLINE
  5
2f8
100
AcDbEntity
  8
Layer_1
 62
6
100
AcDbPolyline
 90
4
 70
1
 10
992.521470
 20
951.937526
 30
0.0
 10
998.564430
 20
951.937526
 30
0.0
 10
998.564430
 20
951.322286
 30
0.0
 10
998.564430
 20
951.322286
 30
0.0
  0
SPLINE
  5
2f9
100
AcDbEntity
  8
Layer_1
 62
6
100
AcDbSpline
 70
8
 71
3
 72
8
 73
4
 74
0
 40
0
 40
0
 40
0
 40
0
 40
1
 40
1
 40
1
 40
1
 10
1000.669870
 20
956.415062
 30
0.0
 10
1000.669870
 20
955.767926
 30
0.0
 10
1000.747336
 20
955.154972
 30
0.0
 10
1000.902270
 20
954.576198
 30
0.0
  0
SPLINE
  5
2fa
100
AcDbEntity
  8
Layer_1
 62
6
100
AcDbSpline
 70
8
 71
3
 72
8
 73
4
 74
0
 40
0
 40
0
 40
0
 40
0
 40
1
 40
1
 40
1
 40
1
 10
1000.902270
 20
954.576198
 30
0.0
 10
1001.061790
 20
954.001980
 30
0.0
 10
1001.271443
 20
953.516628
 30
0.0
 10
1001.531230
 20
953.120142
 30
0.0
  0
SPLINE
  5
2fb
100
AcDbEntity
  8
Layer_1
 62
6
100
AcDbSpline
 70
8
 71
3
 72
8
 73
4
 74
0
 40
0
 40
0
 40
0
 40
0
 40
1
 40
1
 40
1
 40
1
 10
1001.531230
 20
953.120142
 30
0.0
 10
1001.790963
 20
952.723657
 30
0.0
 10
1002.089443
 20
952.409204
 30
0.0
 10
1002.426670
 20
952.176782
 30
0.0
  0
SPLINE
  5
2fc
100
AcDbEntity
  8
Layer_1
 62
6
100
AcDbSpline
 70
8
 71
3
 72
8
 73
4
 74
0
 40
0
 40
0
 40
0
 40
0
 40
1
 40
1
 40
1
 40
1
 10
1002.426670
 20
952.176782
 30
0.0
 10
1002.763950
 20
951.944361
 30
0.0
 10
1003.108030
 20
951.828150
 30
0.0
 10
1003.458910
 20
951.828150
 30
0.0
  0
SPLINE
  5
2fd
100
AcDbEntity
  8
Layer_1
 62
6
100
AcDbSpline
 70
8
 71
3
 72
8
 73
4
 74
0
 40
0
 40
0
 40
0
 40
0
 40
1
 40
1
 40
1
 40
1
 10
1003.458910
 20
951.828150
 30
0.0
 10
1003.736936
 20
951.828150
 30
0.0
 10
1004.010376
 20
951.901065
 30
0.0
 10
1004.279230
 20
952.046894
 30
0.0
  0
SPLINE
  5
2fe
100
AcDbEntity
  8
Layer_1
 62
6
100
AcDbSpline
 70
8
 71
3
 72
8
 73
4
 74
0
 40
0
 40
0
 40
0
 40
0
 40
1
 40
1
 40
1
 40
1
 10
1004.279230
 20
952.046894
 30
0.0
 10
1004.552670
 20
952.192729
 30
0.0
 10
1004.805603
 20
952.402366
 30
0.0
 10
1005.038030
 20
952.675806
 30
0.0
  0
SPLINE
  5
2ff
100
AcDbEntity
  8
Layer_1
 62
6
100
AcDbSpline
 70
8
 71
3
 72
8
 73
4
 74
0
 40
0
 40
0
 40
0
 40
0
 40
1
 40
1
 40
1
 40
1
 10
1005.038030
 20
952.675806
 30
0.0
 10
1005.270456
 20
952.953801
 30
0.0
 10
1005.475550
 20
953.277369
 30
0.0
 10
1005.653310
 20
953.646510
 30
0.0
  0
SPLINE
  5
300
100
AcDbEntity
  8
Layer_1
 62
6
100
AcDbSpline
 70
8
 71
3
 72
8
 73
4
 74
0
 40
0
 40
0
 40
0
 40
0
 40
1
 40
1
 40
1
 40
1
 10
1005.653310
 20
953.646510
 30
0.0
 10
1005.831016
 20
954.015646
 30
0.0
 10
1005.970003
 20
954.439473
 30
0.0
 10
1006.070270
 20
954.917990
 30
0.0
  0
SPLINE
  5
301
100
AcDbEntity
  8
Layer_1
 62
6
100
AcDbSpline
 70
8
 71
3
 72
8
 73
4
 74
0
 40
0
 40
0
 40
0
 40
0
 40
1
 40
1
 40
1
 40
1
 10
1006.070270
 20
954.917990
 30
0.0
 10
1006.175070
 20
955.396508
 30
0.0
 10
1006.227470
 20
955.895532
 30
0.0
 10
1006.227470
 20
956.415062
 30
0.0
  0
SPLINE
  5
302
100
AcDbEntity
  8
Layer_1
 62
6
100
AcDbSpline
 70
8
 71
3
 72
8
 73
4
 74
0
 40
0
 40
0
 40
0
 40
0
 40
1
 40
1
 40
1
 40
1
 10
1006.227470
 20
956.415062
 30
0.0
 10
1006.227470
 20
957.066753
 30
0.0
 10
1006.147736
 20
957.681988
 30
0.0
 10
1005.988270
 20
958.260766
 30
0.0
  0
SPLINE
  5
303
100
AcDbEntity
  8
Layer_1
 62
6
100
AcDbSpline
 70
8
 71
3
 72
8
 73
4
 74
0
 40
0
 40
0
 40
0
 40
0
 40
1
 40
1
 40
1
 40
1
 10
1005.988270
 20
958.260766
 30
0.0
 10
1005.833283
 20
958.839540
 30
0.0
 10
1005.625923
 20
959.327169
 30
0.0
 10
1005.366190
 20
959.723654
 30
0.0
  0
SPLINE
  5
304
100
AcDbEntity
  8
Layer_1
 62
6
100
AcDbSpline
 70
8
 71
3
 72
8
 73
4
 74
0
 40
0
 40
0
 40
0
 40
0
 40
1
 40
1
 40
1
 40
1
 10
1005.366190
 20
959.723654
 30
0.0
 10
1005.110936
 20
960.120140
 30
0.0
 10
1004.814696
 20
960.432316
 30
0.0
 10
1004.477470
 20
960.660182
 30
0.0
  0
SPLINE
  5
305
100
AcDbEntity
  8
Layer_1
 62
6
100
AcDbSpline
 70
8
 71
3
 72
8
 73
4
 74
0
 40
0
 40
0
 40
0
 40
0
 40
1
 40
1
 40
1
 40
1
 10
1004.477470
 20
960.660182
 30
0.0
 10
1004.144776
 20
960.892604
 30
0.0
 10
1003.805256
 20
961.008814
 30
0.0
 10
1003.458910
 20
961.008814
 30
0.0
  0
SPLINE
  5
306
100
AcDbEntity
  8
Layer_1
 62
6
100
AcDbSpline
 70
8
 71
3
 72
8
 73
4
 74
0
 40
0
 40
0
 40
0
 40
0
 40
1
 40
1
 40
1
 40
1
 10
1003.458910
 20
961.008814
 30
0.0
 10
1003.108030
 20
961.008814
 30
0.0
 10
1002.763950
 20
960.892604
 30
0.0
 10
1002.426670
 20
960.660182
 30
0.0
  0
SPLINE
  5
307
100
AcDbEntity
  8
Layer_1
 62
6
100
AcDbSpline
 70
8
 71
3
 72
8
 73
4
 74
0
 40
0
 40
0
 40
0
 40
0
 40
1
 40
1
 40
1
 40
1
 10
1002.426670
 20
960.660182
 30
0.0
 10
1002.089443
 20
960.432316
 30
0.0
 10
1001.790963
 20
960.120140
 30
0.0
 10
1001.531230
 20
959.723654
 30
0.0
  0
SPLINE
  5
308
100
AcDbEntity
  8
Layer_1
 62
6
100
AcDbSpline
 70
8
 71
3
 72
8
 73
4
 74
0
 40
0
 40
0
 40
0
 40
0
 40
1
 40
1
 40
1
 40
1
 10
1001.531230
 20
959.723654
 30
0.0
 10
1001.271443
 20
959.327169
 30
0.0
 10
1001.061790
 20
958.839540
 30
0.0
 10
1000.902270
 20
958.260766
 30
0.0
  0
SPLINE
  5
309
100
AcDbEntity
  8
Layer_1
 62
6
100
AcDbSpline
 70
8
 71
3
 72
8
 73
4
 74
0
 40
0
 40
0
 40
0
 40
0
 40
1
 40
1
 40
1
 40
1
 10
1000.902270
 20
958.260766
 30
0.0
 10
1000.747336
 20
957.681988
 30
0.0
 10
1000.669870
 20
957.066753
 30
0.0
 10
1000.669870
 20
956.415062
 30
0.0
  0
LWPOLYLINE
  5
30a
100
AcDbEntity
  8
Layer_1
 62
6
100
AcDbPolyline
 90
2
 70
1
 10
1006.835870
 20
956.415062
 30
0.0
 10
1006.835870
 20
956.415062
 30
0.0
  0
LWPOLYLINE
  5
30b
100
AcDbEntity
  8
Layer_1
 62
6
100
AcDbPolyline
 90
2
 70
1
 10
1000.669870
 20
956.415062
 30
0.0
 10
1000.669870
 20
956.415062
 30
0.0
  0
LWPOLYLINE
  5
30c
100
AcDbEntity
  8
Layer_1
 62
6
100
AcDbPolyline
 90
6
 70
1
 10
1014.758750
 20
961.528342
 30
0.0
 10
1015.524350
 20
961.528342
 30
0.0
 10
1008.264590
 20
951.322286
 30
0.0
 10
1007.519470
 20
951.322286
 30
0.0
 10
1014.758750
 20
961.528342
 30
0.0
 10
1014.758750
 20
961.528342
 30
0.0
  0
SPLINE
  5
30d
100
AcDbEntity
  8
Layer_1
 62
6
100
AcDbSpline
 70
8
 71
3
 72
8
 73
4
 74
0
 40
0
 40
0
 40
0
 40
0
 40
1
 40
1
 40
1
 40
1
 10
1031.117150
 20
956.415062
 30
0.0
 10
1031.117150
 20
955.503606
 30
0.0
 10
1030.975870
 20
954.653670
 30
0.0
 10
1030.693310
 20
953.865254
 30
0.0
  0
SPLINE
  5
30e
100
AcDbEntity
  8
Layer_1
 62
6
100
AcDbSpline
 70
8
 71
3
 72
8
 73
4
 74
0
 40
0
 40
0
 40
0
 40
0
 40
1
 40
1
 40
1
 40
1
 10
1030.693310
 20
953.865254
 30
0.0
 10
1030.410750
 20
953.076844
 30
0.0
 10
1030.007416
 20
952.438825
 30
0.0
 10
1029.483310
 20
951.951198
 30
0.0
  0
SPLINE
  5
30f
100
AcDbEntity
  8
Layer_1
 62
6
100
AcDbSpline
 70
8
 71
3
 72
8
 73
4
 74
0
 40
0
 40
0
 40
0
 40
0
 40
1
 40
1
 40
1
 40
1
 10
1029.483310
 20
951.951198
 30
0.0
 10
1028.963790
 20
951.463566
 30
0.0
 10
1028.382750
 20
951.219750
 30
0.0
 10
1027.740190
 20
951.219750
 30
0.0
  0
SPLINE
  5
310
100
AcDbEntity
  8
Layer_1
 62
6
100
AcDbSpline
 70
8
 71
3
 72
8
 73
4
 74
0
 40
0
 40
0
 40
0
 40
0
 40
1
 40
1
 40
1
 40
1
 10
1027.740190
 20
951.219750
 30
0.0
 10
1027.093043
 20
951.219750
 30
0.0
 10
1026.505150
 20
951.463566
 30
0.0
 10
1025.976510
 20
951.951198
 30
0.0
  0
SPLINE
  5
311
100
AcDbEntity
  8
Layer_1
 62
6
100
AcDbSpline
 70
8
 71
3
 72
8
 73
4
 74
0
 40
0
 40
0
 40
0
 40
0
 40
1
 40
1
 40
1
 40
1
 10
1025.976510
 20
951.951198
 30
0.0
 10
1025.452403
 20
952.438825
 30
0.0
 10
1025.049096
 20
953.076844
 30
0.0
 10
1024.766590
 20
953.865254
 30
0.0
  0
SPLINE
  5
312
100
AcDbEntity
  8
Layer_1
 62
6
100
AcDbSpline
 70
8
 71
3
 72
8
 73
4
 74
0
 40
0
 40
0
 40
0
 40
0
 40
1
 40
1
 40
1
 40
1
 10
1024.766590
 20
953.865254
 30
0.0
 10
1024.484030
 20
954.653670
 30
0.0
 10
1024.342750
 20
955.503606
 30
0.0
 10
1024.342750
 20
956.415062
 30
0.0
  0
SPLINE
  5
313
100
AcDbEntity
  8
Layer_1
 62
6
100
AcDbSpline
 70
8
 71
3
 72
8
 73
4
 74
0
 40
0
 40
0
 40
0
 40
0
 40
1
 40
1
 40
1
 40
1
 10
1024.342750
 20
956.415062
 30
0.0
 10
1024.342750
 20
957.098657
 30
0.0
 10
1024.427043
 20
957.754908
 30
0.0
 10
1024.595630
 20
958.383814
 30
0.0
  0
SPLINE
  5
314
100
AcDbEntity
  8
Layer_1
 62
6
100
AcDbSpline
 70
8
 71
3
 72
8
 73
4
 74
0
 40
0
 40
0
 40
0
 40
0
 40
1
 40
1
 40
1
 40
1
 10
1024.595630
 20
958.383814
 30
0.0
 10
1024.764270
 20
959.017276
 30
0.0
 10
1024.994430
 20
959.570985
 30
0.0
 10
1025.286110
 20
960.044942
 30
0.0
  0
SPLINE
  5
315
100
AcDbEntity
  8
Layer_1
 62
6
100
AcDbSpline
 70
8
 71
3
 72
8
 73
4
 74
0
 40
0
 40
0
 40
0
 40
0
 40
1
 40
1
 40
1
 40
1
 10
1025.286110
 20
960.044942
 30
0.0
 10
1025.577736
 20
960.523460
 30
0.0
 10
1025.937763
 20
960.903996
 30
0.0
 10
1026.366190
 20
961.186550
 30
0.0
  0
SPLINE
  5
316
100
AcDbEntity
  8
Layer_1
 62
6
100
AcDbSpline
 70
8
 71
3
 72
8
 73
4
 74
0
 40
0
 40
0
 40
0
 40
0
 40
1
 40
1
 40
1
 40
1
 10
1026.366190
 20
961.186550
 30
0.0
 10
1026.794563
 20
961.473660
 30
0.0
 10
1027.252563
 20
961.617214
 30
0.0
 10
1027.740190
 20
961.617214
 30
0.0
  0
SPLINE
  5
317
100
AcDbEntity
  8
Layer_1
 62
6
100
AcDbSpline
 70
8
 71
3
 72
8
 73
4
 74
0
 40
0
 40
0
 40
0
 40
0
 40
1
 40
1
 40
1
 40
1
 10
1027.740190
 20
961.617214
 30
0.0
 10
1028.382750
 20
961.617214
 30
0.0
 10
1028.963790
 20
961.373398
 30
0.0
 10
1029.483310
 20
960.885766
 30
0.0
  0
SPLINE
  5
318
100
AcDbEntity
  8
Layer_1
 62
6
100
AcDbSpline
 70
8
 71
3
 72
8
 73
4
 74
0
 40
0
 40
0
 40
0
 40
0
 40
1
 40
1
 40
1
 40
1
 10
1029.483310
 20
960.885766
 30
0.0
 10
1030.007416
 20
960.402694
 30
0.0
 10
1030.410750
 20
959.764673
 30
0.0
 10
1030.693310
 20
958.971702
 30
0.0
  0
SPLINE
  5
319
100
AcDbEntity
  8
Layer_1
 62
6
100
AcDbSpline
 70
8
 71
3
 72
8
 73
4
 74
0
 40
0
 40
0
 40
0
 40
0
 40
1
 40
1
 40
1
 40
1
 10
1030.693310
 20
958.971702
 30
0.0
 10
1030.975870
 20
958.183292
 30
0.0
 10
1031.117150
 20
957.331078
 30
0.0
 10
1031.117150
 20
956.415062
 30
0.0
  0
LWPOLYLINE
  5
31a
100
AcDbEntity
  8
Layer_1
 62
6
100
AcDbPolyline
 90
8
 70
1
 10
1019.284110
 20
951.322286
 30
0.0
 10
1019.256910
 20
960.427758
 30
0.0
 10
1018.149550
 20
959.764670
 30
0.0
 10
1017.841870
 20
960.304710
 30
0.0
 10
1019.899550
 20
961.528342
 30
0.0
 10
1019.899550
 20
951.322286
 30
0.0
 10
1019.284270
 20
951.322286
 30
0.0
 10
1019.284110
 20
951.322286
 30
0.0
  0
SPLINE
  5
31b
100
AcDbEntity
  8
Layer_1
 62
6
100
AcDbSpline
 70
8
 71
3
 72
8
 73
4
 74
0
 40
0
 40
0
 40
0
 40
0
 40
1
 40
1
 40
1
 40
1
 10
1024.951150
 20
956.415062
 30
0.0
 10
1024.951150
 20
955.767926
 30
0.0
 10
1025.028616
 20
955.154972
 30
0.0
 10
1025.183550
 20
954.576198
 30
0.0
  0
SPLINE
  5
31c
100
AcDbEntity
  8
Layer_1
 62
6
100
AcDbSpline
 70
8
 71
3
 72
8
 73
4
 74
0
 40
0
 40
0
 40
0
 40
0
 40
1
 40
1
 40
1
 40
1
 10
1025.183550
 20
954.576198
 30
0.0
 10
1025.343070
 20
954.001980
 30
0.0
 10
1025.552696
 20
953.516628
 30
0.0
 10
1025.812430
 20
953.120142
 30
0.0
  0
SPLINE
  5
31d
100
AcDbEntity
  8
Layer_1
 62
6
100
AcDbSpline
 70
8
 71
3
 72
8
 73
4
 74
0
 40
0
 40
0
 40
0
 40
0
 40
1
 40
1
 40
1
 40
1
 10
1025.812430
 20
953.120142
 30
0.0
 10
1026.072216
 20
952.723657
 30
0.0
 10
1026.370723
 20
952.409204
 30
0.0
 10
1026.707950
 20
952.176782
 30
0.0
  0
SPLINE
  5
31e
100
AcDbEntity
  8
Layer_1
 62
6
100
AcDbSpline
 70
8
 71
3
 72
8
 73
4
 74
0
 40
0
 40
0
 40
0
 40
0
 40
1
 40
1
 40
1
 40
1
 10
1026.707950
 20
952.176782
 30
0.0
 10
1027.045176
 20
951.944361
 30
0.0
 10
1027.389256
 20
951.828150
 30
0.0
 10
1027.740190
 20
951.828150
 30
0.0
  0
SPLINE
  5
31f
100
AcDbEntity
  8
Layer_1
 62
6
100
AcDbSpline
 70
8
 71
3
 72
8
 73
4
 74
0
 40
0
 40
0
 40
0
 40
0
 40
1
 40
1
 40
1
 40
1
 10
1027.740190
 20
951.828150
 30
0.0
 10
1028.018163
 20
951.828150
 30
0.0
 10
1028.291603
 20
951.901065
 30
0.0
 10
1028.560510
 20
952.046894
 30
0.0
  0
SPLINE
  5
320
100
AcDbEntity
  8
Layer_1
 62
6
100
AcDbSpline
 70
8
 71
3
 72
8
 73
4
 74
0
 40
0
 40
0
 40
0
 40
0
 40
1
 40
1
 40
1
 40
1
 10
1028.560510
 20
952.046894
 30
0.0
 10
1028.833950
 20
952.192729
 30
0.0
 10
1029.086883
 20
952.402366
 30
0.0
 10
1029.319310
 20
952.675806
 30
0.0
  0
SPLINE
  5
321
100
AcDbEntity
  8
Layer_1
 62
6
100
AcDbSpline
 70
8
 71
3
 72
8
 73
4
 74
0
 40
0
 40
0
 40
0
 40
0
 40
1
 40
1
 40
1
 40
1
 10
1029.319310
 20
952.675806
 30
0.0
 10
1029.551736
 20
952.953801
 30
0.0
 10
1029.756803
 20
953.277369
 30
0.0
 10
1029.934510
 20
953.646510
 30
0.0
  0
SPLINE
  5
322
100
AcDbEntity
  8
Layer_1
 62
6
100
AcDbSpline
 70
8
 71
3
 72
8
 73
4
 74
0
 40
0
 40
0
 40
0
 40
0
 40
1
 40
1
 40
1
 40
1
 10
1029.934510
 20
953.646510
 30
0.0
 10
1030.112270
 20
954.015646
 30
0.0
 10
1030.251283
 20
954.439473
 30
0.0
 10
1030.351550
 20
954.917990
 30
0.0
  0
SPLINE
  5
323
100
AcDbEntity
  8
Layer_1
 62
6
100
AcDbSpline
 70
8
 71
3
 72
8
 73
4
 74
0
 40
0
 40
0
 40
0
 40
0
 40
1
 40
1
 40
1
 40
1
 10
1030.351550
 20
954.917990
 30
0.0
 10
1030.456350
 20
955.396508
 30
0.0
 10
1030.508750
 20
955.895532
 30
0.0
 10
1030.508750
 20
956.415062
 30
0.0
  0
SPLINE
  5
324
100
AcDbEntity
  8
Layer_1
 62
6
100
AcDbSpline
 70
8
 71
3
 72
8
 73
4
 74
0
 40
0
 40
0
 40
0
 40
0
 40
1
 40
1
 40
1
 40
1
 10
1030.508750
 20
956.415062
 30
0.0
 10
1030.508750
 20
957.066753
 30
0.0
 10
1030.428990
 20
957.681988
 30
0.0
 10
1030.269470
 20
958.260766
 30
0.0
  0
SPLINE
  5
325
100
AcDbEntity
  8
Layer_1
 62
6
100
AcDbSpline
 70
8
 71
3
 72
8
 73
4
 74
0
 40
0
 40
0
 40
0
 40
0
 40
1
 40
1
 40
1
 40
1
 10
1030.269470
 20
958.260766
 30
0.0
 10
1030.114536
 20
958.839540
 30
0.0
 10
1029.907176
 20
959.327169
 30
0.0
 10
1029.647390
 20
959.723654
 30
0.0
  0
SPLINE
  5
326
100
AcDbEntity
  8
Layer_1
 62
6
100
AcDbSpline
 70
8
 71
3
 72
8
 73
4
 74
0
 40
0
 40
0
 40
0
 40
0
 40
1
 40
1
 40
1
 40
1
 10
1029.647390
 20
959.723654
 30
0.0
 10
1029.392190
 20
960.120140
 30
0.0
 10
1029.095976
 20
960.432316
 30
0.0
 10
1028.758750
 20
960.660182
 30
0.0
  0
SPLINE
  5
327
100
AcDbEntity
  8
Layer_1
 62
6
100
AcDbSpline
 70
8
 71
3
 72
8
 73
4
 74
0
 40
0
 40
0
 40
0
 40
0
 40
1
 40
1
 40
1
 40
1
 10
1028.758750
 20
960.660182
 30
0.0
 10
1028.426056
 20
960.892604
 30
0.0
 10
1028.086536
 20
961.008814
 30
0.0
 10
1027.740190
 20
961.008814
 30
0.0
  0
SPLINE
  5
328
100
AcDbEntity
  8
Layer_1
 62
6
100
AcDbSpline
 70
8
 71
3
 72
8
 73
4
 74
0
 40
0
 40
0
 40
0
 40
0
 40
1
 40
1
 40
1
 40
1
 10
1027.740190
 20
961.008814
 30
0.0
 10
1027.389256
 20
961.008814
 30
0.0
 10
1027.045176
 20
960.892604
 30
0.0
 10
1026.707950
 20
960.660182
 30
0.0
  0
SPLINE
  5
329
100
AcDbEntity
  8
Layer_1
 62
6
100
AcDbSpline
 70
8
 71
3
 72
8
 73
4
 74
0
 40
0
 40
0
 40
0
 40
0
 40
1
 40
1
 40
1
 40
1
 10
1026.707950
 20
960.660182
 30
0.0
 10
1026.370723
 20
960.432316
 30
0.0
 10
1026.072216
 20
960.120140
 30
0.0
 10
1025.812430
 20
959.723654
 30
0.0
  0
SPLINE
  5
32a
100
AcDbEntity
  8
Layer_1
 62
6
100
AcDbSpline
 70
8
 71
3
 72
8
 73
4
 74
0
 40
0
 40
0
 40
0
 40
0
 40
1
 40
1
 40
1
 40
1
 10
1025.812430
 20
959.723654
 30
0.0
 10
1025.552696
 20
959.327169
 30
0.0
 10
1025.343070
 20
958.839540
 30
0.0
 10
1025.183550
 20
958.260766
 30
0.0
  0
SPLINE
  5
32b
100
AcDbEntity
  8
Layer_1
 62
6
100
AcDbSpline
 70
8
 71
3
 72
8
 73
4
 74
0
 40
0
 40
0
 40
0
 40
0
 40
1
 40
1
 40
1
 40
1
 10
1025.183550
 20
958.260766
 30
0.0
 10
1025.028616
 20
957.681988
 30
0.0
 10
1024.951150
 20
957.066753
 30
0.0
 10
1024.951150
 20
956.415062
 30
0.0
  0
LWPOLYLINE
  5
32c
100
AcDbEntity
  8
Layer_1
 62
6
100
AcDbPolyline
 90
2
 70
1
 10
1031.117150
 20
956.415062
 30
0.0
 10
1031.117150
 20
956.415062
 30
0.0
  0
LWPOLYLINE
  5
32d
100
AcDbEntity
  8
Layer_1
 62
6
100
AcDbPolyline
 90
2
 70
1
 10
1024.951150
 20
956.415062
 30
0.0
 10
1024.951150
 20
956.415062
 30
0.0
  0
SPLINE
  5
32e
100
AcDbEntity
  8
Layer_1
 62
6
100
AcDbSpline
 70
8
 71
3
 72
8
 73
4
 74
0
 40
0
 40
0
 40
0
 40
0
 40
1
 40
1
 40
1
 40
1
 10
1038.486270
 20
952.928734
 30
0.0
 10
1038.203710
 20
952.418318
 30
0.0
 10
1037.823176
 20
952.010441
 30
0.0
 10
1037.344670
 20
951.705102
 30
0.0
  0
SPLINE
  5
32f
100
AcDbEntity
  8
Layer_1
 62
6
100
AcDbSpline
 70
8
 71
3
 72
8
 73
4
 74
0
 40
0
 40
0
 40
0
 40
0
 40
1
 40
1
 40
1
 40
1
 10
1037.344670
 20
951.705102
 30
0.0
 10
1036.870696
 20
951.399764
 30
0.0
 10
1036.355736
 20
951.247094
 30
0.0
 10
1035.799790
 20
951.247094
 30
0.0
  0
SPLINE
  5
330
100
AcDbEntity
  8
Layer_1
 62
6
100
AcDbSpline
 70
8
 71
3
 72
8
 73
4
 74
0
 40
0
 40
0
 40
0
 40
0
 40
1
 40
1
 40
1
 40
1
 10
1035.799790
 20
951.247094
 30
0.0
 10
1035.221016
 20
951.247094
 30
0.0
 10
1034.687790
 20
951.406598
 30
0.0
 10
1034.200110
 20
951.725606
 30
0.0
  0
SPLINE
  5
331
100
AcDbEntity
  8
Layer_1
 62
6
100
AcDbSpline
 70
8
 71
3
 72
8
 73
4
 74
0
 40
0
 40
0
 40
0
 40
0
 40
1
 40
1
 40
1
 40
1
 10
1034.200110
 20
951.725606
 30
0.0
 10
1033.717070
 20
952.049174
 30
0.0
 10
1033.336536
 20
952.484396
 30
0.0
 10
1033.058510
 20
953.031270
 30
0.0
  0
SPLINE
  5
332
100
AcDbEntity
  8
Layer_1
 62
6
100
AcDbSpline
 70
8
 71
3
 72
8
 73
4
 74
0
 40
0
 40
0
 40
0
 40
0
 40
1
 40
1
 40
1
 40
1
 10
1033.058510
 20
953.031270
 30
0.0
 10
1032.785070
 20
953.578145
 30
0.0
 10
1032.648350
 20
954.170593
 30
0.0
 10
1032.648350
 20
954.808614
 30
0.0
  0
SPLINE
  5
333
100
AcDbEntity
  8
Layer_1
 62
6
100
AcDbSpline
 70
8
 71
3
 72
8
 73
4
 74
0
 40
0
 40
0
 40
0
 40
0
 40
1
 40
1
 40
1
 40
1
 10
1032.648350
 20
954.808614
 30
0.0
 10
1032.648350
 20
955.451196
 30
0.0
 10
1032.785070
 20
956.045924
 30
0.0
 10
1033.058510
 20
956.592798
 30
0.0
  0
SPLINE
  5
334
100
AcDbEntity
  8
Layer_1
 62
6
100
AcDbSpline
 70
8
 71
3
 72
8
 73
4
 74
0
 40
0
 40
0
 40
0
 40
0
 40
1
 40
1
 40
1
 40
1
 10
1033.058510
 20
956.592798
 30
0.0
 10
1033.336536
 20
957.139673
 30
0.0
 10
1033.717070
 20
957.572614
 30
0.0
 10
1034.200110
 20
957.891622
 30
0.0
  0
SPLINE
  5
335
100
AcDbEntity
  8
Layer_1
 62
6
100
AcDbSpline
 70
8
 71
3
 72
8
 73
4
 74
0
 40
0
 40
0
 40
0
 40
0
 40
1
 40
1
 40
1
 40
1
 10
1034.200110
 20
957.891622
 30
0.0
 10
1034.687790
 20
958.215190
 30
0.0
 10
1035.221016
 20
958.376974
 30
0.0
 10
1035.799790
 20
958.376974
 30
0.0
  0
SPLINE
  5
336
100
AcDbEntity
  8
Layer_1
 62
6
100
AcDbSpline
 70
8
 71
3
 72
8
 73
4
 74
0
 40
0
 40
0
 40
0
 40
0
 40
1
 40
1
 40
1
 40
1
 10
1035.799790
 20
958.376974
 30
0.0
 10
1036.355736
 20
958.376974
 30
0.0
 10
1036.870696
 20
958.224305
 30
0.0
 10
1037.344670
 20
957.918966
 30
0.0
  0
SPLINE
  5
337
100
AcDbEntity
  8
Layer_1
 62
6
100
AcDbSpline
 70
8
 71
3
 72
8
 73
4
 74
0
 40
0
 40
0
 40
0
 40
0
 40
1
 40
1
 40
1
 40
1
 10
1037.344670
 20
957.918966
 30
0.0
 10
1037.823176
 20
957.613628
 30
0.0
 10
1038.203710
 20
957.205750
 30
0.0
 10
1038.486270
 20
956.695334
 30
0.0
  0
LWPOLYLINE
  5
338
100
AcDbEntity
  8
Layer_1
 62
6
100
AcDbPolyline
 90
2
 70
1
 10
1037.966750
 20
953.236350
 30
0.0
 10
1038.486270
 20
952.928734
 30
0.0
  0
SPLINE
  5
339
100
AcDbEntity
  8
Layer_1
 62
6
100
AcDbSpline
 70
8
 71
3
 72
8
 73
4
 74
0
 40
0
 40
0
 40
0
 40
0
 40
1
 40
1
 40
1
 40
1
 10
1037.966750
 20
956.387718
 30
0.0
 10
1037.725203
 20
956.806988
 30
0.0
 10
1037.413016
 20
957.137390
 30
0.0
 10
1037.030190
 20
957.378926
 30
0.0
  0
SPLINE
  5
33a
100
AcDbEntity
  8
Layer_1
 62
6
100
AcDbSpline
 70
8
 71
3
 72
8
 73
4
 74
0
 40
0
 40
0
 40
0
 40
0
 40
1
 40
1
 40
1
 40
1
 10
1037.030190
 20
957.378926
 30
0.0
 10
1036.651950
 20
957.625022
 30
0.0
 10
1036.241816
 20
957.748070
 30
0.0
 10
1035.799790
 20
957.748070
 30
0.0
  0
SPLINE
  5
33b
100
AcDbEntity
  8
Layer_1
 62
6
100
AcDbSpline
 70
8
 71
3
 72
8
 73
4
 74
0
 40
0
 40
0
 40
0
 40
0
 40
1
 40
1
 40
1
 40
1
 10
1035.799790
 20
957.748070
 30
0.0
 10
1035.102510
 20
957.748070
 30
0.0
 10
1034.498670
 20
957.465518
 30
0.0
 10
1033.988270
 20
956.900414
 30
0.0
  0
SPLINE
  5
33c
100
AcDbEntity
  8
Layer_1
 62
6
100
AcDbSpline
 70
8
 71
3
 72
8
 73
4
 74
0
 40
0
 40
0
 40
0
 40
0
 40
1
 40
1
 40
1
 40
1
 10
1033.988270
 20
956.900414
 30
0.0
 10
1033.477816
 20
956.335310
 30
0.0
 10
1033.222590
 20
955.644881
 30
0.0
 10
1033.222590
 20
954.829126
 30
0.0
  0
SPLINE
  5
33d
100
AcDbEntity
  8
Layer_1
 62
6
100
AcDbSpline
 70
8
 71
3
 72
8
 73
4
 74
0
 40
0
 40
0
 40
0
 40
0
 40
1
 40
1
 40
1
 40
1
 10
1033.222590
 20
954.829126
 30
0.0
 10
1033.222590
 20
954.008812
 30
0.0
 10
1033.477816
 20
953.311545
 30
0.0
 10
1033.988270
 20
952.737326
 30
0.0
  0
SPLINE
  5
33e
100
AcDbEntity
  8
Layer_1
 62
6
100
AcDbSpline
 70
8
 71
3
 72
8
 73
4
 74
0
 40
0
 40
0
 40
0
 40
0
 40
1
 40
1
 40
1
 40
1
 10
1033.988270
 20
952.737326
 30
0.0
 10
1034.498670
 20
952.163108
 30
0.0
 10
1035.102510
 20
951.875998
 30
0.0
 10
1035.799790
 20
951.875998
 30
0.0
  0
SPLINE
  5
33f
100
AcDbEntity
  8
Layer_1
 62
6
100
AcDbSpline
 70
8
 71
3
 72
8
 73
4
 74
0
 40
0
 40
0
 40
0
 40
0
 40
1
 40
1
 40
1
 40
1
 10
1035.799790
 20
951.875998
 30
0.0
 10
1036.241816
 20
951.875998
 30
0.0
 10
1036.654243
 20
951.996766
 30
0.0
 10
1037.037070
 20
952.238302
 30
0.0
  0
SPLINE
  5
340
100
AcDbEntity
  8
Layer_1
 62
6
100
AcDbSpline
 70
8
 71
3
 72
8
 73
4
 74
0
 40
0
 40
0
 40
0
 40
0
 40
1
 40
1
 40
1
 40
1
 10
1037.037070
 20
952.238302
 30
0.0
 10
1037.419896
 20
952.479838
 30
0.0
 10
1037.729790
 20
952.812521
 30
0.0
 10
1037.966750
 20
953.236350
 30
0.0
  0
LWPOLYLINE
  5
341
100
AcDbEntity
  8
Layer_1
 62
6
100
AcDbPolyline
 90
2
 70
1
 10
1038.486270
 20
956.695334
 30
0.0
 10
1037.966750
 20
956.387718
 30
0.0
  0
LWPOLYLINE
  5
342
100
AcDbEntity
  8
Layer_1
 62
6
100
AcDbPolyline
 90
2
 70
1
 10
1037.966750
 20
953.236350
 30
0.0
 10
1037.966750
 20
953.236350
 30
0.0
  0
SPLINE
  5
343
100
AcDbEntity
  8
Layer_1
 62
6
100
AcDbSpline
 70
8
 71
3
 72
8
 73
4
 74
0
 40
0
 40
0
 40
0
 40
0
 40
1
 40
1
 40
1
 40
1
 10
1040.954030
 20
958.253926
 30
0.0
 10
1041.040643
 20
957.953148
 30
0.0
 10
1041.083950
 20
957.647809
 30
0.0
 10
1041.083950
 20
957.337910
 30
0.0
  0
LWPOLYLINE
  5
344
100
AcDbEntity
  8
Layer_1
 62
6
100
AcDbPolyline
 90
2
 70
1
 10
1040.297790
 20
958.253926
 30
0.0
 10
1040.954030
 20
958.253926
 30
0.0
  0
SPLINE
  5
345
100
AcDbEntity
  8
Layer_1
 62
6
100
AcDbSpline
 70
8
 71
3
 72
8
 73
4
 74
0
 40
0
 40
0
 40
0
 40
0
 40
1
 40
1
 40
1
 40
1
 10
1041.083950
 20
956.339870
 30
0.0
 10
1041.302670
 20
956.877630
 30
0.0
 10
1041.617123
 20
957.349308
 30
0.0
 10
1042.027310
 20
957.754902
 30
0.0
  0
SPLINE
  5
346
100
AcDbEntity
  8
Layer_1
 62
6
100
AcDbSpline
 70
8
 71
3
 72
8
 73
4
 74
0
 40
0
 40
0
 40
0
 40
0
 40
1
 40
1
 40
1
 40
1
 10
1042.027310
 20
957.754902
 30
0.0
 10
1042.437443
 20
958.160502
 30
0.0
 10
1042.824803
 20
958.363302
 30
0.0
 10
1043.189390
 20
958.363302
 30
0.0
  0
SPLINE
  5
347
100
AcDbEntity
  8
Layer_1
 62
6
100
AcDbSpline
 70
8
 71
3
 72
8
 73
4
 74
0
 40
0
 40
0
 40
0
 40
0
 40
1
 40
1
 40
1
 40
1
 10
1043.189390
 20
958.363302
 30
0.0
 10
1043.731736
 20
958.363302
 30
0.0
 10
1044.166963
 20
958.174174
 30
0.0
 10
1044.495070
 20
957.795918
 30
0.0
  0
SPLINE
  5
348
100
AcDbEntity
  8
Layer_1
 62
6
100
AcDbSpline
 70
8
 71
3
 72
8
 73
4
 74
0
 40
0
 40
0
 40
0
 40
0
 40
1
 40
1
 40
1
 40
1
 10
1044.495070
 20
957.795918
 30
0.0
 10
1044.823176
 20
957.422222
 30
0.0
 10
1045.030536
 20
956.936873
 30
0.0
 10
1045.117150
 20
956.339870
 30
0.0
  0
SPLINE
  5
349
100
AcDbEntity
  8
Layer_1
 62
6
100
AcDbSpline
 70
8
 71
3
 72
8
 73
4
 74
0
 40
0
 40
0
 40
0
 40
0
 40
1
 40
1
 40
1
 40
1
 10
1045.117150
 20
956.339870
 30
0.0
 10
1045.344990
 20
956.895860
 30
0.0
 10
1045.650323
 20
957.367537
 30
0.0
 10
1046.033150
 20
957.754902
 30
0.0
  0
SPLINE
  5
34a
100
AcDbEntity
  8
Layer_1
 62
6
100
AcDbSpline
 70
8
 71
3
 72
8
 73
4
 74
0
 40
0
 40
0
 40
0
 40
0
 40
1
 40
1
 40
1
 40
1
 10
1046.033150
 20
957.754902
 30
0.0
 10
1046.420510
 20
958.146833
 30
0.0
 10
1046.801043
 20
958.342798
 30
0.0
 10
1047.174750
 20
958.342798
 30
0.0
  0
SPLINE
  5
34b
100
AcDbEntity
  8
Layer_1
 62
6
100
AcDbSpline
 70
8
 71
3
 72
8
 73
4
 74
0
 40
0
 40
0
 40
0
 40
0
 40
1
 40
1
 40
1
 40
1
 10
1047.174750
 20
958.342798
 30
0.0
 10
1047.603123
 20
958.342798
 30
0.0
 10
1047.965443
 20
958.208358
 30
0.0
 10
1048.261710
 20
957.939478
 30
0.0
  0
SPLINE
  5
34c
100
AcDbEntity
  8
Layer_1
 62
6
100
AcDbSpline
 70
8
 71
3
 72
8
 73
4
 74
0
 40
0
 40
0
 40
0
 40
0
 40
1
 40
1
 40
1
 40
1
 10
1048.261710
 20
957.939478
 30
0.0
 10
1048.562456
 20
957.675153
 30
0.0
 10
1048.776643
 20
957.340190
 30
0.0
 10
1048.904270
 20
956.934590
 30
0.0
  0
SPLINE
  5
34d
100
AcDbEntity
  8
Layer_1
 62
6
100
AcDbSpline
 70
8
 71
3
 72
8
 73
4
 74
0
 40
0
 40
0
 40
0
 40
0
 40
1
 40
1
 40
1
 40
1
 10
1048.904270
 20
956.934590
 30
0.0
 10
1049.036430
 20
956.533550
 30
0.0
 10
1049.102510
 20
956.084657
 30
0.0
 10
1049.102510
 20
955.587910
 30
0.0
  0
LWPOLYLINE
  5
34e
100
AcDbEntity
  8
Layer_1
 62
6
100
AcDbPolyline
 90
2
 70
1
 10
1041.083950
 20
957.337910
 30
0.0
 10
1041.083950
 20
956.339870
 30
0.0
  0
SPLINE
  5
34f
100
AcDbEntity
  8
Layer_1
 62
6
100
AcDbSpline
 70
8
 71
3
 72
8
 73
4
 74
0
 40
0
 40
0
 40
0
 40
0
 40
1
 40
1
 40
1
 40
1
 10
1048.487230
 20
955.587910
 30
0.0
 10
1048.487230
 20
955.834006
 30
0.0
 10
1048.466696
 20
956.073265
 30
0.0
 10
1048.425630
 20
956.305686
 30
0.0
  0
SPLINE
  5
350
100
AcDbEntity
  8
Layer_1
 62
6
100
AcDbSpline
 70
8
 71
3
 72
8
 73
4
 74
0
 40
0
 40
0
 40
0
 40
0
 40
1
 40
1
 40
1
 40
1
 10
1048.425630
 20
956.305686
 30
0.0
 10
1048.384563
 20
956.538108
 30
0.0
 10
1048.316216
 20
956.765972
 30
0.0
 10
1048.220590
 20
956.989278
 30
0.0
  0
SPLINE
  5
351
100
AcDbEntity
  8
Layer_1
 62
6
100
AcDbSpline
 70
8
 71
3
 72
8
 73
4
 74
0
 40
0
 40
0
 40
0
 40
0
 40
1
 40
1
 40
1
 40
1
 10
1048.220590
 20
956.989278
 30
0.0
 10
1048.129443
 20
957.212585
 30
0.0
 10
1047.992723
 20
957.392598
 30
0.0
 10
1047.810430
 20
957.529318
 30
0.0
  0
SPLINE
  5
352
100
AcDbEntity
  8
Layer_1
 62
6
100
AcDbSpline
 70
8
 71
3
 72
8
 73
4
 74
0
 40
0
 40
0
 40
0
 40
0
 40
1
 40
1
 40
1
 40
1
 10
1047.810430
 20
957.529318
 30
0.0
 10
1047.628136
 20
957.666038
 30
0.0
 10
1047.411656
 20
957.734398
 30
0.0
 10
1047.160990
 20
957.734398
 30
0.0
  0
SPLINE
  5
353
100
AcDbEntity
  8
Layer_1
 62
6
100
AcDbSpline
 70
8
 71
3
 72
8
 73
4
 74
0
 40
0
 40
0
 40
0
 40
0
 40
1
 40
1
 40
1
 40
1
 10
1047.160990
 20
957.734398
 30
0.0
 10
1046.855656
 20
957.734398
 30
0.0
 10
1046.536643
 20
957.561222
 30
0.0
 10
1046.203950
 20
957.214870
 30
0.0
  0
SPLINE
  5
354
100
AcDbEntity
  8
Layer_1
 62
6
100
AcDbSpline
 70
8
 71
3
 72
8
 73
4
 74
0
 40
0
 40
0
 40
0
 40
0
 40
1
 40
1
 40
1
 40
1
 10
1046.203950
 20
957.214870
 30
0.0
 10
1045.871256
 20
956.873073
 30
0.0
 10
1045.600110
 20
956.469750
 30
0.0
 10
1045.390510
 20
956.004902
 30
0.0
  0
SPLINE
  5
355
100
AcDbEntity
  8
Layer_1
 62
6
100
AcDbSpline
 70
8
 71
3
 72
8
 73
4
 74
0
 40
0
 40
0
 40
0
 40
0
 40
1
 40
1
 40
1
 40
1
 10
1045.390510
 20
956.004902
 30
0.0
 10
1045.180856
 20
955.540060
 30
0.0
 10
1045.076030
 20
955.127625
 30
0.0
 10
1045.076030
 20
954.767598
 30
0.0
  0
LWPOLYLINE
  5
356
100
AcDbEntity
  8
Layer_1
 62
6
100
AcDbPolyline
 90
4
 70
1
 10
1049.102510
 20
955.587910
 30
0.0
 10
1049.102510
 20
951.322286
 30
0.0
 10
1048.487230
 20
951.322286
 30
0.0
 10
1048.487230
 20
955.587910
 30
0.0
  0
SPLINE
  5
357
100
AcDbEntity
  8
Layer_1
 62
6
100
AcDbSpline
 70
8
 71
3
 72
8
 73
4
 74
0
 40
0
 40
0
 40
0
 40
0
 40
1
 40
1
 40
1
 40
1
 10
1044.460830
 20
955.601582
 30
0.0
 10
1044.460830
 20
955.852233
 30
0.0
 10
1044.440296
 20
956.093772
 30
0.0
 10
1044.399230
 20
956.326198
 30
0.0
  0
SPLINE
  5
358
100
AcDbEntity
  8
Layer_1
 62
6
100
AcDbSpline
 70
8
 71
3
 72
8
 73
4
 74
0
 40
0
 40
0
 40
0
 40
0
 40
1
 40
1
 40
1
 40
1
 10
1044.399230
 20
956.326198
 30
0.0
 10
1044.358163
 20
956.558620
 30
0.0
 10
1044.292083
 20
956.786484
 30
0.0
 10
1044.200990
 20
957.009790
 30
0.0
  0
SPLINE
  5
359
100
AcDbEntity
  8
Layer_1
 62
6
100
AcDbSpline
 70
8
 71
3
 72
8
 73
4
 74
0
 40
0
 40
0
 40
0
 40
0
 40
1
 40
1
 40
1
 40
1
 10
1044.200990
 20
957.009790
 30
0.0
 10
1044.109843
 20
957.233097
 30
0.0
 10
1043.970830
 20
957.410830
 30
0.0
 10
1043.783950
 20
957.542990
 30
0.0
  0
SPLINE
  5
35a
100
AcDbEntity
  8
Layer_1
 62
6
100
AcDbSpline
 70
8
 71
3
 72
8
 73
4
 74
0
 40
0
 40
0
 40
0
 40
0
 40
1
 40
1
 40
1
 40
1
 10
1043.783950
 20
957.542990
 30
0.0
 10
1043.601656
 20
957.679710
 30
0.0
 10
1043.382910
 20
957.748070
 30
0.0
 10
1043.127710
 20
957.748070
 30
0.0
  0
SPLINE
  5
35b
100
AcDbEntity
  8
Layer_1
 62
6
100
AcDbSpline
 70
8
 71
3
 72
8
 73
4
 74
0
 40
0
 40
0
 40
0
 40
0
 40
1
 40
1
 40
1
 40
1
 10
1043.127710
 20
957.748070
 30
0.0
 10
1042.845150
 20
957.748070
 30
0.0
 10
1042.539816
 20
957.584009
 30
0.0
 10
1042.211710
 20
957.255886
 30
0.0
  0
SPLINE
  5
35c
100
AcDbEntity
  8
Layer_1
 62
6
100
AcDbSpline
 70
8
 71
3
 72
8
 73
4
 74
0
 40
0
 40
0
 40
0
 40
0
 40
1
 40
1
 40
1
 40
1
 10
1042.211710
 20
957.255886
 30
0.0
 10
1041.888136
 20
956.927758
 30
0.0
 10
1041.619256
 20
956.531273
 30
0.0
 10
1041.405070
 20
956.066430
 30
0.0
  0
SPLINE
  5
35d
100
AcDbEntity
  8
Layer_1
 62
6
100
AcDbSpline
 70
8
 71
3
 72
8
 73
4
 74
0
 40
0
 40
0
 40
0
 40
0
 40
1
 40
1
 40
1
 40
1
 10
1041.405070
 20
956.066430
 30
0.0
 10
1041.190883
 20
955.601588
 30
0.0
 10
1041.083790
 20
955.177758
 30
0.0
 10
1041.083790
 20
954.794942
 30
0.0
  0
LWPOLYLINE
  5
35e
100
AcDbEntity
  8
Layer_1
 62
6
100
AcDbPolyline
 90
4
 70
1
 10
1045.076030
 20
954.767598
 30
0.0
 10
1045.076030
 20
951.322286
 30
0.0
 10
1044.460830
 20
951.322286
 30
0.0
 10
1044.460830
 20
955.601582
 30
0.0
  0
SPLINE
  5
35f
100
AcDbEntity
  8
Layer_1
 62
6
100
AcDbSpline
 70
8
 71
3
 72
8
 73
4
 74
0
 40
0
 40
0
 40
0
 40
0
 40
1
 40
1
 40
1
 40
1
 10
1040.468510
 20
957.337910
 30
0.0
 10
1040.468510
 20
957.729841
 30
0.0
 10
1040.411550
 20
958.035180
 30
0.0
 10
1040.297630
 20
958.253926
 30
0.0
  0
LWPOLYLINE
  5
360
100
AcDbEntity
  8
Layer_1
 62
6
100
AcDbPolyline
 90
4
 70
1
 10
1041.083790
 20
954.794942
 30
0.0
 10
1041.083790
 20
951.322286
 30
0.0
 10
1040.468510
 20
951.322286
 30
0.0
 10
1040.468510
 20
957.337910
 30
0.0
  0
LWPOLYLINE
  5
361
100
AcDbEntity
  8
Layer_1
 62
6
100
AcDbPolyline
 90
2
 70
1
 10
1040.297630
 20
958.253926
 30
0.0
 10
1040.297790
 20
958.253926
 30
0.0
  0
SPLINE
  5
362
100
AcDbEntity
  8
Layer_1
 62
6
100
AcDbSpline
 70
8
 71
3
 72
8
 73
4
 74
0
 40
0
 40
0
 40
0
 40
0
 40
1
 40
1
 40
1
 40
1
 10
1051.166910
 20
962.082054
 30
0.0
 10
1052.215123
 20
960.099633
 30
0.0
 10
1052.739230
 20
958.069358
 30
0.0
 10
1052.739230
 20
955.991230
 30
0.0
  0
SPLINE
  5
363
100
AcDbEntity
  8
Layer_1
 62
6
100
AcDbSpline
 70
8
 71
3
 72
8
 73
4
 74
0
 40
0
 40
0
 40
0
 40
0
 40
1
 40
1
 40
1
 40
1
 10
1052.739230
 20
955.991230
 30
0.0
 10
1052.739230
 20
953.876649
 30
0.0
 10
1052.203736
 20
951.707380
 30
0.0
 10
1051.132750
 20
949.483422
 30
0.0
  0
LWPOLYLINE
  5
364
100
AcDbEntity
  8
Layer_1
 62
6
100
AcDbPolyline
 90
2
 70
1
 10
1050.702110
 20
962.082054
 30
0.0
 10
1051.166910
 20
962.082054
 30
0.0
  0
SPLINE
  5
365
100
AcDbEntity
  8
Layer_1
 62
6
100
AcDbSpline
 70
8
 71
3
 72
8
 73
4
 74
0
 40
0
 40
0
 40
0
 40
0
 40
1
 40
1
 40
1
 40
1
 10
1050.654270
 20
949.483422
 30
0.0
 10
1051.588510
 20
951.652692
 30
0.0
 10
1052.055630
 20
953.790062
 30
0.0
 10
1052.055630
 20
955.895534
 30
0.0
  0
SPLINE
  5
366
100
AcDbEntity
  8
Layer_1
 62
6
100
AcDbSpline
 70
8
 71
3
 72
8
 73
4
 74
0
 40
0
 40
0
 40
0
 40
0
 40
1
 40
1
 40
1
 40
1
 10
1052.055630
 20
955.895534
 30
0.0
 10
1052.055630
 20
957.964542
 30
0.0
 10
1051.604456
 20
960.026716
 30
0.0
 10
1050.702110
 20
962.082054
 30
0.0
  0
LWPOLYLINE
  5
367
100
AcDbEntity
  8
Layer_1
 62
6
100
AcDbPolyline
 90
2
 70
1
 10
1051.132750
 20
949.483422
 30
0.0
 10
1050.654270
 20
949.483422
 30
0.0
  0
LWPOLYLINE
  5
368
100
AcDbEntity
  8
Layer_1
 62
6
100
AcDbPolyline
 90
2
 70
1
 10
1050.702110
 20
962.082054
 30
0.0
 10
1050.702110
 20
962.082054
 30
0.0
  0
SPLINE
  5
369
100
AcDbEntity
  8
Layer_1
 62
3
100
AcDbSpline
 70
8
 71
3
 72
8
 73
4
 74
0
 40
0
 40
0
 40
0
 40
0
 40
1
 40
1
 40
1
 40
1
 10
906.293230
 20
908.517966
 30
0.0
 10
906.293232
 20
905.386906
 30
0.0
 10
903.755010
 20
902.848678
 30
0.0
 10
900.623950
 20
902.848670
 30
0.0
  0
SPLINE
  5
36a
100
AcDbEntity
  8
Layer_1
 62
3
100
AcDbSpline
 70
8
 71
3
 72
8
 73
4
 74
0
 40
0
 40
0
 40
0
 40
0
 40
1
 40
1
 40
1
 40
1
 10
900.623950
 20
902.848670
 30
0.0
 10
897.492889
 20
902.848678
 30
0.0
 10
894.954667
 20
905.386906
 30
0.0
 10
894.954670
 20
908.517966
 30
0.0
  0
SPLINE
  5
36b
100
AcDbEntity
  8
Layer_1
 62
3
100
AcDbSpline
 70
8
 71
3
 72
8
 73
4
 74
0
 40
0
 40
0
 40
0
 40
0
 40
1
 40
1
 40
1
 40
1
 10
894.954670
 20
908.517966
 30
0.0
 10
894.954672
 20
911.649023
 30
0.0
 10
897.492892
 20
914.187247
 30
0.0
 10
900.623950
 20
914.187254
 30
0.0
  0
SPLINE
  5
36c
100
AcDbEntity
  8
Layer_1
 62
3
100
AcDbSpline
 70
8
 71
3
 72
8
 73
4
 74
0
 40
0
 40
0
 40
0
 40
0
 40
1
 40
1
 40
1
 40
1
 10
900.623950
 20
914.187254
 30
0.0
 10
903.755007
 20
914.187247
 30
0.0
 10
906.293228
 20
911.649023
 30
0.0
 10
906.293230
 20
908.517966
 30
0.0
  0
LWPOLYLINE
  5
36d
100
AcDbEntity
  8
Layer_1
 62
5
100
AcDbPolyline
 90
5
 70
1
 10
818.419230
 20
929.777822
 30
0.0
 10
1654.639870
 20
929.777822
 30
0.0
 10
1654.639870
 20
887.258142
 30
0.0
 10
818.419230
 20
887.258142
 30
0.0
 10
818.419230
 20
929.777822
 30
0.0
  0
SPLINE
  5
36e
100
AcDbEntity
  8
Layer_1
 62
3
100
AcDbSpline
 70
8
 71
3
 72
8
 73
4
 74
0
 40
0
 40
0
 40
0
 40
0
 40
1
 40
1
 40
1
 40
1
 10
1578.104430
 20
908.517966
 30
0.0
 10
1578.104432
 20
905.386906
 30
0.0
 10
1575.566210
 20
902.848678
 30
0.0
 10
1572.435150
 20
902.848670
 30
0.0
  0
SPLINE
  5
36f
100
AcDbEntity
  8
Layer_1
 62
3
100
AcDbSpline
 70
8
 71
3
 72
8
 73
4
 74
0
 40
0
 40
0
 40
0
 40
0
 40
1
 40
1
 40
1
 40
1
 10
1572.435150
 20
902.848670
 30
0.0
 10
1570.931547
 20
902.848653
 30
0.0
 10
1569.489523
 20
903.445944
 30
0.0
 10
1568.426309
 20
904.509145
 30
0.0
  0
SPLINE
  5
370
100
AcDbEntity
  8
Layer_1
 62
3
100
AcDbSpline
 70
8
 71
3
 72
8
 73
4
 74
0
 40
0
 40
0
 40
0
 40
0
 40
1
 40
1
 40
1
 40
1
 10
1568.426309
 20
904.509145
 30
0.0
 10
1567.363096
 20
905.572347
 30
0.0
 10
1566.765789
 20
907.014364
 30
0.0
 10
1566.765790
 20
908.517966
 30
0.0
  0
SPLINE
  5
371
100
AcDbEntity
  8
Layer_1
 62
3
100
AcDbSpline
 70
8
 71
3
 72
8
 73
4
 74
0
 40
0
 40
0
 40
0
 40
0
 40
1
 40
1
 40
1
 40
1
 10
1566.765790
 20
908.517966
 30
0.0
 10
1566.765791
 20
910.021567
 30
0.0
 10
1567.363099
 20
911.463583
 30
0.0
 10
1568.426312
 20
912.526782
 30
0.0
  0
SPLINE
  5
372
100
AcDbEntity
  8
Layer_1
 62
3
100
AcDbSpline
 70
8
 71
3
 72
8
 73
4
 74
0
 40
0
 40
0
 40
0
 40
0
 40
1
 40
1
 40
1
 40
1
 10
1568.426312
 20
912.526782
 30
0.0
 10
1569.489525
 20
913.589982
 30
0.0
 10
1570.931549
 20
914.187272
 30
0.0
 10
1572.435150
 20
914.187254
 30
0.0
  0
SPLINE
  5
373
100
AcDbEntity
  8
Layer_1
 62
3
100
AcDbSpline
 70
8
 71
3
 72
8
 73
4
 74
0
 40
0
 40
0
 40
0
 40
0
 40
1
 40
1
 40
1
 40
1
 10
1572.435150
 20
914.187254
 30
0.0
 10
1575.566207
 20
914.187247
 30
0.0
 10
1578.104428
 20
911.649023
 30
0.0
 10
1578.104430
 20
908.517966
 30
0.0
  0
LWPOLYLINE
  5
374
100
AcDbEntity
  8
Layer_1
 62
3
100
AcDbPolyline
 90
2
 70
1
 10
906.293230
 20
908.517966
 30
0.0
 10
906.293230
 20
908.517966
 30
0.0
  0
LWPOLYLINE
  5
375
100
AcDbEntity
  8
Layer_1
 62
3
100
AcDbPolyline
 90
2
 70
1
 10
1578.104430
 20
908.517966
 30
0.0
 10
1578.104430
 20
908.517966
 30
0.0
  0
SPLINE
  5
376
100
AcDbEntity
  8
Layer_1
 62
3
100
AcDbSpline
 70
8
 71
3
 72
8
 73
4
 74
0
 40
0
 40
0
 40
0
 40
0
 40
1
 40
1
 40
1
 40
1
 10
906.376990
 20
1048.053414
 30
0.0
 10
906.376992
 20
1044.922354
 30
0.0
 10
903.838770
 20
1042.384126
 30
0.0
 10
900.707710
 20
1042.384118
 30
0.0
  0
SPLINE
  5
377
100
AcDbEntity
  8
Layer_1
 62
3
100
AcDbSpline
 70
8
 71
3
 72
8
 73
4
 74
0
 40
0
 40
0
 40
0
 40
0
 40
1
 40
1
 40
1
 40
1
 10
900.707710
 20
1042.384118
 30
0.0
 10
897.576649
 20
1042.384126
 30
0.0
 10
895.038427
 20
1044.922354
 30
0.0
 10
895.038430
 20
1048.053414
 30
0.0
  0
SPLINE
  5
378
100
AcDbEntity
  8
Layer_1
 62
3
100
AcDbSpline
 70
8
 71
3
 72
8
 73
4
 74
0
 40
0
 40
0
 40
0
 40
0
 40
1
 40
1
 40
1
 40
1
 10
895.038430
 20
1048.053414
 30
0.0
 10
895.038432
 20
1051.184471
 30
0.0
 10
897.576652
 20
1053.722695
 30
0.0
 10
900.707710
 20
1053.722702
 30
0.0
  0
SPLINE
  5
379
100
AcDbEntity
  8
Layer_1
 62
3
100
AcDbSpline
 70
8
 71
3
 72
8
 73
4
 74
0
 40
0
 40
0
 40
0
 40
0
 40
1
 40
1
 40
1
 40
1
 10
900.707710
 20
1053.722702
 30
0.0
 10
903.838767
 20
1053.722695
 30
0.0
 10
906.376988
 20
1051.184471
 30
0.0
 10
906.376990
 20
1048.053414
 30
0.0
  0
LWPOLYLINE
  5
37a
100
AcDbEntity
  8
Layer_1
 62
5
100
AcDbPolyline
 90
5
 70
1
 10
818.502990
 20
1069.313278
 30
0.0
 10
1654.723630
 20
1069.313278
 30
0.0
 10
1654.723630
 20
1026.793590
 30
0.0
 10
818.502990
 20
1026.793590
 30
0.0
 10
818.502990
 20
1069.313278
 30
0.0
  0
SPLINE
  5
37b
100
AcDbEntity
  8
Layer_1
 62
3
100
AcDbSpline
 70
8
 71
3
 72
8
 73
4
 74
0
 40
0
 40
0
 40
0
 40
0
 40
1
 40
1
 40
1
 40
1
 10
1578.188110
 20
1048.053414
 30
0.0
 10
1578.188112
 20
1044.922354
 30
0.0
 10
1575.649890
 20
1042.384126
 30
0.0
 10
1572.518830
 20
1042.384118
 30
0.0
  0
SPLINE
  5
37c
100
AcDbEntity
  8
Layer_1
 62
3
100
AcDbSpline
 70
8
 71
3
 72
8
 73
4
 74
0
 40
0
 40
0
 40
0
 40
0
 40
1
 40
1
 40
1
 40
1
 10
1572.518830
 20
1042.384118
 30
0.0
 10
1569.387769
 20
1042.384126
 30
0.0
 10
1566.849547
 20
1044.922354
 30
0.0
 10
1566.849550
 20
1048.053414
 30
0.0
  0
SPLINE
  5
37d
100
AcDbEntity
  8
Layer_1
 62
3
100
AcDbSpline
 70
8
 71
3
 72
8
 73
4
 74
0
 40
0
 40
0
 40
0
 40
0
 40
1
 40
1
 40
1
 40
1
 10
1566.849550
 20
1048.053414
 30
0.0
 10
1566.849552
 20
1051.184471
 30
0.0
 10
1569.387772
 20
1053.722695
 30
0.0
 10
1572.518830
 20
1053.722702
 30
0.0
  0
SPLINE
  5
37e
100
AcDbEntity
  8
Layer_1
 62
3
100
AcDbSpline
 70
8
 71
3
 72
8
 73
4
 74
0
 40
0
 40
0
 40
0
 40
0
 40
1
 40
1
 40
1
 40
1
 10
1572.518830
 20
1053.722702
 30
0.0
 10
1575.649887
 20
1053.722695
 30
0.0
 10
1578.188108
 20
1051.184471
 30
0.0
 10
1578.188110
 20
1048.053414
 30
0.0
  0
LWPOLYLINE
  5
37f
100
AcDbEntity
  8
Layer_1
 62
3
100
AcDbPolyline
 90
2
 70
1
 10
906.376990
 20
1048.053414
 30
0.0
 10
906.376990
 20
1048.053414
 30
0.0
  0
LWPOLYLINE
  5
380
100
AcDbEntity
  8
Layer_1
 62
3
100
AcDbPolyline
 90
2
 70
1
 10
1578.188110
 20
1048.053414
 30
0.0
 10
1578.188110
 20
1048.053414
 30
0.0
  0
ENDSEC
  0
SECTION
  2
OBJECTS
  0
DICTIONARY
  5
C
330
0
100
AcDbDictionary
  3
ACAD_GROUP
350
D
  3
ACAD_MLINESTYLE
350
17
  0
DICTIONARY
  5
D
330
C
100
AcDbDictionary
  0
DICTIONARY
  5
1A
330
C
100
AcDbDictionary
  0
DICTIONARY
  5
17
330
C
100
AcDbDictionary
  3
STANDARD
350
18
  0
DICTIONARY
  5
19
330
C
100
AcDbDictionary
  0
ENDSEC
  0
EOF
