  0
SECTION
  2
HEADER
  9
$ACADVER
  1
AC1014
  9
$HANDSEED
  5
FFFF
  9
$MEASUREMENT
 70
     1
  0
ENDSEC
  0
SECTION
  2
TABLES
  0
TABLE
  2
VPORT
  5
8
330
0
100
AcDbSymbolTable
 70
     4
  0
VPORT
  5
2E
330
8
100
AcDbSymbolTableRecord
100
AcDbViewportTableRecord
  2
*ACTIVE
 70
     0
 10
0.0
 20
0.0
 11
1.0
 21
1.0
 12
210.0
 22
148.5
 13
0.0
 23
0.0
 14
10.0
 24
10.0
 15
10.0
 25
10.0
 16
0.0
 26
0.0
 36
1.0
 17
0.0
 27
0.0
 37
0.0
 40
341.0
 41
1.24
 42
50.0
 43
0.0
 44
0.0
 50
0.0
 51
0.0
 71
     0
 72
   100
 73
     1
 74
     3
 75
     0
 76
     0
 77
     0
 78
     0
  0
ENDTAB
  0
TABLE
  2
LTYPE
  5
5
330
0
100
AcDbSymbolTable
 70
     1
  0
LTYPE
  5
14
330
5
100
AcDbSymbolTableRecord
100
AcDbLinetypeTableRecord
  2
BYBLOCK
 70
     0
  3

 72
    65
 73
     0
 40
0.0
  0
LTYPE
  5
15
330
5
100
AcDbSymbolTableRecord
100
AcDbLinetypeTableRecord
  2
BYLAYER
 70
     0
  3

 72
    65
 73
     0
 40
0.0
  0
LTYPE
  5
16
330
5
100
AcDbSymbolTableRecord
100
AcDbLinetypeTableRecord
  2
CONTINUOUS
 70
     0
  3
Solid line
 72
    65
 73
     0
 40
0.0
  0
ENDTAB
  0
TABLE
  2
LAYER
  5
2
100
AcDbSymbolTable
 70
2
  0
LAYER
  5
50
100
AcDbSymbolTableRecord
100
AcDbLayerTableRecord
  2
0
 70
0
  6
CONTINUOUS
  0
LAYER
  5
51
100
AcDbSymbolTableRecord
100
AcDbLayerTableRecord
  2
Layer_1
 70
0
  6
CONTINUOUS
  0
ENDTAB
  0
TABLE
  2
STYLE
  5
3
330
0
100
AcDbSymbolTable
 70
     1
  0
STYLE
  5
11
330
3
100
AcDbSymbolTableRecord
100
AcDbTextStyleTableRecord
  2
STANDARD
 70
     0
 40
0.0
 41
1.0
 50
0.0
 71
     0
 42
2.5
  3
txt
  4

  0
ENDTAB
  0
TABLE
  2
VIEW
  5
6
330
0
100
AcDbSymbolTable
 70
     0
  0
ENDTAB
  0
TABLE
  2
UCS
  5
7
330
0
100
AcDbSymbolTable
 70
     0
  0
ENDTAB
  0
TABLE
  2
APPID
  5
9
330
0
100
AcDbSymbolTable
 70
     2
  0
APPID
  5
12
330
9
100
AcDbSymbolTableRecord
100
AcDbRegAppTableRecord
  2
ACAD
 70
     0
  0
ENDTAB
  0
TABLE
  2
DIMSTYLE
  5
A
330
0
100
AcDbSymbolTable
 70
     1
  0
DIMSTYLE
105
27
330
A
100
AcDbSymbolTableRecord
100
AcDbDimStyleTableRecord
  2
ISO-25
 70
     0
  3

  4

  5

  6

  7

 40
1.0
 41
2.5
 42
0.625
 43
3.75
 44
1.25
 45
0.0
 46
0.0
 47
0.0
 48
0.0
140
2.5
141
2.5
142
0.0
143
0.03937007874016
144
1.0
145
0.0
146
1.0
147
0.625
 71
     0
 72
     0
 73
     0
 74
     0
 75
     0
 76
     0
 77
     1
 78
     8
170
     0
171
     3
172
     1
173
     0
174
     0
175
     0
176
     0
177
     0
178
     0
270
     2
271
     2
272
     2
273
     2
274
     3
340
11
275
     0
280
     0
281
     0
282
     0
283
     0
284
     8
285
     0
286
     0
287
     3
288
     0
  0
ENDTAB
  0
TABLE
  2
BLOCK_RECORD
  5
1
330
0
100
AcDbSymbolTable
 70
     1
  0
BLOCK_RECORD
  5
1F
330
1
100
AcDbSymbolTableRecord
100
AcDbBlockTableRecord
  2
*MODEL_SPACE
  0
BLOCK_RECORD
  5
1B
330
1
100
AcDbSymbolTableRecord
100
AcDbBlockTableRecord
  2
*PAPER_SPACE
  0
ENDTAB
  0
ENDSEC
  0
SECTION
  2
BLOCKS
  0
BLOCK
  5
20
330
1F
100
AcDbEntity
  8
0
100
AcDbBlockBegin
  2
*MODEL_SPACE
 70
     0
 10
0.0
 20
0.0
 30
0.0
  3
*MODEL_SPACE
  1

  0
ENDBLK
  5
21
330
1F
100
AcDbEntity
  8
0
100
AcDbBlockEnd
  0
BLOCK
  5
1C
330
1B
100
AcDbEntity
 67
     1
  8
0
100
AcDbBlockBegin
  2
*PAPER_SPACE
  1

  0
ENDBLK
  5
1D
330
1B
100
AcDbEntity
 67
     1
  8
0
100
AcDbBlockEnd
  0
ENDSEC
  0
SECTION
  2
ENTITIES
  0
LWPOLYLINE
  5
100
100
AcDbEntity
  8
Layer_1
 62
5
100
AcDbPolyline
 90
18
 70
1
 10
475.779576
 20
777.392810
 30
0.0
 10
503.455416
 20
763.047554
 30
0.0
 10
502.800448
 20
760.310388
 30
0.0
 10
487.722608
 20
764.953634
 30
0.0
 10
487.261872
 20
762.320354
 30
0.0
 10
502.502328
 20
759.194748
 30
0.0
 10
502.271952
 20
756.660828
 30
0.0
 10
470.413344
 20
757.550636
 30
0.0
 10
470.512720
 20
753.399716
 30
0.0
 10
501.942216
 20
754.718620
 30
0.0
 10
501.811224
 20
752.442164
 30
0.0
 10
487.130872
 20
749.985036
 30
0.0
 10
487.225728
 20
746.362580
 30
0.0
 10
502.434568
 20
751.100676
 30
0.0
 10
502.832072
 20
749.059092
 30
0.0
 10
475.449832
 20
734.510548
 30
0.0
 10
477.654144
 20
730.856476
 30
0.0
 10
503.880016
 20
747.378852
 30
0.0
  0
LWPOLYLINE
  5
101
100
AcDbEntity
  8
Layer_1
 62
5
100
AcDbPolyline
 90
82
 70
1
 10
493.608296
 20
735.034500
 30
0.0
 10
496.178480
 20
732.934196
 30
0.0
 10
506.712192
 20
744.289380
 30
0.0
 10
508.722272
 20
743.069844
 30
0.0
 10
491.968608
 20
717.202252
 30
0.0
 10
495.487384
 20
714.867076
 30
0.0
 10
510.239992
 20
742.049052
 30
0.0
 10
512.141664
 20
741.258620
 30
0.0
 10
507.570424
 20
726.714588
 30
0.0
 10
510.497464
 20
725.924156
 30
0.0
 10
513.989128
 20
740.734668
 30
0.0
 10
515.958552
 20
740.630788
 30
0.0
 10
511.437192
 20
90.128444
 30
0.0
 10
29.205462
 20
90.399364
 30
0.0
 10
29.857830
 20
11.102884
 30
0.0
 10
578.550280
 20
10.987444
 30
0.0
 10
578.388736
 20
90.132364
 30
0.0
 10
518.353888
 20
89.867084
 30
0.0
 10
518.298368
 20
740.734660
 30
0.0
 10
520.240688
 20
740.996636
 30
0.0
 10
523.660080
 20
726.023508
 30
0.0
 10
526.325128
 20
726.845564
 30
0.0
 10
521.853272
 20
741.457348
 30
0.0
 10
524.156952
 20
742.148412
 30
0.0
 10
538.602416
 20
715.196788
 30
0.0
 10
542.356072
 20
717.039636
 30
0.0
 10
525.308800
 20
743.300196
 30
0.0
 10
527.115608
 20
744.519724
 30
0.0
 10
537.911312
 20
733.196164
 30
0.0
 10
540.282752
 20
735.237748
 30
0.0
 10
528.628816
 20
745.802492
 30
0.0
 10
529.947784
 20
747.017500
 30
0.0
 10
556.376928
 20
730.991964
 30
0.0
 10
558.545104
 20
734.745412
 30
0.0
 10
531.235144
 20
748.733876
 30
0.0
 10
531.759120
 20
750.901932
 30
0.0
 10
546.827928
 20
746.394188
 30
0.0
 10
547.586792
 20
749.090708
 30
0.0
 10
532.219856
 20
752.514420
 30
0.0
 10
532.219856
 20
754.817980
 30
0.0
 10
563.780344
 20
753.435844
 30
0.0
 10
563.748744
 20
757.451260
 30
0.0
 10
532.387008
 20
756.597588
 30
0.0
 10
531.989504
 20
758.964380
 30
0.0
 10
547.126072
 20
762.351962
 30
0.0
 10
546.565960
 20
764.922010
 30
0.0
 10
531.465528
 20
760.482020
 30
0.0
 10
530.638912
 20
762.781058
 30
0.0
 10
558.147624
 20
777.225690
 30
0.0
 10
556.309192
 20
780.324250
 30
0.0
 10
529.821328
 20
764.000586
 30
0.0
 10
527.842872
 20
765.875050
 30
0.0
 10
539.659424
 20
776.638570
 30
0.0
 10
538.046840
 20
778.083930
 30
0.0
 10
527.056912
 20
766.864226
 30
0.0
 10
525.114584
 20
768.309594
 30
0.0
 10
541.895352
 20
794.899850
 30
0.0
 10
538.670192
 20
796.973050
 30
0.0
 10
523.962744
 20
769.434250
 30
0.0
 10
521.889424
 20
770.125370
 30
0.0
 10
526.298048
 20
785.161690
 30
0.0
 10
523.696240
 20
785.916010
 30
0.0
 10
520.240712
 20
770.712490
 30
0.0
 10
518.167400
 20
770.942890
 30
0.0
 10
518.628128
 20
802.271290
 30
0.0
 10
514.942232
 20
802.501610
 30
0.0
 10
515.863712
 20
770.942890
 30
0.0
 10
513.659400
 20
770.744170
 30
0.0
 10
510.565232
 20
785.947610
 30
0.0
 10
507.665296
 20
785.292650
 30
0.0
 10
512.245568
 20
770.315050
 30
0.0
 10
509.774752
 20
769.235530
 30
0.0
 10
495.595800
 20
797.203450
 30
0.0
 10
492.171896
 20
794.832090
 30
0.0
 10
508.523536
 20
768.512890
 30
0.0
 10
507.109704
 20
766.796474
 30
0.0
 10
496.318528
 20
778.481370
 30
0.0
 10
494.475576
 20
776.570810
 30
0.0
 10
505.795256
 20
766.240914
 30
0.0
 10
504.146544
 20
764.167706
 30
0.0
 10
477.852912
 20
780.617850
 30
0.0
 10
475.779576
 20
777.392810
 30
0.0
  0
LWPOLYLINE
  5
102
100
AcDbEntity
  8
Layer_1
 62
7
100
AcDbPolyline
 90
2
 70
0
 10
33.673089
 20
26.195274
 30
0.0
 10
33.673089
 20
18.224671
 30
0.0
  0
LWPOLYLINE
  5
103
100
AcDbEntity
  8
Layer_1
 62
7
100
AcDbPolyline
 90
7
 70
0
 10
33.673089
 20
22.020196
 30
0.0
 10
34.811746
 20
23.158854
 30
0.0
 10
35.570851
 20
23.538407
 30
0.0
 10
36.709509
 20
23.538407
 30
0.0
 10
37.468614
 20
23.158854
 30
0.0
 10
37.848167
 20
22.020196
 30
0.0
 10
37.848167
 20
18.224671
 30
0.0
  0
LWPOLYLINE
  5
104
100
AcDbEntity
  8
Layer_1
 62
7
100
AcDbPolyline
 90
5
 70
0
 10
41.264140
 20
26.195274
 30
0.0
 10
41.264140
 20
19.742881
 30
0.0
 10
41.643692
 20
18.604223
 30
0.0
 10
42.402798
 20
18.224671
 30
0.0
 10
43.161903
 20
18.224671
 30
0.0
  0
LWPOLYLINE
  5
105
100
AcDbEntity
  8
Layer_1
 62
7
100
AcDbPolyline
 90
2
 70
0
 10
40.125482
 20
23.538407
 30
0.0
 10
42.782350
 20
23.538407
 30
0.0
  0
LWPOLYLINE
  5
106
100
AcDbEntity
  8
Layer_1
 62
7
100
AcDbPolyline
 90
5
 70
0
 10
45.818771
 20
26.195274
 30
0.0
 10
45.818771
 20
19.742881
 30
0.0
 10
46.198323
 20
18.604223
 30
0.0
 10
46.957428
 20
18.224671
 30
0.0
 10
47.716533
 20
18.224671
 30
0.0
  0
LWPOLYLINE
  5
107
100
AcDbEntity
  8
Layer_1
 62
7
100
AcDbPolyline
 90
2
 70
0
 10
44.680113
 20
23.538407
 30
0.0
 10
47.336981
 20
23.538407
 30
0.0
  0
LWPOLYLINE
  5
108
100
AcDbEntity
  8
Layer_1
 62
7
100
AcDbPolyline
 90
2
 70
0
 10
49.993849
 20
23.538407
 30
0.0
 10
49.993849
 20
15.567803
 30
0.0
  0
LWPOLYLINE
  5
109
100
AcDbEntity
  8
Layer_1
 62
7
100
AcDbPolyline
 90
14
 70
0
 10
49.993849
 20
22.399749
 30
0.0
 10
50.752954
 20
23.158854
 30
0.0
 10
51.512059
 20
23.538407
 30
0.0
 10
52.650717
 20
23.538407
 30
0.0
 10
53.409822
 20
23.158854
 30
0.0
 10
54.168927
 20
22.399749
 30
0.0
 10
54.548479
 20
21.261091
 30
0.0
 10
54.548479
 20
20.501986
 30
0.0
 10
54.168927
 20
19.363328
 30
0.0
 10
53.409822
 20
18.604223
 30
0.0
 10
52.650717
 20
18.224671
 30
0.0
 10
51.512059
 20
18.224671
 30
0.0
 10
50.752954
 20
18.604223
 30
0.0
 10
49.993849
 20
19.363328
 30
0.0
  0
LWPOLYLINE
  5
10a
100
AcDbEntity
  8
Layer_1
 62
7
100
AcDbPolyline
 90
17
 70
0
 10
61.000873
 20
22.399749
 30
0.0
 10
60.621320
 20
23.158854
 30
0.0
 10
59.482663
 20
23.538407
 30
0.0
 10
58.344005
 20
23.538407
 30
0.0
 10
57.205347
 20
23.158854
 30
0.0
 10
56.825795
 20
22.399749
 30
0.0
 10
57.205347
 20
21.640644
 30
0.0
 10
57.964452
 20
21.261091
 30
0.0
 10
59.862215
 20
20.881539
 30
0.0
 10
60.621320
 20
20.501986
 30
0.0
 10
61.000873
 20
19.742881
 30
0.0
 10
61.000873
 20
19.363328
 30
0.0
 10
60.621320
 20
18.604223
 30
0.0
 10
59.482663
 20
18.224671
 30
0.0
 10
58.344005
 20
18.224671
 30
0.0
 10
57.205347
 20
18.604223
 30
0.0
 10
56.825795
 20
19.363328
 30
0.0
  0
LWPOLYLINE
  5
10b
100
AcDbEntity
  8
Layer_1
 62
7
100
AcDbPolyline
 90
5
 70
0
 10
63.657741
 20
22.779301
 30
0.0
 10
63.278188
 20
22.399749
 30
0.0
 10
63.657741
 20
22.020196
 30
0.0
 10
64.037293
 20
22.399749
 30
0.0
 10
63.657741
 20
22.779301
 30
0.0
  0
LWPOLYLINE
  5
10c
100
AcDbEntity
  8
Layer_1
 62
7
100
AcDbPolyline
 90
5
 70
0
 10
63.657741
 20
20.122434
 30
0.0
 10
63.278188
 20
19.742881
 30
0.0
 10
63.657741
 20
19.363328
 30
0.0
 10
64.037293
 20
19.742881
 30
0.0
 10
63.657741
 20
20.122434
 30
0.0
  0
LWPOLYLINE
  5
10d
100
AcDbEntity
  8
Layer_1
 62
7
100
AcDbPolyline
 90
2
 70
0
 10
72.767002
 20
27.713485
 30
0.0
 10
65.935056
 20
15.567803
 30
0.0
  0
LWPOLYLINE
  5
10e
100
AcDbEntity
  8
Layer_1
 62
7
100
AcDbPolyline
 90
2
 70
0
 10
81.117159
 20
27.713485
 30
0.0
 10
74.285213
 20
15.567803
 30
0.0
  0
LWPOLYLINE
  5
10f
100
AcDbEntity
  8
Layer_1
 62
7
100
AcDbPolyline
 90
2
 70
0
 10
83.014921
 20
23.538407
 30
0.0
 10
84.533132
 20
18.224671
 30
0.0
  0
LWPOLYLINE
  5
110
100
AcDbEntity
  8
Layer_1
 62
7
100
AcDbPolyline
 90
2
 70
0
 10
86.051342
 20
23.538407
 30
0.0
 10
84.533132
 20
18.224671
 30
0.0
  0
LWPOLYLINE
  5
111
100
AcDbEntity
  8
Layer_1
 62
7
100
AcDbPolyline
 90
2
 70
0
 10
86.051342
 20
23.538407
 30
0.0
 10
87.569552
 20
18.224671
 30
0.0
  0
LWPOLYLINE
  5
112
100
AcDbEntity
  8
Layer_1
 62
7
100
AcDbPolyline
 90
2
 70
0
 10
89.087762
 20
23.538407
 30
0.0
 10
87.569552
 20
18.224671
 30
0.0
  0
LWPOLYLINE
  5
113
100
AcDbEntity
  8
Layer_1
 62
7
100
AcDbPolyline
 90
2
 70
0
 10
91.365078
 20
23.538407
 30
0.0
 10
92.883288
 20
18.224671
 30
0.0
  0
LWPOLYLINE
  5
114
100
AcDbEntity
  8
Layer_1
 62
7
100
AcDbPolyline
 90
2
 70
0
 10
94.401498
 20
23.538407
 30
0.0
 10
92.883288
 20
18.224671
 30
0.0
  0
LWPOLYLINE
  5
115
100
AcDbEntity
  8
Layer_1
 62
7
100
AcDbPolyline
 90
2
 70
0
 10
94.401498
 20
23.538407
 30
0.0
 10
95.919708
 20
18.224671
 30
0.0
  0
LWPOLYLINE
  5
116
100
AcDbEntity
  8
Layer_1
 62
7
100
AcDbPolyline
 90
2
 70
0
 10
97.437919
 20
23.538407
 30
0.0
 10
95.919708
 20
18.224671
 30
0.0
  0
LWPOLYLINE
  5
117
100
AcDbEntity
  8
Layer_1
 62
7
100
AcDbPolyline
 90
2
 70
0
 10
99.715234
 20
23.538407
 30
0.0
 10
101.233444
 20
18.224671
 30
0.0
  0
LWPOLYLINE
  5
118
100
AcDbEntity
  8
Layer_1
 62
7
100
AcDbPolyline
 90
2
 70
0
 10
102.751655
 20
23.538407
 30
0.0
 10
101.233444
 20
18.224671
 30
0.0
  0
LWPOLYLINE
  5
119
100
AcDbEntity
  8
Layer_1
 62
7
100
AcDbPolyline
 90
2
 70
0
 10
102.751655
 20
23.538407
 30
0.0
 10
104.269865
 20
18.224671
 30
0.0
  0
LWPOLYLINE
  5
11a
100
AcDbEntity
  8
Layer_1
 62
7
100
AcDbPolyline
 90
2
 70
0
 10
105.788075
 20
23.538407
 30
0.0
 10
104.269865
 20
18.224671
 30
0.0
  0
LWPOLYLINE
  5
11b
100
AcDbEntity
  8
Layer_1
 62
7
100
AcDbPolyline
 90
5
 70
0
 10
108.444943
 20
20.122434
 30
0.0
 10
108.065390
 20
19.742881
 30
0.0
 10
108.444943
 20
19.363328
 30
0.0
 10
108.824496
 20
19.742881
 30
0.0
 10
108.444943
 20
20.122434
 30
0.0
  0
LWPOLYLINE
  5
11c
100
AcDbEntity
  8
Layer_1
 62
7
100
AcDbPolyline
 90
17
 70
0
 10
111.101811
 20
21.261091
 30
0.0
 10
115.656442
 20
21.261091
 30
0.0
 10
115.656442
 20
22.020196
 30
0.0
 10
115.276889
 20
22.779301
 30
0.0
 10
114.897336
 20
23.158854
 30
0.0
 10
114.138231
 20
23.538407
 30
0.0
 10
112.999574
 20
23.538407
 30
0.0
 10
112.240469
 20
23.158854
 30
0.0
 10
111.481363
 20
22.399749
 30
0.0
 10
111.101811
 20
21.261091
 30
0.0
 10
111.101811
 20
20.501986
 30
0.0
 10
111.481363
 20
19.363328
 30
0.0
 10
112.240469
 20
18.604223
 30
0.0
 10
112.999574
 20
18.224671
 30
0.0
 10
114.138231
 20
18.224671
 30
0.0
 10
114.897336
 20
18.604223
 30
0.0
 10
115.656442
 20
19.363328
 30
0.0
  0
LWPOLYLINE
  5
11d
100
AcDbEntity
  8
Layer_1
 62
7
100
AcDbPolyline
 90
5
 70
0
 10
118.692862
 20
26.195274
 30
0.0
 10
118.692862
 20
19.742881
 30
0.0
 10
119.072415
 20
18.604223
 30
0.0
 10
119.831520
 20
18.224671
 30
0.0
 10
120.590625
 20
18.224671
 30
0.0
  0
LWPOLYLINE
  5
11e
100
AcDbEntity
  8
Layer_1
 62
7
100
AcDbPolyline
 90
2
 70
0
 10
117.554204
 20
23.538407
 30
0.0
 10
120.211072
 20
23.538407
 30
0.0
  0
LWPOLYLINE
  5
11f
100
AcDbEntity
  8
Layer_1
 62
7
100
AcDbPolyline
 90
17
 70
0
 10
126.663466
 20
22.399749
 30
0.0
 10
126.283913
 20
23.158854
 30
0.0
 10
125.145256
 20
23.538407
 30
0.0
 10
124.006598
 20
23.538407
 30
0.0
 10
122.867940
 20
23.158854
 30
0.0
 10
122.488388
 20
22.399749
 30
0.0
 10
122.867940
 20
21.640644
 30
0.0
 10
123.627045
 20
21.261091
 30
0.0
 10
125.524808
 20
20.881539
 30
0.0
 10
126.283913
 20
20.501986
 30
0.0
 10
126.663466
 20
19.742881
 30
0.0
 10
126.663466
 20
19.363328
 30
0.0
 10
126.283913
 20
18.604223
 30
0.0
 10
125.145256
 20
18.224671
 30
0.0
 10
124.006598
 20
18.224671
 30
0.0
 10
122.867940
 20
18.604223
 30
0.0
 10
122.488388
 20
19.363328
 30
0.0
  0
LWPOLYLINE
  5
120
100
AcDbEntity
  8
Layer_1
 62
7
100
AcDbPolyline
 90
2
 70
0
 10
128.561229
 20
23.538407
 30
0.0
 10
130.838544
 20
18.224671
 30
0.0
  0
LWPOLYLINE
  5
121
100
AcDbEntity
  8
Layer_1
 62
7
100
AcDbPolyline
 90
6
 70
0
 10
133.115859
 20
23.538407
 30
0.0
 10
130.838544
 20
18.224671
 30
0.0
 10
130.079439
 20
16.706460
 30
0.0
 10
129.320334
 20
15.947355
 30
0.0
 10
128.561229
 20
15.567803
 30
0.0
 10
128.181676
 20
15.567803
 30
0.0
  0
LWPOLYLINE
  5
122
100
AcDbEntity
  8
Layer_1
 62
7
100
AcDbPolyline
 90
5
 70
0
 10
135.393175
 20
20.122434
 30
0.0
 10
135.013622
 20
19.742881
 30
0.0
 10
135.393175
 20
19.363328
 30
0.0
 10
135.772727
 20
19.742881
 30
0.0
 10
135.393175
 20
20.122434
 30
0.0
  0
LWPOLYLINE
  5
123
100
AcDbEntity
  8
Layer_1
 62
7
100
AcDbPolyline
 90
14
 70
0
 10
142.604673
 20
22.399749
 30
0.0
 10
141.845568
 20
23.158854
 30
0.0
 10
141.086463
 20
23.538407
 30
0.0
 10
139.947805
 20
23.538407
 30
0.0
 10
139.188700
 20
23.158854
 30
0.0
 10
138.429595
 20
22.399749
 30
0.0
 10
138.050043
 20
21.261091
 30
0.0
 10
138.050043
 20
20.501986
 30
0.0
 10
138.429595
 20
19.363328
 30
0.0
 10
139.188700
 20
18.604223
 30
0.0
 10
139.947805
 20
18.224671
 30
0.0
 10
141.086463
 20
18.224671
 30
0.0
 10
141.845568
 20
18.604223
 30
0.0
 10
142.604673
 20
19.363328
 30
0.0
  0
LWPOLYLINE
  5
124
100
AcDbEntity
  8
Layer_1
 62
7
100
AcDbPolyline
 90
17
 70
0
 10
146.779752
 20
23.538407
 30
0.0
 10
146.020646
 20
23.158854
 30
0.0
 10
145.261541
 20
22.399749
 30
0.0
 10
144.881989
 20
21.261091
 30
0.0
 10
144.881989
 20
20.501986
 30
0.0
 10
145.261541
 20
19.363328
 30
0.0
 10
146.020646
 20
18.604223
 30
0.0
 10
146.779752
 20
18.224671
 30
0.0
 10
147.918409
 20
18.224671
 30
0.0
 10
148.677514
 20
18.604223
 30
0.0
 10
149.436619
 20
19.363328
 30
0.0
 10
149.816172
 20
20.501986
 30
0.0
 10
149.816172
 20
21.261091
 30
0.0
 10
149.436619
 20
22.399749
 30
0.0
 10
148.677514
 20
23.158854
 30
0.0
 10
147.918409
 20
23.538407
 30
0.0
 10
146.779752
 20
23.538407
 30
0.0
  0
LWPOLYLINE
  5
125
100
AcDbEntity
  8
Layer_1
 62
7
100
AcDbPolyline
 90
2
 70
0
 10
152.473040
 20
23.538407
 30
0.0
 10
152.473040
 20
18.224671
 30
0.0
  0
LWPOLYLINE
  5
126
100
AcDbEntity
  8
Layer_1
 62
7
100
AcDbPolyline
 90
7
 70
0
 10
152.473040
 20
22.020196
 30
0.0
 10
153.611698
 20
23.158854
 30
0.0
 10
154.370803
 20
23.538407
 30
0.0
 10
155.509460
 20
23.538407
 30
0.0
 10
156.268566
 20
23.158854
 30
0.0
 10
156.648118
 20
22.020196
 30
0.0
 10
156.648118
 20
18.224671
 30
0.0
  0
LWPOLYLINE
  5
127
100
AcDbEntity
  8
Layer_1
 62
7
100
AcDbPolyline
 90
7
 70
0
 10
156.648118
 20
22.020196
 30
0.0
 10
157.786776
 20
23.158854
 30
0.0
 10
158.545881
 20
23.538407
 30
0.0
 10
159.684539
 20
23.538407
 30
0.0
 10
160.443644
 20
23.158854
 30
0.0
 10
160.823196
 20
22.020196
 30
0.0
 10
160.823196
 20
18.224671
 30
0.0
  0
LWPOLYLINE
  5
128
100
AcDbEntity
  8
Layer_1
 62
7
100
AcDbPolyline
 90
2
 70
0
 10
169.932458
 20
27.713485
 30
0.0
 10
163.100512
 20
15.567803
 30
0.0
  0
LWPOLYLINE
  5
129
100
AcDbEntity
  8
Layer_1
 62
7
100
AcDbPolyline
 90
7
 70
0
 10
172.209773
 20
23.538407
 30
0.0
 10
172.209773
 20
19.742881
 30
0.0
 10
172.589326
 20
18.604223
 30
0.0
 10
173.348431
 20
18.224671
 30
0.0
 10
174.487088
 20
18.224671
 30
0.0
 10
175.246194
 20
18.604223
 30
0.0
 10
176.384851
 20
19.742881
 30
0.0
  0
LWPOLYLINE
  5
12a
100
AcDbEntity
  8
Layer_1
 62
7
100
AcDbPolyline
 90
2
 70
0
 10
176.384851
 20
23.538407
 30
0.0
 10
176.384851
 20
18.224671
 30
0.0
  0
LWPOLYLINE
  5
12b
100
AcDbEntity
  8
Layer_1
 62
7
100
AcDbPolyline
 90
2
 70
0
 10
179.421272
 20
26.195274
 30
0.0
 10
179.421272
 20
18.224671
 30
0.0
  0
LWPOLYLINE
  5
12c
100
AcDbEntity
  8
Layer_1
 62
7
100
AcDbPolyline
 90
2
 70
0
 10
183.216797
 20
23.538407
 30
0.0
 10
179.421272
 20
19.742881
 30
0.0
  0
LWPOLYLINE
  5
12d
100
AcDbEntity
  8
Layer_1
 62
7
100
AcDbPolyline
 90
2
 70
0
 10
180.939482
 20
21.261091
 30
0.0
 10
183.596350
 20
18.224671
 30
0.0
  0
LWPOLYLINE
  5
12e
100
AcDbEntity
  8
Layer_1
 62
7
100
AcDbPolyline
 90
2
 70
0
 10
191.946506
 20
27.713485
 30
0.0
 10
185.114560
 20
15.567803
 30
0.0
  0
LWPOLYLINE
  5
12f
100
AcDbEntity
  8
Layer_1
 62
7
100
AcDbPolyline
 90
17
 70
0
 10
198.019347
 20
22.399749
 30
0.0
 10
197.639795
 20
23.158854
 30
0.0
 10
196.501137
 20
23.538407
 30
0.0
 10
195.362479
 20
23.538407
 30
0.0
 10
194.223822
 20
23.158854
 30
0.0
 10
193.844269
 20
22.399749
 30
0.0
 10
194.223822
 20
21.640644
 30
0.0
 10
194.982927
 20
21.261091
 30
0.0
 10
196.880689
 20
20.881539
 30
0.0
 10
197.639795
 20
20.501986
 30
0.0
 10
198.019347
 20
19.742881
 30
0.0
 10
198.019347
 20
19.363328
 30
0.0
 10
197.639795
 20
18.604223
 30
0.0
 10
196.501137
 20
18.224671
 30
0.0
 10
195.362479
 20
18.224671
 30
0.0
 10
194.223822
 20
18.604223
 30
0.0
 10
193.844269
 20
19.363328
 30
0.0
  0
LWPOLYLINE
  5
130
100
AcDbEntity
  8
Layer_1
 62
7
100
AcDbPolyline
 90
2
 70
0
 10
200.676215
 20
26.195274
 30
0.0
 10
200.676215
 20
18.224671
 30
0.0
  0
LWPOLYLINE
  5
131
100
AcDbEntity
  8
Layer_1
 62
7
100
AcDbPolyline
 90
7
 70
0
 10
200.676215
 20
22.020196
 30
0.0
 10
201.814873
 20
23.158854
 30
0.0
 10
202.573978
 20
23.538407
 30
0.0
 10
203.712636
 20
23.538407
 30
0.0
 10
204.471741
 20
23.158854
 30
0.0
 10
204.851293
 20
22.020196
 30
0.0
 10
204.851293
 20
18.224671
 30
0.0
  0
LWPOLYLINE
  5
132
100
AcDbEntity
  8
Layer_1
 62
7
100
AcDbPolyline
 90
17
 70
0
 10
209.405924
 20
23.538407
 30
0.0
 10
208.646819
 20
23.158854
 30
0.0
 10
207.887714
 20
22.399749
 30
0.0
 10
207.508161
 20
21.261091
 30
0.0
 10
207.508161
 20
20.501986
 30
0.0
 10
207.887714
 20
19.363328
 30
0.0
 10
208.646819
 20
18.604223
 30
0.0
 10
209.405924
 20
18.224671
 30
0.0
 10
210.544582
 20
18.224671
 30
0.0
 10
211.303687
 20
18.604223
 30
0.0
 10
212.062792
 20
19.363328
 30
0.0
 10
212.442344
 20
20.501986
 30
0.0
 10
212.442344
 20
21.261091
 30
0.0
 10
212.062792
 20
22.399749
 30
0.0
 10
211.303687
 20
23.158854
 30
0.0
 10
210.544582
 20
23.538407
 30
0.0
 10
209.405924
 20
23.538407
 30
0.0
  0
LWPOLYLINE
  5
133
100
AcDbEntity
  8
Layer_1
 62
7
100
AcDbPolyline
 90
2
 70
0
 10
215.099212
 20
23.538407
 30
0.0
 10
215.099212
 20
15.567803
 30
0.0
  0
LWPOLYLINE
  5
134
100
AcDbEntity
  8
Layer_1
 62
7
100
AcDbPolyline
 90
14
 70
0
 10
215.099212
 20
22.399749
 30
0.0
 10
215.858317
 20
23.158854
 30
0.0
 10
216.617423
 20
23.538407
 30
0.0
 10
217.756080
 20
23.538407
 30
0.0
 10
218.515185
 20
23.158854
 30
0.0
 10
219.274290
 20
22.399749
 30
0.0
 10
219.653843
 20
21.261091
 30
0.0
 10
219.653843
 20
20.501986
 30
0.0
 10
219.274290
 20
19.363328
 30
0.0
 10
218.515185
 20
18.604223
 30
0.0
 10
217.756080
 20
18.224671
 30
0.0
 10
216.617423
 20
18.224671
 30
0.0
 10
215.858317
 20
18.604223
 30
0.0
 10
215.099212
 20
19.363328
 30
0.0
  0
LWPOLYLINE
  5
135
100
AcDbEntity
  8
Layer_1
 62
7
100
AcDbPolyline
 90
2
 70
0
 10
228.383552
 20
27.713485
 30
0.0
 10
221.551606
 20
15.567803
 30
0.0
  0
LWPOLYLINE
  5
136
100
AcDbEntity
  8
Layer_1
 62
7
100
AcDbPolyline
 90
3
 70
0
 10
230.660867
 20
26.195274
 30
0.0
 10
230.660867
 20
18.224671
 30
0.0
 10
235.215498
 20
18.224671
 30
0.0
  0
LWPOLYLINE
  5
137
100
AcDbEntity
  8
Layer_1
 62
7
100
AcDbPolyline
 90
5
 70
0
 10
236.733708
 20
26.195274
 30
0.0
 10
237.113261
 20
25.815722
 30
0.0
 10
237.492813
 20
26.195274
 30
0.0
 10
237.113261
 20
26.574827
 30
0.0
 10
236.733708
 20
26.195274
 30
0.0
  0
LWPOLYLINE
  5
138
100
AcDbEntity
  8
Layer_1
 62
7
100
AcDbPolyline
 90
2
 70
0
 10
237.113261
 20
23.538407
 30
0.0
 10
237.113261
 20
18.224671
 30
0.0
  0
LWPOLYLINE
  5
139
100
AcDbEntity
  8
Layer_1
 62
7
100
AcDbPolyline
 90
7
 70
0
 10
244.324759
 20
23.538407
 30
0.0
 10
244.324759
 20
17.465566
 30
0.0
 10
243.945207
 20
16.326908
 30
0.0
 10
243.565654
 20
15.947355
 30
0.0
 10
242.806549
 20
15.567803
 30
0.0
 10
241.667892
 20
15.567803
 30
0.0
 10
240.908786
 20
15.947355
 30
0.0
  0
LWPOLYLINE
  5
13a
100
AcDbEntity
  8
Layer_1
 62
7
100
AcDbPolyline
 90
14
 70
0
 10
244.324759
 20
22.399749
 30
0.0
 10
243.565654
 20
23.158854
 30
0.0
 10
242.806549
 20
23.538407
 30
0.0
 10
241.667892
 20
23.538407
 30
0.0
 10
240.908786
 20
23.158854
 30
0.0
 10
240.149681
 20
22.399749
 30
0.0
 10
239.770129
 20
21.261091
 30
0.0
 10
239.770129
 20
20.501986
 30
0.0
 10
240.149681
 20
19.363328
 30
0.0
 10
240.908786
 20
18.604223
 30
0.0
 10
241.667892
 20
18.224671
 30
0.0
 10
242.806549
 20
18.224671
 30
0.0
 10
243.565654
 20
18.604223
 30
0.0
 10
244.324759
 20
19.363328
 30
0.0
  0
LWPOLYLINE
  5
13b
100
AcDbEntity
  8
Layer_1
 62
7
100
AcDbPolyline
 90
2
 70
0
 10
247.361180
 20
26.195274
 30
0.0
 10
247.361180
 20
18.224671
 30
0.0
  0
LWPOLYLINE
  5
13c
100
AcDbEntity
  8
Layer_1
 62
7
100
AcDbPolyline
 90
7
 70
0
 10
247.361180
 20
22.020196
 30
0.0
 10
248.499838
 20
23.158854
 30
0.0
 10
249.258943
 20
23.538407
 30
0.0
 10
250.397600
 20
23.538407
 30
0.0
 10
251.156706
 20
23.158854
 30
0.0
 10
251.536258
 20
22.020196
 30
0.0
 10
251.536258
 20
18.224671
 30
0.0
  0
LWPOLYLINE
  5
13d
100
AcDbEntity
  8
Layer_1
 62
7
100
AcDbPolyline
 90
5
 70
0
 10
254.952231
 20
26.195274
 30
0.0
 10
254.952231
 20
19.742881
 30
0.0
 10
255.331784
 20
18.604223
 30
0.0
 10
256.090889
 20
18.224671
 30
0.0
 10
256.849994
 20
18.224671
 30
0.0
  0
LWPOLYLINE
  5
13e
100
AcDbEntity
  8
Layer_1
 62
7
100
AcDbPolyline
 90
2
 70
0
 10
253.813573
 20
23.538407
 30
0.0
 10
256.470441
 20
23.538407
 30
0.0
  0
LWPOLYLINE
  5
13f
100
AcDbEntity
  8
Layer_1
 62
7
100
AcDbPolyline
 90
2
 70
0
 10
258.368204
 20
26.195274
 30
0.0
 10
260.265967
 20
18.224671
 30
0.0
  0
LWPOLYLINE
  5
140
100
AcDbEntity
  8
Layer_1
 62
7
100
AcDbPolyline
 90
2
 70
0
 10
262.163730
 20
26.195274
 30
0.0
 10
260.265967
 20
18.224671
 30
0.0
  0
LWPOLYLINE
  5
141
100
AcDbEntity
  8
Layer_1
 62
7
100
AcDbPolyline
 90
2
 70
0
 10
262.163730
 20
26.195274
 30
0.0
 10
264.061493
 20
18.224671
 30
0.0
  0
LWPOLYLINE
  5
142
100
AcDbEntity
  8
Layer_1
 62
7
100
AcDbPolyline
 90
2
 70
0
 10
265.959255
 20
26.195274
 30
0.0
 10
264.061493
 20
18.224671
 30
0.0
  0
LWPOLYLINE
  5
143
100
AcDbEntity
  8
Layer_1
 62
7
100
AcDbPolyline
 90
17
 70
0
 10
269.754781
 20
23.538407
 30
0.0
 10
268.995676
 20
23.158854
 30
0.0
 10
268.236571
 20
22.399749
 30
0.0
 10
267.857018
 20
21.261091
 30
0.0
 10
267.857018
 20
20.501986
 30
0.0
 10
268.236571
 20
19.363328
 30
0.0
 10
268.995676
 20
18.604223
 30
0.0
 10
269.754781
 20
18.224671
 30
0.0
 10
270.893439
 20
18.224671
 30
0.0
 10
271.652544
 20
18.604223
 30
0.0
 10
272.411649
 20
19.363328
 30
0.0
 10
272.791201
 20
20.501986
 30
0.0
 10
272.791201
 20
21.261091
 30
0.0
 10
272.411649
 20
22.399749
 30
0.0
 10
271.652544
 20
23.158854
 30
0.0
 10
270.893439
 20
23.538407
 30
0.0
 10
269.754781
 20
23.538407
 30
0.0
  0
LWPOLYLINE
  5
144
100
AcDbEntity
  8
Layer_1
 62
7
100
AcDbPolyline
 90
2
 70
0
 10
275.448069
 20
23.538407
 30
0.0
 10
275.448069
 20
18.224671
 30
0.0
  0
LWPOLYLINE
  5
145
100
AcDbEntity
  8
Layer_1
 62
7
100
AcDbPolyline
 90
5
 70
0
 10
275.448069
 20
21.261091
 30
0.0
 10
275.827622
 20
22.399749
 30
0.0
 10
276.586727
 20
23.158854
 30
0.0
 10
277.345832
 20
23.538407
 30
0.0
 10
278.484490
 20
23.538407
 30
0.0
  0
LWPOLYLINE
  5
146
100
AcDbEntity
  8
Layer_1
 62
7
100
AcDbPolyline
 90
2
 70
0
 10
280.382253
 20
26.195274
 30
0.0
 10
280.382253
 20
18.224671
 30
0.0
  0
LWPOLYLINE
  5
147
100
AcDbEntity
  8
Layer_1
 62
7
100
AcDbPolyline
 90
2
 70
0
 10
284.177778
 20
23.538407
 30
0.0
 10
280.382253
 20
19.742881
 30
0.0
  0
LWPOLYLINE
  5
148
100
AcDbEntity
  8
Layer_1
 62
7
100
AcDbPolyline
 90
2
 70
0
 10
281.900463
 20
21.261091
 30
0.0
 10
284.557331
 20
18.224671
 30
0.0
  0
LWPOLYLINE
  5
149
100
AcDbEntity
  8
Layer_1
 62
7
100
AcDbPolyline
 90
17
 70
0
 10
290.630172
 20
22.399749
 30
0.0
 10
290.250619
 20
23.158854
 30
0.0
 10
289.111962
 20
23.538407
 30
0.0
 10
287.973304
 20
23.538407
 30
0.0
 10
286.834646
 20
23.158854
 30
0.0
 10
286.455094
 20
22.399749
 30
0.0
 10
286.834646
 20
21.640644
 30
0.0
 10
287.593751
 20
21.261091
 30
0.0
 10
289.491514
 20
20.881539
 30
0.0
 10
290.250619
 20
20.501986
 30
0.0
 10
290.630172
 20
19.742881
 30
0.0
 10
290.630172
 20
19.363328
 30
0.0
 10
290.250619
 20
18.604223
 30
0.0
 10
289.111962
 20
18.224671
 30
0.0
 10
287.973304
 20
18.224671
 30
0.0
 10
286.834646
 20
18.604223
 30
0.0
 10
286.455094
 20
19.363328
 30
0.0
  0
LWPOLYLINE
  5
14a
100
AcDbEntity
  8
Layer_1
 62
7
100
AcDbPolyline
 90
3
 70
0
 10
293.287040
 20
26.195274
 30
0.0
 10
293.287040
 20
18.224671
 30
0.0
 10
297.841670
 20
18.224671
 30
0.0
  0
LWPOLYLINE
  5
14b
100
AcDbEntity
  8
Layer_1
 62
7
100
AcDbPolyline
 90
2
 70
0
 10
303.914511
 20
23.538407
 30
0.0
 10
303.914511
 20
18.224671
 30
0.0
  0
LWPOLYLINE
  5
14c
100
AcDbEntity
  8
Layer_1
 62
7
100
AcDbPolyline
 90
14
 70
0
 10
303.914511
 20
22.399749
 30
0.0
 10
303.155406
 20
23.158854
 30
0.0
 10
302.396301
 20
23.538407
 30
0.0
 10
301.257643
 20
23.538407
 30
0.0
 10
300.498538
 20
23.158854
 30
0.0
 10
299.739433
 20
22.399749
 30
0.0
 10
299.359881
 20
21.261091
 30
0.0
 10
299.359881
 20
20.501986
 30
0.0
 10
299.739433
 20
19.363328
 30
0.0
 10
300.498538
 20
18.604223
 30
0.0
 10
301.257643
 20
18.224671
 30
0.0
 10
302.396301
 20
18.224671
 30
0.0
 10
303.155406
 20
18.604223
 30
0.0
 10
303.914511
 20
19.363328
 30
0.0
  0
LWPOLYLINE
  5
14d
100
AcDbEntity
  8
Layer_1
 62
7
100
AcDbPolyline
 90
17
 70
0
 10
310.746457
 20
22.399749
 30
0.0
 10
310.366905
 20
23.158854
 30
0.0
 10
309.228247
 20
23.538407
 30
0.0
 10
308.089590
 20
23.538407
 30
0.0
 10
306.950932
 20
23.158854
 30
0.0
 10
306.571379
 20
22.399749
 30
0.0
 10
306.950932
 20
21.640644
 30
0.0
 10
307.710037
 20
21.261091
 30
0.0
 10
309.607800
 20
20.881539
 30
0.0
 10
310.366905
 20
20.501986
 30
0.0
 10
310.746457
 20
19.742881
 30
0.0
 10
310.746457
 20
19.363328
 30
0.0
 10
310.366905
 20
18.604223
 30
0.0
 10
309.228247
 20
18.224671
 30
0.0
 10
308.089590
 20
18.224671
 30
0.0
 10
306.950932
 20
18.604223
 30
0.0
 10
306.571379
 20
19.363328
 30
0.0
  0
LWPOLYLINE
  5
14e
100
AcDbEntity
  8
Layer_1
 62
7
100
AcDbPolyline
 90
17
 70
0
 10
313.023773
 20
21.261091
 30
0.0
 10
317.578404
 20
21.261091
 30
0.0
 10
317.578404
 20
22.020196
 30
0.0
 10
317.198851
 20
22.779301
 30
0.0
 10
316.819298
 20
23.158854
 30
0.0
 10
316.060193
 20
23.538407
 30
0.0
 10
314.921536
 20
23.538407
 30
0.0
 10
314.162430
 20
23.158854
 30
0.0
 10
313.403325
 20
22.399749
 30
0.0
 10
313.023773
 20
21.261091
 30
0.0
 10
313.023773
 20
20.501986
 30
0.0
 10
313.403325
 20
19.363328
 30
0.0
 10
314.162430
 20
18.604223
 30
0.0
 10
314.921536
 20
18.224671
 30
0.0
 10
316.060193
 20
18.224671
 30
0.0
 10
316.819298
 20
18.604223
 30
0.0
 10
317.578404
 20
19.363328
 30
0.0
  0
LWPOLYLINE
  5
14f
100
AcDbEntity
  8
Layer_1
 62
7
100
AcDbPolyline
 90
2
 70
0
 10
320.235271
 20
23.538407
 30
0.0
 10
320.235271
 20
18.224671
 30
0.0
  0
LWPOLYLINE
  5
150
100
AcDbEntity
  8
Layer_1
 62
7
100
AcDbPolyline
 90
5
 70
0
 10
320.235271
 20
21.261091
 30
0.0
 10
320.614824
 20
22.399749
 30
0.0
 10
321.373929
 20
23.158854
 30
0.0
 10
322.133034
 20
23.538407
 30
0.0
 10
323.271692
 20
23.538407
 30
0.0
  0
LWPOLYLINE
  5
151
100
AcDbEntity
  8
Layer_1
 62
7
100
AcDbPolyline
 90
2
 70
0
 10
324.966775
 20
80.513475
 30
0.0
 10
324.966775
 20
43.795547
 30
0.0
  0
LWPOLYLINE
  5
152
100
AcDbEntity
  8
Layer_1
 62
7
100
AcDbPolyline
 90
5
 70
0
 10
324.966775
 20
80.513475
 30
0.0
 10
326.483441
 20
80.513475
 30
0.0
 10
326.483441
 20
45.543965
 30
0.0
 10
343.166739
 20
45.543965
 30
0.0
 10
343.166739
 20
43.795547
 30
0.0
  0
LWPOLYLINE
  5
153
100
AcDbEntity
  8
Layer_1
 62
7
100
AcDbPolyline
 90
2
 70
0
 10
324.966775
 20
43.795547
 30
0.0
 10
343.166739
 20
43.795547
 30
0.0
  0
LWPOLYLINE
  5
154
100
AcDbEntity
  8
Layer_1
 62
7
100
AcDbPolyline
 90
9
 70
0
 10
350.750045
 20
80.513475
 30
0.0
 10
349.233378
 20
78.765057
 30
0.0
 10
349.233378
 20
77.016543
 30
0.0
 10
350.750045
 20
75.268126
 30
0.0
 10
352.266712
 20
75.268126
 30
0.0
 10
353.783369
 20
77.016543
 30
0.0
 10
353.783369
 20
78.765057
 30
0.0
 10
352.266712
 20
80.513475
 30
0.0
 10
350.750045
 20
80.513475
 30
0.0
  0
LWPOLYLINE
  5
155
100
AcDbEntity
  8
Layer_1
 62
7
100
AcDbPolyline
 90
5
 70
0
 10
350.750045
 20
78.765057
 30
0.0
 10
350.750045
 20
77.016543
 30
0.0
 10
352.266712
 20
77.016543
 30
0.0
 10
352.266712
 20
78.765057
 30
0.0
 10
350.750045
 20
78.765057
 30
0.0
  0
LWPOLYLINE
  5
156
100
AcDbEntity
  8
Layer_1
 62
7
100
AcDbPolyline
 90
3
 70
0
 10
350.750045
 20
68.274166
 30
0.0
 10
350.750045
 20
43.795547
 30
0.0
 10
352.266712
 20
43.795547
 30
0.0
  0
LWPOLYLINE
  5
157
100
AcDbEntity
  8
Layer_1
 62
7
100
AcDbPolyline
 90
3
 70
0
 10
350.750045
 20
68.274166
 30
0.0
 10
352.266712
 20
68.274166
 30
0.0
 10
352.266712
 20
43.795547
 30
0.0
  0
LWPOLYLINE
  5
158
100
AcDbEntity
  8
Layer_1
 62
7
100
AcDbPolyline
 90
10
 70
0
 10
382.599973
 20
68.274166
 30
0.0
 10
381.083315
 20
68.274166
 30
0.0
 10
381.083315
 20
42.047033
 30
0.0
 10
379.566649
 20
36.801588
 30
0.0
 10
378.049982
 20
35.053170
 30
0.0
 10
375.016657
 20
33.304656
 30
0.0
 10
371.983333
 20
33.304656
 30
0.0
 10
368.950009
 20
35.053170
 30
0.0
 10
367.433342
 20
36.801588
 30
0.0
 10
364.400018
 20
36.801588
 30
0.0
  0
LWPOLYLINE
  5
159
100
AcDbEntity
  8
Layer_1
 62
7
100
AcDbPolyline
 90
8
 70
0
 10
382.599973
 20
68.274166
 30
0.0
 10
382.599973
 20
42.047033
 30
0.0
 10
381.083315
 20
36.801588
 30
0.0
 10
378.049982
 20
33.304656
 30
0.0
 10
375.016657
 20
31.556238
 30
0.0
 10
370.466666
 20
31.556238
 30
0.0
 10
367.433342
 20
33.304656
 30
0.0
 10
364.400018
 20
36.801588
 30
0.0
  0
LWPOLYLINE
  5
15a
100
AcDbEntity
  8
Layer_1
 62
7
100
AcDbPolyline
 90
14
 70
0
 10
381.083315
 20
63.028816
 30
0.0
 10
378.049982
 20
66.525748
 30
0.0
 10
375.016657
 20
68.274166
 30
0.0
 10
370.466666
 20
68.274166
 30
0.0
 10
367.433342
 20
66.525748
 30
0.0
 10
364.400018
 20
63.028816
 30
0.0
 10
362.883351
 20
57.783274
 30
0.0
 10
362.883351
 20
54.286439
 30
0.0
 10
364.400018
 20
49.040897
 30
0.0
 10
367.433342
 20
45.543965
 30
0.0
 10
370.466666
 20
43.795547
 30
0.0
 10
375.016657
 20
43.795547
 30
0.0
 10
378.049982
 20
45.543965
 30
0.0
 10
381.083315
 20
49.040897
 30
0.0
  0
LWPOLYLINE
  5
15b
100
AcDbEntity
  8
Layer_1
 62
7
100
AcDbPolyline
 90
12
 70
0
 10
381.083315
 20
63.028816
 30
0.0
 10
375.016657
 20
66.525748
 30
0.0
 10
370.466666
 20
66.525748
 30
0.0
 10
367.433342
 20
64.777234
 30
0.0
 10
365.916685
 20
63.028816
 30
0.0
 10
364.400018
 20
57.783274
 30
0.0
 10
364.400018
 20
54.286439
 30
0.0
 10
365.916685
 20
49.040897
 30
0.0
 10
367.433342
 20
47.292479
 30
0.0
 10
370.466666
 20
45.543965
 30
0.0
 10
375.016657
 20
45.543965
 30
0.0
 10
381.083315
 20
49.040897
 30
0.0
  0
LWPOLYLINE
  5
15c
100
AcDbEntity
  8
Layer_1
 62
7
100
AcDbPolyline
 90
3
 70
0
 10
394.733279
 20
80.513475
 30
0.0
 10
394.733279
 20
43.795547
 30
0.0
 10
396.249946
 20
43.795547
 30
0.0
  0
LWPOLYLINE
  5
15d
100
AcDbEntity
  8
Layer_1
 62
7
100
AcDbPolyline
 90
3
 70
0
 10
394.733279
 20
80.513475
 30
0.0
 10
396.249946
 20
80.513475
 30
0.0
 10
396.249946
 20
43.795547
 30
0.0
  0
LWPOLYLINE
  5
15e
100
AcDbEntity
  8
Layer_1
 62
7
100
AcDbPolyline
 90
7
 70
0
 10
396.249946
 20
61.280206
 30
0.0
 10
400.799937
 20
66.525748
 30
0.0
 10
403.833261
 20
68.274166
 30
0.0
 10
408.383243
 20
68.274166
 30
0.0
 10
411.416577
 20
66.525748
 30
0.0
 10
412.933234
 20
61.280206
 30
0.0
 10
412.933234
 20
43.795547
 30
0.0
  0
LWPOLYLINE
  5
15f
100
AcDbEntity
  8
Layer_1
 62
7
100
AcDbPolyline
 90
8
 70
0
 10
396.249946
 20
61.280206
 30
0.0
 10
400.799937
 20
64.777234
 30
0.0
 10
403.833261
 20
66.525748
 30
0.0
 10
406.866586
 20
66.525748
 30
0.0
 10
409.899910
 20
64.777234
 30
0.0
 10
411.416577
 20
61.280206
 30
0.0
 10
411.416577
 20
43.795547
 30
0.0
 10
412.933234
 20
43.795547
 30
0.0
  0
LWPOLYLINE
  5
160
100
AcDbEntity
  8
Layer_1
 62
7
100
AcDbPolyline
 90
3
 70
0
 10
426.583207
 20
80.513475
 30
0.0
 10
426.583207
 20
43.795547
 30
0.0
 10
428.099865
 20
43.795547
 30
0.0
  0
LWPOLYLINE
  5
161
100
AcDbEntity
  8
Layer_1
 62
7
100
AcDbPolyline
 90
3
 70
0
 10
426.583207
 20
80.513475
 30
0.0
 10
428.099865
 20
80.513475
 30
0.0
 10
428.099865
 20
43.795547
 30
0.0
  0
LWPOLYLINE
  5
162
100
AcDbEntity
  8
Layer_1
 62
7
100
AcDbPolyline
 90
3
 70
0
 10
422.033216
 20
68.274166
 30
0.0
 10
432.649856
 20
68.274166
 30
0.0
 10
432.649856
 20
66.525748
 30
0.0
  0
LWPOLYLINE
  5
163
100
AcDbEntity
  8
Layer_1
 62
7
100
AcDbPolyline
 90
3
 70
0
 10
422.033216
 20
68.274166
 30
0.0
 10
422.033216
 20
66.525748
 30
0.0
 10
432.649856
 20
66.525748
 30
0.0
  0
LWPOLYLINE
  5
164
100
AcDbEntity
  8
Layer_1
 62
7
100
AcDbPolyline
 90
2
 70
0
 10
438.716514
 20
80.513475
 30
0.0
 10
447.816486
 20
43.795547
 30
0.0
  0
LWPOLYLINE
  5
165
100
AcDbEntity
  8
Layer_1
 62
7
100
AcDbPolyline
 90
3
 70
0
 10
438.716514
 20
80.513475
 30
0.0
 10
440.233171
 20
80.513475
 30
0.0
 10
447.816486
 20
49.040897
 30
0.0
  0
LWPOLYLINE
  5
166
100
AcDbEntity
  8
Layer_1
 62
7
100
AcDbPolyline
 90
2
 70
0
 10
455.399802
 20
80.513475
 30
0.0
 10
447.816486
 20
49.040897
 30
0.0
  0
LWPOLYLINE
  5
167
100
AcDbEntity
  8
Layer_1
 62
7
100
AcDbPolyline
 90
2
 70
0
 10
455.399802
 20
75.268126
 30
0.0
 10
447.816486
 20
43.795547
 30
0.0
  0
LWPOLYLINE
  5
168
100
AcDbEntity
  8
Layer_1
 62
7
100
AcDbPolyline
 90
2
 70
0
 10
455.399802
 20
75.268126
 30
0.0
 10
462.983117
 20
43.795547
 30
0.0
  0
LWPOLYLINE
  5
169
100
AcDbEntity
  8
Layer_1
 62
7
100
AcDbPolyline
 90
2
 70
0
 10
455.399802
 20
80.513475
 30
0.0
 10
462.983117
 20
49.040897
 30
0.0
  0
LWPOLYLINE
  5
16a
100
AcDbEntity
  8
Layer_1
 62
7
100
AcDbPolyline
 90
3
 70
0
 10
472.083099
 20
80.513475
 30
0.0
 10
470.566432
 20
80.513475
 30
0.0
 10
462.983117
 20
49.040897
 30
0.0
  0
LWPOLYLINE
  5
16b
100
AcDbEntity
  8
Layer_1
 62
7
100
AcDbPolyline
 90
2
 70
0
 10
472.083099
 20
80.513475
 30
0.0
 10
462.983117
 20
43.795547
 30
0.0
  0
LWPOLYLINE
  5
16c
100
AcDbEntity
  8
Layer_1
 62
7
100
AcDbPolyline
 90
17
 70
0
 10
487.249730
 20
68.274166
 30
0.0
 10
484.216406
 20
66.525748
 30
0.0
 10
481.183072
 20
63.028816
 30
0.0
 10
479.666414
 20
57.783274
 30
0.0
 10
479.666414
 20
54.286439
 30
0.0
 10
481.183072
 20
49.040897
 30
0.0
 10
484.216406
 20
45.543965
 30
0.0
 10
487.249730
 20
43.795547
 30
0.0
 10
491.799721
 20
43.795547
 30
0.0
 10
494.833045
 20
45.543965
 30
0.0
 10
497.866369
 20
49.040897
 30
0.0
 10
499.383036
 20
54.286439
 30
0.0
 10
499.383036
 20
57.783274
 30
0.0
 10
497.866369
 20
63.028816
 30
0.0
 10
494.833045
 20
66.525748
 30
0.0
 10
491.799721
 20
68.274166
 30
0.0
 10
487.249730
 20
68.274166
 30
0.0
  0
LWPOLYLINE
  5
16d
100
AcDbEntity
  8
Layer_1
 62
7
100
AcDbPolyline
 90
17
 70
0
 10
487.249730
 20
66.525748
 30
0.0
 10
484.216406
 20
64.777234
 30
0.0
 10
482.699739
 20
63.028816
 30
0.0
 10
481.183072
 20
57.783274
 30
0.0
 10
481.183072
 20
54.286439
 30
0.0
 10
482.699739
 20
49.040897
 30
0.0
 10
484.216406
 20
47.292479
 30
0.0
 10
487.249730
 20
45.543965
 30
0.0
 10
491.799721
 20
45.543965
 30
0.0
 10
494.833045
 20
47.292479
 30
0.0
 10
496.349702
 20
49.040897
 30
0.0
 10
497.866369
 20
54.286439
 30
0.0
 10
497.866369
 20
57.783274
 30
0.0
 10
496.349702
 20
63.028816
 30
0.0
 10
494.833045
 20
64.777234
 30
0.0
 10
491.799721
 20
66.525748
 30
0.0
 10
487.249730
 20
66.525748
 30
0.0
  0
LWPOLYLINE
  5
16e
100
AcDbEntity
  8
Layer_1
 62
7
100
AcDbPolyline
 90
3
 70
0
 10
509.999676
 20
68.274166
 30
0.0
 10
509.999676
 20
43.795547
 30
0.0
 10
511.516333
 20
43.795547
 30
0.0
  0
LWPOLYLINE
  5
16f
100
AcDbEntity
  8
Layer_1
 62
7
100
AcDbPolyline
 90
3
 70
0
 10
509.999676
 20
68.274166
 30
0.0
 10
511.516333
 20
68.274166
 30
0.0
 10
511.516333
 20
43.795547
 30
0.0
  0
LWPOLYLINE
  5
170
100
AcDbEntity
  8
Layer_1
 62
7
100
AcDbPolyline
 90
5
 70
0
 10
511.516333
 20
57.783274
 30
0.0
 10
513.033000
 20
63.028816
 30
0.0
 10
516.066324
 20
66.525748
 30
0.0
 10
519.099648
 20
68.274166
 30
0.0
 10
523.649639
 20
68.274166
 30
0.0
  0
LWPOLYLINE
  5
171
100
AcDbEntity
  8
Layer_1
 62
7
100
AcDbPolyline
 90
6
 70
0
 10
511.516333
 20
57.783274
 30
0.0
 10
513.033000
 20
61.280206
 30
0.0
 10
516.066324
 20
64.777234
 30
0.0
 10
519.099648
 20
66.525748
 30
0.0
 10
523.649639
 20
66.525748
 30
0.0
 10
523.649639
 20
68.274166
 30
0.0
  0
LWPOLYLINE
  5
172
100
AcDbEntity
  8
Layer_1
 62
7
100
AcDbPolyline
 90
3
 70
0
 10
531.232955
 20
80.513475
 30
0.0
 10
531.232955
 20
43.795547
 30
0.0
 10
532.749622
 20
43.795547
 30
0.0
  0
LWPOLYLINE
  5
173
100
AcDbEntity
  8
Layer_1
 62
7
100
AcDbPolyline
 90
3
 70
0
 10
531.232955
 20
80.513475
 30
0.0
 10
532.749622
 20
80.513475
 30
0.0
 10
532.749622
 20
43.795547
 30
0.0
  0
LWPOLYLINE
  5
174
100
AcDbEntity
  8
Layer_1
 62
7
100
AcDbPolyline
 90
3
 70
0
 10
549.432919
 20
68.274166
 30
0.0
 10
547.916262
 20
68.274166
 30
0.0
 10
532.749622
 20
50.789507
 30
0.0
  0
LWPOLYLINE
  5
175
100
AcDbEntity
  8
Layer_1
 62
7
100
AcDbPolyline
 90
2
 70
0
 10
549.432919
 20
68.274166
 30
0.0
 10
532.749622
 20
49.040897
 30
0.0
  0
LWPOLYLINE
  5
176
100
AcDbEntity
  8
Layer_1
 62
7
100
AcDbPolyline
 90
3
 70
0
 10
537.299613
 20
56.034857
 30
0.0
 10
546.399595
 20
43.795547
 30
0.0
 10
549.432919
 20
43.795547
 30
0.0
  0
LWPOLYLINE
  5
177
100
AcDbEntity
  8
Layer_1
 62
7
100
AcDbPolyline
 90
2
 70
0
 10
538.816280
 20
57.783274
 30
0.0
 10
549.432919
 20
43.795547
 30
0.0
  0
LWPOLYLINE
  5
178
100
AcDbEntity
  8
Layer_1
 62
7
100
AcDbPolyline
 90
10
 70
0
 10
575.216189
 20
63.028816
 30
0.0
 10
573.699532
 20
66.525748
 30
0.0
 10
569.149541
 20
68.274166
 30
0.0
 10
564.599550
 20
68.274166
 30
0.0
 10
560.049559
 20
66.525748
 30
0.0
 10
558.532901
 20
63.028816
 30
0.0
 10
560.049559
 20
59.531788
 30
0.0
 10
563.082883
 20
57.783274
 30
0.0
 10
570.666208
 20
54.286439
 30
0.0
 10
573.699532
 20
52.537925
 30
0.0
  0
LWPOLYLINE
  5
179
100
AcDbEntity
  8
Layer_1
 62
7
100
AcDbPolyline
 90
4
 70
0
 10
572.182865
 20
54.286439
 30
0.0
 10
573.699532
 20
50.789507
 30
0.0
 10
573.699532
 20
49.040897
 30
0.0
 10
572.182865
 20
45.543965
 30
0.0
  0
LWPOLYLINE
  5
17a
100
AcDbEntity
  8
Layer_1
 62
7
100
AcDbPolyline
 90
4
 70
0
 10
573.699532
 20
47.292479
 30
0.0
 10
569.149541
 20
45.543965
 30
0.0
 10
564.599550
 20
45.543965
 30
0.0
 10
560.049559
 20
47.292479
 30
0.0
  0
LWPOLYLINE
  5
17b
100
AcDbEntity
  8
Layer_1
 62
7
100
AcDbPolyline
 90
3
 70
0
 10
561.566225
 20
45.543965
 30
0.0
 10
560.049559
 20
49.040897
 30
0.0
 10
558.532901
 20
49.040897
 30
0.0
  0
LWPOLYLINE
  5
17c
100
AcDbEntity
  8
Layer_1
 62
7
100
AcDbPolyline
 90
3
 70
0
 10
575.216189
 20
63.028816
 30
0.0
 10
573.699532
 20
63.028816
 30
0.0
 10
572.182865
 20
66.525748
 30
0.0
  0
LWPOLYLINE
  5
17d
100
AcDbEntity
  8
Layer_1
 62
7
100
AcDbPolyline
 90
4
 70
0
 10
573.699532
 20
64.777234
 30
0.0
 10
569.149541
 20
66.525748
 30
0.0
 10
564.599550
 20
66.525748
 30
0.0
 10
560.049559
 20
64.777234
 30
0.0
  0
LWPOLYLINE
  5
17e
100
AcDbEntity
  8
Layer_1
 62
7
100
AcDbPolyline
 90
3
 70
0
 10
561.566225
 20
66.525748
 30
0.0
 10
560.049559
 20
63.028816
 30
0.0
 10
561.566225
 20
59.531788
 30
0.0
  0
LWPOLYLINE
  5
17f
100
AcDbEntity
  8
Layer_1
 62
7
100
AcDbPolyline
 90
11
 70
0
 10
560.049559
 20
61.280206
 30
0.0
 10
563.082883
 20
59.531788
 30
0.0
 10
570.666208
 20
56.034857
 30
0.0
 10
573.699532
 20
54.286439
 30
0.0
 10
575.216189
 20
50.789507
 30
0.0
 10
575.216189
 20
49.040897
 30
0.0
 10
573.699532
 20
45.543965
 30
0.0
 10
569.149541
 20
43.795547
 30
0.0
 10
564.599550
 20
43.795547
 30
0.0
 10
560.049559
 20
45.543965
 30
0.0
 10
558.532901
 20
49.040897
 30
0.0
  0
LWPOLYLINE
  5
180
100
AcDbEntity
  8
Layer_1
 62
7
100
AcDbPolyline
 90
2
 70
0
 10
409.293741
 20
35.073915
 30
0.0
 10
409.293741
 20
19.511804
 30
0.0
  0
LWPOLYLINE
  5
181
100
AcDbEntity
  8
Layer_1
 62
7
100
AcDbPolyline
 90
5
 70
0
 10
409.293741
 20
35.073915
 30
0.0
 10
410.034800
 20
35.073915
 30
0.0
 10
410.034800
 20
20.252873
 30
0.0
 10
418.186399
 20
20.252873
 30
0.0
 10
418.186399
 20
19.511804
 30
0.0
  0
LWPOLYLINE
  5
182
100
AcDbEntity
  8
Layer_1
 62
7
100
AcDbPolyline
 90
2
 70
0
 10
409.293741
 20
19.511804
 30
0.0
 10
418.186399
 20
19.511804
 30
0.0
  0
LWPOLYLINE
  5
183
100
AcDbEntity
  8
Layer_1
 62
7
100
AcDbPolyline
 90
3
 70
0
 10
430.043283
 20
29.886532
 30
0.0
 10
430.043283
 20
19.511804
 30
0.0
 10
430.784342
 20
19.511804
 30
0.0
  0
LWPOLYLINE
  5
184
100
AcDbEntity
  8
Layer_1
 62
7
100
AcDbPolyline
 90
3
 70
0
 10
430.043283
 20
29.886532
 30
0.0
 10
430.784342
 20
29.886532
 30
0.0
 10
430.784342
 20
19.511804
 30
0.0
  0
LWPOLYLINE
  5
185
100
AcDbEntity
  8
Layer_1
 62
7
100
AcDbPolyline
 90
14
 70
0
 10
430.043283
 20
27.663365
 30
0.0
 10
428.561175
 20
29.145463
 30
0.0
 10
427.079057
 20
29.886532
 30
0.0
 10
424.855900
 20
29.886532
 30
0.0
 10
423.373782
 20
29.145463
 30
0.0
 10
421.891674
 20
27.663365
 30
0.0
 10
421.150625
 20
25.440256
 30
0.0
 10
421.150625
 20
23.958119
 30
0.0
 10
421.891674
 20
21.735009
 30
0.0
 10
423.373782
 20
20.252873
 30
0.0
 10
424.855900
 20
19.511804
 30
0.0
 10
427.079057
 20
19.511804
 30
0.0
 10
428.561175
 20
20.252873
 30
0.0
 10
430.043283
 20
21.735009
 30
0.0
  0
LWPOLYLINE
  5
186
100
AcDbEntity
  8
Layer_1
 62
7
100
AcDbPolyline
 90
12
 70
0
 10
430.043283
 20
27.663365
 30
0.0
 10
427.079057
 20
29.145463
 30
0.0
 10
424.855900
 20
29.145463
 30
0.0
 10
423.373782
 20
28.404395
 30
0.0
 10
422.632733
 20
27.663365
 30
0.0
 10
421.891674
 20
25.440256
 30
0.0
 10
421.891674
 20
23.958119
 30
0.0
 10
422.632733
 20
21.735009
 30
0.0
 10
423.373782
 20
20.993941
 30
0.0
 10
424.855900
 20
20.252873
 30
0.0
 10
427.079057
 20
20.252873
 30
0.0
 10
430.043283
 20
21.735009
 30
0.0
  0
LWPOLYLINE
  5
187
100
AcDbEntity
  8
Layer_1
 62
7
100
AcDbPolyline
 90
10
 70
0
 10
444.123324
 20
27.663365
 30
0.0
 10
443.382275
 20
29.145463
 30
0.0
 10
441.159108
 20
29.886532
 30
0.0
 10
438.935941
 20
29.886532
 30
0.0
 10
436.712774
 20
29.145463
 30
0.0
 10
435.971725
 20
27.663365
 30
0.0
 10
436.712774
 20
26.181324
 30
0.0
 10
438.194891
 20
25.440256
 30
0.0
 10
441.900166
 20
23.958119
 30
0.0
 10
443.382275
 20
23.217050
 30
0.0
  0
LWPOLYLINE
  5
188
100
AcDbEntity
  8
Layer_1
 62
7
100
AcDbPolyline
 90
4
 70
0
 10
442.641216
 20
23.958119
 30
0.0
 10
443.382275
 20
22.475982
 30
0.0
 10
443.382275
 20
21.735009
 30
0.0
 10
442.641216
 20
20.252873
 30
0.0
  0
LWPOLYLINE
  5
189
100
AcDbEntity
  8
Layer_1
 62
7
100
AcDbPolyline
 90
4
 70
0
 10
443.382275
 20
20.993941
 30
0.0
 10
441.159108
 20
20.252873
 30
0.0
 10
438.935941
 20
20.252873
 30
0.0
 10
436.712774
 20
20.993941
 30
0.0
  0
LWPOLYLINE
  5
18a
100
AcDbEntity
  8
Layer_1
 62
7
100
AcDbPolyline
 90
3
 70
0
 10
437.453833
 20
20.252873
 30
0.0
 10
436.712774
 20
21.735009
 30
0.0
 10
435.971725
 20
21.735009
 30
0.0
  0
LWPOLYLINE
  5
18b
100
AcDbEntity
  8
Layer_1
 62
7
100
AcDbPolyline
 90
3
 70
0
 10
444.123324
 20
27.663365
 30
0.0
 10
443.382275
 20
27.663365
 30
0.0
 10
442.641216
 20
29.145463
 30
0.0
  0
LWPOLYLINE
  5
18c
100
AcDbEntity
  8
Layer_1
 62
7
100
AcDbPolyline
 90
4
 70
0
 10
443.382275
 20
28.404395
 30
0.0
 10
441.159108
 20
29.145463
 30
0.0
 10
438.935941
 20
29.145463
 30
0.0
 10
436.712774
 20
28.404395
 30
0.0
  0
LWPOLYLINE
  5
18d
100
AcDbEntity
  8
Layer_1
 62
7
100
AcDbPolyline
 90
3
 70
0
 10
437.453833
 20
29.145463
 30
0.0
 10
436.712774
 20
27.663365
 30
0.0
 10
437.453833
 20
26.181324
 30
0.0
  0
LWPOLYLINE
  5
18e
100
AcDbEntity
  8
Layer_1
 62
7
100
AcDbPolyline
 90
11
 70
0
 10
436.712774
 20
26.922393
 30
0.0
 10
438.194891
 20
26.181324
 30
0.0
 10
441.900166
 20
24.699187
 30
0.0
 10
443.382275
 20
23.958119
 30
0.0
 10
444.123324
 20
22.475982
 30
0.0
 10
444.123324
 20
21.735009
 30
0.0
 10
443.382275
 20
20.252873
 30
0.0
 10
441.159108
 20
19.511804
 30
0.0
 10
438.935941
 20
19.511804
 30
0.0
 10
436.712774
 20
20.252873
 30
0.0
 10
435.971725
 20
21.735009
 30
0.0
  0
LWPOLYLINE
  5
18f
100
AcDbEntity
  8
Layer_1
 62
7
100
AcDbPolyline
 90
17
 70
0
 10
449.310716
 20
24.699187
 30
0.0
 10
457.462316
 20
24.699187
 30
0.0
 10
457.462316
 20
26.922393
 30
0.0
 10
456.721266
 20
28.404395
 30
0.0
 10
455.980207
 20
29.145463
 30
0.0
 10
454.498099
 20
29.886532
 30
0.0
 10
452.274933
 20
29.886532
 30
0.0
 10
450.792824
 20
29.145463
 30
0.0
 10
449.310716
 20
27.663365
 30
0.0
 10
448.569658
 20
25.440256
 30
0.0
 10
448.569658
 20
23.958119
 30
0.0
 10
449.310716
 20
21.735009
 30
0.0
 10
450.792824
 20
20.252873
 30
0.0
 10
452.274933
 20
19.511804
 30
0.0
 10
454.498099
 20
19.511804
 30
0.0
 10
455.980207
 20
20.252873
 30
0.0
 10
457.462316
 20
21.735009
 30
0.0
  0
LWPOLYLINE
  5
190
100
AcDbEntity
  8
Layer_1
 62
7
100
AcDbPolyline
 90
17
 70
0
 10
449.310716
 20
25.440256
 30
0.0
 10
456.721266
 20
25.440256
 30
0.0
 10
456.721266
 20
26.922393
 30
0.0
 10
455.980207
 20
28.404395
 30
0.0
 10
454.498099
 20
29.145463
 30
0.0
 10
452.274933
 20
29.145463
 30
0.0
 10
450.792824
 20
28.404395
 30
0.0
 10
450.051766
 20
27.663365
 30
0.0
 10
449.310716
 20
25.440256
 30
0.0
 10
449.310716
 20
23.958119
 30
0.0
 10
450.051766
 20
21.735009
 30
0.0
 10
450.792824
 20
20.993941
 30
0.0
 10
452.274933
 20
20.252873
 30
0.0
 10
454.498099
 20
20.252873
 30
0.0
 10
455.980207
 20
20.993941
 30
0.0
 10
456.721266
 20
22.475982
 30
0.0
 10
457.462316
 20
21.735009
 30
0.0
  0
LWPOLYLINE
  5
191
100
AcDbEntity
  8
Layer_1
 62
7
100
AcDbPolyline
 90
3
 70
0
 10
462.649708
 20
29.886532
 30
0.0
 10
462.649708
 20
19.511804
 30
0.0
 10
463.390757
 20
19.511804
 30
0.0
  0
LWPOLYLINE
  5
192
100
AcDbEntity
  8
Layer_1
 62
7
100
AcDbPolyline
 90
3
 70
0
 10
462.649708
 20
29.886532
 30
0.0
 10
463.390757
 20
29.886532
 30
0.0
 10
463.390757
 20
19.511804
 30
0.0
  0
LWPOLYLINE
  5
193
100
AcDbEntity
  8
Layer_1
 62
7
100
AcDbPolyline
 90
5
 70
0
 10
463.390757
 20
25.440256
 30
0.0
 10
464.131816
 20
27.663365
 30
0.0
 10
465.613924
 20
29.145463
 30
0.0
 10
467.096032
 20
29.886532
 30
0.0
 10
469.319199
 20
29.886532
 30
0.0
  0
LWPOLYLINE
  5
194
100
AcDbEntity
  8
Layer_1
 62
7
100
AcDbPolyline
 90
6
 70
0
 10
463.390757
 20
25.440256
 30
0.0
 10
464.131816
 20
26.922393
 30
0.0
 10
465.613924
 20
28.404395
 30
0.0
 10
467.096032
 20
29.145463
 30
0.0
 10
469.319199
 20
29.145463
 30
0.0
 10
469.319199
 20
29.886532
 30
0.0
  0
LWPOLYLINE
  5
195
100
AcDbEntity
  8
Layer_1
 62
7
100
AcDbPolyline
 90
2
 70
0
 10
484.881358
 20
35.073915
 30
0.0
 10
484.881358
 20
19.511804
 30
0.0
  0
LWPOLYLINE
  5
196
100
AcDbEntity
  8
Layer_1
 62
7
100
AcDbPolyline
 90
3
 70
0
 10
485.622407
 20
34.332846
 30
0.0
 10
485.622407
 20
19.511804
 30
0.0
 10
484.881358
 20
19.511804
 30
0.0
  0
LWPOLYLINE
  5
197
100
AcDbEntity
  8
Layer_1
 62
7
100
AcDbPolyline
 90
10
 70
0
 10
484.881358
 20
35.073915
 30
0.0
 10
491.550849
 20
35.073915
 30
0.0
 10
493.032957
 20
34.332846
 30
0.0
 10
493.774016
 20
33.591778
 30
0.0
 10
494.515075
 20
32.109737
 30
0.0
 10
494.515075
 20
29.886532
 30
0.0
 10
493.774016
 20
28.404395
 30
0.0
 10
493.032957
 20
27.663365
 30
0.0
 10
491.550849
 20
26.922393
 30
0.0
 10
485.622407
 20
26.922393
 30
0.0
  0
LWPOLYLINE
  5
198
100
AcDbEntity
  8
Layer_1
 62
7
100
AcDbPolyline
 90
8
 70
0
 10
485.622407
 20
34.332846
 30
0.0
 10
491.550849
 20
34.332846
 30
0.0
 10
493.032957
 20
33.591778
 30
0.0
 10
493.774016
 20
32.109737
 30
0.0
 10
493.774016
 20
29.886532
 30
0.0
 10
493.032957
 20
28.404395
 30
0.0
 10
491.550849
 20
27.663365
 30
0.0
 10
485.622407
 20
27.663365
 30
0.0
  0
LWPOLYLINE
  5
199
100
AcDbEntity
  8
Layer_1
 62
7
100
AcDbPolyline
 90
3
 70
0
 10
499.702458
 20
29.886532
 30
0.0
 10
499.702458
 20
19.511804
 30
0.0
 10
500.443507
 20
19.511804
 30
0.0
  0
LWPOLYLINE
  5
19a
100
AcDbEntity
  8
Layer_1
 62
7
100
AcDbPolyline
 90
3
 70
0
 10
499.702458
 20
29.886532
 30
0.0
 10
500.443507
 20
29.886532
 30
0.0
 10
500.443507
 20
19.511804
 30
0.0
  0
LWPOLYLINE
  5
19b
100
AcDbEntity
  8
Layer_1
 62
7
100
AcDbPolyline
 90
5
 70
0
 10
500.443507
 20
25.440256
 30
0.0
 10
501.184566
 20
27.663365
 30
0.0
 10
502.666674
 20
29.145463
 30
0.0
 10
504.148782
 20
29.886532
 30
0.0
 10
506.371949
 20
29.886532
 30
0.0
  0
LWPOLYLINE
  5
19c
100
AcDbEntity
  8
Layer_1
 62
7
100
AcDbPolyline
 90
6
 70
0
 10
500.443507
 20
25.440256
 30
0.0
 10
501.184566
 20
26.922393
 30
0.0
 10
502.666674
 20
28.404395
 30
0.0
 10
504.148782
 20
29.145463
 30
0.0
 10
506.371949
 20
29.145463
 30
0.0
 10
506.371949
 20
29.886532
 30
0.0
  0
LWPOLYLINE
  5
19d
100
AcDbEntity
  8
Layer_1
 62
7
100
AcDbPolyline
 90
17
 70
0
 10
513.041450
 20
29.886532
 30
0.0
 10
511.559342
 20
29.145463
 30
0.0
 10
510.077224
 20
27.663365
 30
0.0
 10
509.336175
 20
25.440256
 30
0.0
 10
509.336175
 20
23.958119
 30
0.0
 10
510.077224
 20
21.735009
 30
0.0
 10
511.559342
 20
20.252873
 30
0.0
 10
513.041450
 20
19.511804
 30
0.0
 10
515.264617
 20
19.511804
 30
0.0
 10
516.746725
 20
20.252873
 30
0.0
 10
518.228833
 20
21.735009
 30
0.0
 10
518.969892
 20
23.958119
 30
0.0
 10
518.969892
 20
25.440256
 30
0.0
 10
518.228833
 20
27.663365
 30
0.0
 10
516.746725
 20
29.145463
 30
0.0
 10
515.264617
 20
29.886532
 30
0.0
 10
513.041450
 20
29.886532
 30
0.0
  0
LWPOLYLINE
  5
19e
100
AcDbEntity
  8
Layer_1
 62
7
100
AcDbPolyline
 90
17
 70
0
 10
513.041450
 20
29.145463
 30
0.0
 10
511.559342
 20
28.404395
 30
0.0
 10
510.818283
 20
27.663365
 30
0.0
 10
510.077224
 20
25.440256
 30
0.0
 10
510.077224
 20
23.958119
 30
0.0
 10
510.818283
 20
21.735009
 30
0.0
 10
511.559342
 20
20.993941
 30
0.0
 10
513.041450
 20
20.252873
 30
0.0
 10
515.264617
 20
20.252873
 30
0.0
 10
516.746725
 20
20.993941
 30
0.0
 10
517.487774
 20
21.735009
 30
0.0
 10
518.228833
 20
23.958119
 30
0.0
 10
518.228833
 20
25.440256
 30
0.0
 10
517.487774
 20
27.663365
 30
0.0
 10
516.746725
 20
28.404395
 30
0.0
 10
515.264617
 20
29.145463
 30
0.0
 10
513.041450
 20
29.145463
 30
0.0
  0
LWPOLYLINE
  5
19f
100
AcDbEntity
  8
Layer_1
 62
7
100
AcDbPolyline
 90
9
 70
0
 10
524.157275
 20
35.073915
 30
0.0
 10
523.416216
 20
34.332846
 30
0.0
 10
523.416216
 20
33.591778
 30
0.0
 10
524.157275
 20
32.850709
 30
0.0
 10
524.898324
 20
32.850709
 30
0.0
 10
525.639383
 20
33.591778
 30
0.0
 10
525.639383
 20
34.332846
 30
0.0
 10
524.898324
 20
35.073915
 30
0.0
 10
524.157275
 20
35.073915
 30
0.0
  0
LWPOLYLINE
  5
1a0
100
AcDbEntity
  8
Layer_1
 62
7
100
AcDbPolyline
 90
5
 70
0
 10
524.157275
 20
34.332846
 30
0.0
 10
524.157275
 20
33.591778
 30
0.0
 10
524.898324
 20
33.591778
 30
0.0
 10
524.898324
 20
34.332846
 30
0.0
 10
524.157275
 20
34.332846
 30
0.0
  0
LWPOLYLINE
  5
1a1
100
AcDbEntity
  8
Layer_1
 62
7
100
AcDbPolyline
 90
3
 70
0
 10
524.157275
 20
29.886532
 30
0.0
 10
524.157275
 20
14.324421
 30
0.0
 10
524.898324
 20
14.324421
 30
0.0
  0
LWPOLYLINE
  5
1a2
100
AcDbEntity
  8
Layer_1
 62
7
100
AcDbPolyline
 90
3
 70
0
 10
524.157275
 20
29.886532
 30
0.0
 10
524.898324
 20
29.886532
 30
0.0
 10
524.898324
 20
14.324421
 30
0.0
  0
LWPOLYLINE
  5
1a3
100
AcDbEntity
  8
Layer_1
 62
7
100
AcDbPolyline
 90
17
 70
0
 10
530.826766
 20
24.699187
 30
0.0
 10
538.978374
 20
24.699187
 30
0.0
 10
538.978374
 20
26.922393
 30
0.0
 10
538.237316
 20
28.404395
 30
0.0
 10
537.496266
 20
29.145463
 30
0.0
 10
536.014149
 20
29.886532
 30
0.0
 10
533.790991
 20
29.886532
 30
0.0
 10
532.308874
 20
29.145463
 30
0.0
 10
530.826766
 20
27.663365
 30
0.0
 10
530.085716
 20
25.440256
 30
0.0
 10
530.085716
 20
23.958119
 30
0.0
 10
530.826766
 20
21.735009
 30
0.0
 10
532.308874
 20
20.252873
 30
0.0
 10
533.790991
 20
19.511804
 30
0.0
 10
536.014149
 20
19.511804
 30
0.0
 10
537.496266
 20
20.252873
 30
0.0
 10
538.978374
 20
21.735009
 30
0.0
  0
LWPOLYLINE
  5
1a4
100
AcDbEntity
  8
Layer_1
 62
7
100
AcDbPolyline
 90
17
 70
0
 10
530.826766
 20
25.440256
 30
0.0
 10
538.237316
 20
25.440256
 30
0.0
 10
538.237316
 20
26.922393
 30
0.0
 10
537.496266
 20
28.404395
 30
0.0
 10
536.014149
 20
29.145463
 30
0.0
 10
533.790991
 20
29.145463
 30
0.0
 10
532.308874
 20
28.404395
 30
0.0
 10
531.567825
 20
27.663365
 30
0.0
 10
530.826766
 20
25.440256
 30
0.0
 10
530.826766
 20
23.958119
 30
0.0
 10
531.567825
 20
21.735009
 30
0.0
 10
532.308874
 20
20.993941
 30
0.0
 10
533.790991
 20
20.252873
 30
0.0
 10
536.014149
 20
20.252873
 30
0.0
 10
537.496266
 20
20.993941
 30
0.0
 10
538.237316
 20
22.475982
 30
0.0
 10
538.978374
 20
21.735009
 30
0.0
  0
LWPOLYLINE
  5
1a5
100
AcDbEntity
  8
Layer_1
 62
7
100
AcDbPolyline
 90
14
 70
0
 10
552.317366
 20
27.663365
 30
0.0
 10
550.835258
 20
29.145463
 30
0.0
 10
549.353141
 20
29.886532
 30
0.0
 10
547.129983
 20
29.886532
 30
0.0
 10
545.647866
 20
29.145463
 30
0.0
 10
544.165757
 20
27.663365
 30
0.0
 10
543.424708
 20
25.440256
 30
0.0
 10
543.424708
 20
23.958119
 30
0.0
 10
544.165757
 20
21.735009
 30
0.0
 10
545.647866
 20
20.252873
 30
0.0
 10
547.129983
 20
19.511804
 30
0.0
 10
549.353141
 20
19.511804
 30
0.0
 10
550.835258
 20
20.252873
 30
0.0
 10
552.317366
 20
21.735009
 30
0.0
  0
LWPOLYLINE
  5
1a6
100
AcDbEntity
  8
Layer_1
 62
7
100
AcDbPolyline
 90
16
 70
0
 10
552.317366
 20
27.663365
 30
0.0
 10
551.576307
 20
26.922393
 30
0.0
 10
550.835258
 20
28.404395
 30
0.0
 10
549.353141
 20
29.145463
 30
0.0
 10
547.129983
 20
29.145463
 30
0.0
 10
545.647866
 20
28.404395
 30
0.0
 10
544.906816
 20
27.663365
 30
0.0
 10
544.165757
 20
25.440256
 30
0.0
 10
544.165757
 20
23.958119
 30
0.0
 10
544.906816
 20
21.735009
 30
0.0
 10
545.647866
 20
20.993941
 30
0.0
 10
547.129983
 20
20.252873
 30
0.0
 10
549.353141
 20
20.252873
 30
0.0
 10
550.835258
 20
20.993941
 30
0.0
 10
551.576307
 20
22.475982
 30
0.0
 10
552.317366
 20
21.735009
 30
0.0
  0
LWPOLYLINE
  5
1a7
100
AcDbEntity
  8
Layer_1
 62
7
100
AcDbPolyline
 90
3
 70
0
 10
558.245808
 20
35.073915
 30
0.0
 10
558.245808
 20
19.511804
 30
0.0
 10
558.986857
 20
19.511804
 30
0.0
  0
LWPOLYLINE
  5
1a8
100
AcDbEntity
  8
Layer_1
 62
7
100
AcDbPolyline
 90
3
 70
0
 10
558.245808
 20
35.073915
 30
0.0
 10
558.986857
 20
35.073915
 30
0.0
 10
558.986857
 20
19.511804
 30
0.0
  0
LWPOLYLINE
  5
1a9
100
AcDbEntity
  8
Layer_1
 62
7
100
AcDbPolyline
 90
3
 70
0
 10
556.022641
 20
29.886532
 30
0.0
 10
561.210024
 20
29.886532
 30
0.0
 10
561.210024
 20
29.145463
 30
0.0
  0
LWPOLYLINE
  5
1aa
100
AcDbEntity
  8
Layer_1
 62
7
100
AcDbPolyline
 90
3
 70
0
 10
556.022641
 20
29.886532
 30
0.0
 10
556.022641
 20
29.145463
 30
0.0
 10
561.210024
 20
29.145463
 30
0.0
  0
LWPOLYLINE
  5
1ab
100
AcDbEntity
  8
Layer_1
 62
7
100
AcDbPolyline
 90
10
 70
0
 10
573.066908
 20
27.663365
 30
0.0
 10
572.325849
 20
29.145463
 30
0.0
 10
570.102682
 20
29.886532
 30
0.0
 10
567.879515
 20
29.886532
 30
0.0
 10
565.656358
 20
29.145463
 30
0.0
 10
564.915299
 20
27.663365
 30
0.0
 10
565.656358
 20
26.181324
 30
0.0
 10
567.138466
 20
25.440256
 30
0.0
 10
570.843741
 20
23.958119
 30
0.0
 10
572.325849
 20
23.217050
 30
0.0
  0
LWPOLYLINE
  5
1ac
100
AcDbEntity
  8
Layer_1
 62
7
100
AcDbPolyline
 90
4
 70
0
 10
571.584800
 20
23.958119
 30
0.0
 10
572.325849
 20
22.475982
 30
0.0
 10
572.325849
 20
21.735009
 30
0.0
 10
571.584800
 20
20.252873
 30
0.0
  0
LWPOLYLINE
  5
1ad
100
AcDbEntity
  8
Layer_1
 62
7
100
AcDbPolyline
 90
4
 70
0
 10
572.325849
 20
20.993941
 30
0.0
 10
570.102682
 20
20.252873
 30
0.0
 10
567.879515
 20
20.252873
 30
0.0
 10
565.656358
 20
20.993941
 30
0.0
  0
LWPOLYLINE
  5
1ae
100
AcDbEntity
  8
Layer_1
 62
7
100
AcDbPolyline
 90
3
 70
0
 10
566.397407
 20
20.252873
 30
0.0
 10
565.656358
 20
21.735009
 30
0.0
 10
564.915299
 20
21.735009
 30
0.0
  0
LWPOLYLINE
  5
1af
100
AcDbEntity
  8
Layer_1
 62
7
100
AcDbPolyline
 90
3
 70
0
 10
573.066908
 20
27.663365
 30
0.0
 10
572.325849
 20
27.663365
 30
0.0
 10
571.584800
 20
29.145463
 30
0.0
  0
LWPOLYLINE
  5
1b0
100
AcDbEntity
  8
Layer_1
 62
7
100
AcDbPolyline
 90
4
 70
0
 10
572.325849
 20
28.404395
 30
0.0
 10
570.102682
 20
29.145463
 30
0.0
 10
567.879515
 20
29.145463
 30
0.0
 10
565.656358
 20
28.404395
 30
0.0
  0
LWPOLYLINE
  5
1b1
100
AcDbEntity
  8
Layer_1
 62
7
100
AcDbPolyline
 90
3
 70
0
 10
566.397407
 20
29.145463
 30
0.0
 10
565.656358
 20
27.663365
 30
0.0
 10
566.397407
 20
26.181324
 30
0.0
  0
SPLINE
  5
1b2
100
AcDbEntity
  8
Layer_1
 62
5
100
AcDbSpline
 70
0
 71
3
 72
13
 73
9
 74
7
 40
0.000000
 40
0.000000
 40
0.000000
 40
0.000000
 40
0.660253
 40
1.842713
 40
2.700837
 40
7.207820
 40
14.375044
 40
18.116630
 40
18.116630
 40
18.116630
 40
18.116630
 10
503.880016
 20
747.378852
 30
0.0
 10
504.052650
 20
747.249755
 30
0.0
 10
504.534456
 20
746.889455
 30
0.0
 10
505.382562
 20
746.292830
 30
0.0
 10
504.909456
 20
743.913217
 30
0.0
 10
500.592753
 20
742.113920
 30
0.0
 10
497.307738
 20
738.243827
 30
0.0
 10
494.553102
 20
735.854134
 30
0.0
 10
493.608296
 20
735.034500
 30
0.0
 11
503.880016
 21
747.378852
 31
0.0
 11
504.410349
 21
746.985557
 31
0.0
 11
505.219734
 21
746.123520
 31
0.0
 11
505.135752
 21
745.269516
 31
0.0
 11
501.737609
 21
742.308854
 31
0.0
 11
496.392124
 21
737.534453
 31
0.0
 11
493.608296
 21
735.034500
 31
0.0
  0
SPLINE
  5
1b3
100
AcDbEntity
  8
Layer_1
 62
7
100
AcDbSpline
 70
0
 71
3
 72
10
 73
6
 74
4
 40
0.000000
 40
0.000000
 40
0.000000
 40
0.000000
 40
10.665405
 40
21.712790
 40
33.754458
 40
33.754458
 40
33.754458
 40
33.754458
 10
123.955976
 20
607.925353
 30
0.0
 10
126.816349
 20
605.817198
 30
0.0
 10
132.639539
 20
601.525384
 30
0.0
 10
142.219453
 20
595.518307
 30
0.0
 10
149.459710
 20
592.848087
 30
0.0
 10
153.235731
 20
591.455484
 30
0.0
 11
123.955976
 21
607.925353
 31
0.0
 11
132.618927
 21
601.704088
 31
0.0
 11
142.094612
 21
596.024641
 31
0.0
 11
153.235731
 21
591.455484
 31
0.0
  0
SPLINE
  5
1b4
100
AcDbEntity
  8
Layer_1
 62
7
100
AcDbSpline
 70
0
 71
3
 72
10
 73
6
 74
4
 40
0.000000
 40
0.000000
 40
0.000000
 40
0.000000
 40
14.684116
 40
25.281284
 40
35.252003
 40
35.252003
 40
35.252003
 40
35.252003
 10
153.235731
 20
591.455484
 30
0.0
 10
154.357007
 20
596.236994
 30
0.0
 10
156.287480
 20
604.469204
 30
0.0
 10
156.319114
 20
616.301216
 30
0.0
 10
157.939949
 20
622.985068
 30
0.0
 10
158.725683
 20
626.225207
 30
0.0
 11
153.235731
 21
591.455484
 31
0.0
 11
155.955942
 21
605.885443
 31
0.0
 11
156.745045
 21
616.453191
 31
0.0
 11
158.725683
 21
626.225207
 31
0.0
  0
SPLINE
  5
1b5
100
AcDbEntity
  8
Layer_1
 62
7
100
AcDbSpline
 70
0
 71
3
 72
10
 73
6
 74
4
 40
0.000000
 40
0.000000
 40
0.000000
 40
0.000000
 40
18.466933
 40
36.358147
 40
64.225025
 40
64.225025
 40
64.225025
 40
64.225025
 10
158.725683
 20
626.225207
 30
0.0
 10
162.779733
 20
631.459068
 30
0.0
 10
170.761445
 20
641.763621
 30
0.0
 10
196.725722
 20
635.742005
 30
0.0
 10
198.509195
 20
618.833007
 30
0.0
 10
199.595337
 20
608.535353
 30
0.0
 11
158.725683
 21
626.225207
 31
0.0
 11
172.620636
 21
638.389001
 31
0.0
 11
190.137481
 21
634.748172
 31
0.0
 11
199.595337
 21
608.535353
 31
0.0
  0
SPLINE
  5
1b6
100
AcDbEntity
  8
Layer_1
 62
7
100
AcDbSpline
 70
0
 71
3
 72
10
 73
6
 74
4
 40
0.000000
 40
0.000000
 40
0.000000
 40
0.000000
 40
4.840353
 40
9.561460
 40
13.416767
 40
13.416767
 40
13.416767
 40
13.416767
 10
199.595337
 20
608.535353
 30
0.0
 10
199.406228
 20
606.944016
 30
0.0
 10
199.032669
 20
603.800547
 30
0.0
 10
199.046655
 20
599.151059
 30
0.0
 10
197.321065
 20
596.787796
 30
0.0
 10
196.545370
 20
595.725451
 30
0.0
 11
199.595337
 21
608.535353
 31
0.0
 11
199.126298
 21
603.717779
 31
0.0
 11
198.521954
 21
599.035513
 31
0.0
 11
196.545370
 21
595.725451
 31
0.0
  0
SPLINE
  5
1b7
100
AcDbEntity
  8
Layer_1
 62
7
100
AcDbSpline
 70
0
 71
3
 72
13
 73
9
 74
7
 40
0.000000
 40
0.000000
 40
0.000000
 40
0.000000
 40
4.403645
 40
7.073879
 40
8.532490
 40
14.208103
 40
19.786578
 40
22.345339
 40
22.345339
 40
22.345339
 40
22.345339
 10
196.545370
 20
595.725451
 30
0.0
 10
196.160526
 20
594.026610
 30
0.0
 10
195.542324
 20
591.297645
 30
0.0
 10
191.992389
 20
591.747316
 30
0.0
 10
190.276659
 20
588.583138
 30
0.0
 10
192.174219
 20
584.254793
 30
0.0
 10
190.331331
 20
579.782567
 30
0.0
 10
190.418126
 20
577.061314
 30
0.0
 10
190.445419
 20
576.205614
 30
0.0
 11
196.545370
 21
595.725451
 31
0.0
 11
194.489869
 21
591.830967
 31
0.0
 11
191.904574
 21
591.162836
 31
0.0
 11
191.111312
 21
589.938792
 31
0.0
 11
191.379594
 21
584.269523
 31
0.0
 11
190.479472
 21
578.764148
 31
0.0
 11
190.445419
 21
576.205614
 31
0.0
  0
SPLINE
  5
1b8
100
AcDbEntity
  8
Layer_1
 62
7
100
AcDbSpline
 70
0
 71
3
 72
10
 73
6
 74
4
 40
0.000000
 40
0.000000
 40
0.000000
 40
0.000000
 40
8.650774
 40
17.002726
 40
25.532274
 40
25.532274
 40
25.532274
 40
25.532274
 10
190.445419
 20
576.205614
 30
0.0
 10
193.193340
 20
575.208784
 30
0.0
 10
198.594261
 20
573.249559
 30
0.0
 10
207.243113
 20
574.253739
 30
0.0
 10
212.698711
 20
575.550442
 30
0.0
 10
215.455207
 20
576.205614
 30
0.0
 11
190.445419
 21
576.205614
 31
0.0
 11
198.782015
 21
573.895406
 31
0.0
 11
207.118611
 21
574.401632
 31
0.0
 11
215.455207
 21
576.205614
 31
0.0
  0
SPLINE
  5
1b9
100
AcDbEntity
  8
Layer_1
 62
7
100
AcDbSpline
 70
0
 71
3
 72
10
 73
6
 74
4
 40
0.000000
 40
0.000000
 40
0.000000
 40
0.000000
 40
7.394865
 40
14.709737
 40
21.707574
 40
21.707574
 40
21.707574
 40
21.707574
 10
215.455207
 20
576.205614
 30
0.0
 10
216.319814
 20
578.510514
 30
0.0
 10
218.039676
 20
583.095383
 30
0.0
 10
220.759772
 20
589.853088
 30
0.0
 10
221.293974
 20
594.616501
 30
0.0
 10
221.555158
 20
596.945451
 30
0.0
 11
215.455207
 21
576.205614
 31
0.0
 11
218.080205
 21
583.118892
 31
0.0
 11
220.470580
 21
590.032173
 31
0.0
 11
221.555158
 21
596.945451
 31
0.0
  0
SPLINE
  5
1ba
100
AcDbEntity
  8
Layer_1
 62
7
100
AcDbSpline
 70
0
 71
3
 72
10
 73
6
 74
4
 40
0.000000
 40
0.000000
 40
0.000000
 40
0.000000
 40
11.023647
 40
21.039787
 40
30.153193
 40
30.153193
 40
30.153193
 40
30.153193
 10
221.555158
 20
596.945451
 30
0.0
 10
221.208358
 20
600.568633
 30
0.0
 10
220.546454
 20
607.483855
 30
0.0
 10
220.439172
 20
618.015576
 30
0.0
 10
224.500347
 20
623.162966
 30
0.0
 10
226.435109
 20
625.615207
 30
0.0
 11
221.555158
 21
596.945451
 31
0.0
 11
220.675912
 21
607.933978
 31
0.0
 11
221.567999
 21
617.910312
 31
0.0
 11
226.435109
 21
625.615207
 31
0.0
  0
SPLINE
  5
1bb
100
AcDbEntity
  8
Layer_1
 62
7
100
AcDbSpline
 70
0
 71
3
 72
10
 73
6
 74
4
 40
0.000000
 40
0.000000
 40
0.000000
 40
0.000000
 40
8.518932
 40
16.036670
 40
22.130020
 40
22.130020
 40
22.130020
 40
22.130020
 10
226.435109
 20
625.615207
 30
0.0
 10
227.064886
 20
622.873488
 30
0.0
 10
228.250424
 20
617.712273
 30
0.0
 10
230.280680
 20
610.282503
 30
0.0
 10
233.944736
 20
607.428797
 30
0.0
 10
235.585044
 20
606.151263
 30
0.0
 11
226.435109
 21
625.615207
 31
0.0
 11
228.405061
 21
617.327173
 31
0.0
 11
231.148188
 21
610.327771
 31
0.0
 11
235.585044
 21
606.151263
 31
0.0
  0
SPLINE
  5
1bc
100
AcDbEntity
  8
Layer_1
 62
7
100
AcDbSpline
 70
0
 71
3
 72
10
 73
6
 74
4
 40
0.000000
 40
0.000000
 40
0.000000
 40
0.000000
 40
13.340177
 40
24.041637
 40
35.795451
 40
35.795451
 40
35.795451
 40
35.795451
 10
235.585044
 20
606.151263
 30
0.0
 10
238.396552
 20
609.569393
 30
0.0
 10
243.463444
 20
615.729539
 30
0.0
 10
254.743678
 20
621.995324
 30
0.0
 10
255.381177
 20
629.977170
 30
0.0
 10
255.714865
 20
634.155125
 30
0.0
 11
235.585044
 21
606.151263
 31
0.0
 11
244.792172
 21
615.804715
 31
0.0
 11
252.949680
 21
622.731207
 31
0.0
 11
255.714865
 21
634.155125
 31
0.0
  0
LWPOLYLINE
  5
1bd
100
AcDbEntity
  8
Layer_1
 62
7
100
AcDbPolyline
 90
11
 70
0
 10
565.656358
 20
26.922393
 30
0.0
 10
567.138466
 20
26.181324
 30
0.0
 10
570.843741
 20
24.699187
 30
0.0
 10
572.325849
 20
23.958119
 30
0.0
 10
573.066908
 20
22.475982
 30
0.0
 10
573.066908
 20
21.735009
 30
0.0
 10
572.325849
 20
20.252873
 30
0.0
 10
570.102682
 20
19.511804
 30
0.0
 10
567.879515
 20
19.511804
 30
0.0
 10
565.656358
 20
20.252873
 30
0.0
 10
564.915299
 20
21.735009
 30
0.0
  0
SPLINE
  5
1be
100
AcDbEntity
  8
Layer_1
 62
7
100
AcDbSpline
 70
0
 71
3
 72
10
 73
6
 74
4
 40
0.000000
 40
0.000000
 40
0.000000
 40
0.000000
 40
20.287289
 40
34.165057
 40
48.199608
 40
48.199608
 40
48.199608
 40
48.199608
 10
255.714865
 20
634.155125
 30
0.0
 10
258.996119
 20
627.732924
 30
0.0
 10
264.521955
 20
616.917537
 30
0.0
 10
257.050012
 20
601.241299
 30
0.0
 10
250.478938
 20
594.729614
 30
0.0
 10
247.174946
 20
591.455484
 30
0.0
 11
255.714865
 21
634.155125
 31
0.0
 11
261.742731
 21
614.784041
 31
0.0
 11
256.519581
 21
601.926703
 31
0.0
 11
247.174946
 21
591.455484
 31
0.0
  0
SPLINE
  5
1bf
100
AcDbEntity
  8
Layer_1
 62
7
100
AcDbSpline
 70
0
 71
3
 72
10
 73
6
 74
4
 40
0.000000
 40
0.000000
 40
0.000000
 40
0.000000
 40
16.369925
 40
36.676175
 40
55.277562
 40
55.277562
 40
55.277562
 40
55.277562
 10
250.224914
 20
587.185532
 30
0.0
 10
247.267639
 20
582.612737
 30
0.0
 10
240.641982
 20
572.367570
 30
0.0
 10
236.682906
 20
552.983108
 30
0.0
 10
224.797486
 20
546.408940
 30
0.0
 10
219.115174
 20
543.265891
 30
0.0
 11
250.224914
 21
587.185532
 31
0.0
 11
242.149726
 21
572.945947
 31
0.0
 11
234.082390
 21
554.310983
 31
0.0
 11
219.115174
 21
543.265891
 31
0.0
  0
SPLINE
  5
1c0
100
AcDbEntity
  8
Layer_1
 62
7
100
AcDbSpline
 70
0
 71
3
 72
10
 73
6
 74
4
 40
0.000000
 40
0.000000
 40
0.000000
 40
0.000000
 40
7.969439
 40
19.301134
 40
38.900483
 40
38.900483
 40
38.900483
 40
38.900483
 10
219.115174
 20
543.265891
 30
0.0
 10
221.599945
 20
542.027002
 30
0.0
 10
227.617797
 20
539.026546
 30
0.0
 10
230.186337
 20
524.917655
 30
0.0
 10
229.010290
 20
514.865621
 30
0.0
 10
228.265093
 20
508.496184
 30
0.0
 11
219.115174
 21
543.265891
 31
0.0
 11
225.760797
 21
538.867295
 31
0.0
 11
229.208482
 21
528.072815
 31
0.0
 11
228.265093
 21
508.496184
 31
0.0
  0
SPLINE
  5
1c1
100
AcDbEntity
  8
Layer_1
 62
7
100
AcDbSpline
 70
0
 71
3
 72
10
 73
6
 74
4
 40
0.000000
 40
0.000000
 40
0.000000
 40
0.000000
 40
9.881860
 40
16.669973
 40
26.188283
 40
26.188283
 40
26.188283
 40
26.188283
 10
228.265093
 20
508.496184
 30
0.0
 10
231.431874
 20
509.424217
 30
0.0
 10
236.774003
 20
510.989742
 30
0.0
 10
246.419448
 20
507.309820
 30
0.0
 10
245.355819
 20
501.125919
 30
0.0
 10
244.734963
 20
497.516282
 30
0.0
 11
228.265093
 21
508.496184
 31
0.0
 11
238.045722
 21
509.907011
 31
0.0
 11
244.188796
 21
507.018909
 31
0.0
 11
244.734963
 21
497.516282
 31
0.0
  0
LWPOLYLINE
  5
1c2
100
AcDbEntity
  8
Layer_1
 62
7
100
AcDbPolyline
 90
2
 70
1
 10
247.174946
 20
591.455484
 30
0.0
 10
250.224914
 20
587.185532
 30
0.0
  0
SPLINE
  5
1c3
100
AcDbEntity
  8
Layer_1
 62
7
100
AcDbSpline
 70
0
 71
3
 72
10
 73
6
 74
4
 40
0.000000
 40
0.000000
 40
0.000000
 40
0.000000
 40
14.493418
 40
28.639757
 40
43.577896
 40
43.577896
 40
43.577896
 40
43.577896
 10
244.734963
 20
497.516282
 30
0.0
 10
241.174547
 20
494.268583
 30
0.0
 10
234.138980
 20
487.850959
 30
0.0
 10
220.323994
 20
481.353113
 30
0.0
 10
210.571237
 20
483.216575
 30
0.0
 10
205.562103
 20
484.173671
 30
0.0
 11
244.734963
 21
497.516282
 31
0.0
 11
233.530319
 21
488.323071
 31
0.0
 11
220.449046
 21
482.937981
 31
0.0
 11
205.562103
 21
484.173671
 31
0.0
  0
SPLINE
  5
1c4
100
AcDbEntity
  8
Layer_1
 62
7
100
AcDbSpline
 70
0
 71
3
 72
10
 73
6
 74
4
 40
0.000000
 40
0.000000
 40
0.000000
 40
0.000000
 40
32.068305
 40
56.138473
 40
81.585106
 40
81.585106
 40
81.585106
 40
81.585106
 10
201.425321
 20
498.126265
 30
0.0
 10
194.249656
 20
489.281690
 30
0.0
 10
181.688003
 20
473.798460
 30
0.0
 10
152.136502
 20
475.062787
 30
0.0
 10
137.009302
 20
481.381769
 30
0.0
 10
129.235450
 20
484.629088
 30
0.0
 11
201.425321
 21
498.126265
 31
0.0
 11
177.362029
 21
476.928761
 31
0.0
 11
153.298742
 21
476.353271
 31
0.0
 11
129.235450
 21
484.629088
 31
0.0
  0
SPLINE
  5
1c5
100
AcDbEntity
  8
Layer_1
 62
7
100
AcDbSpline
 70
0
 71
3
 72
10
 73
6
 74
4
 40
0.000000
 40
0.000000
 40
0.000000
 40
0.000000
 40
9.579534
 40
18.547404
 40
26.514894
 40
26.514894
 40
26.514894
 40
26.514894
 10
129.235450
 20
484.629088
 30
0.0
 10
130.911738
 20
481.958298
 30
0.0
 10
134.157282
 20
476.787251
 30
0.0
 10
140.363330
 20
469.644769
 30
0.0
 10
139.485601
 20
463.799672
 30
0.0
 10
139.072660
 20
461.049760
 30
0.0
 11
129.235450
 21
484.629088
 31
0.0
 11
134.556590
 21
476.663352
 31
0.0
 11
139.239856
 21
469.015496
 31
0.0
 11
139.072660
 21
461.049760
 31
0.0
  0
SPLINE
  5
1c6
100
AcDbEntity
  8
Layer_1
 62
7
100
AcDbSpline
 70
0
 71
3
 72
10
 73
6
 74
4
 40
0.000000
 40
0.000000
 40
0.000000
 40
0.000000
 40
17.923024
 40
34.372613
 40
47.052298
 40
47.052298
 40
47.052298
 40
47.052298
 10
139.072660
 20
461.049760
 30
0.0
 10
133.596368
 20
458.942021
 30
0.0
 10
123.093984
 20
454.899818
 30
0.0
 10
107.691644
 20
447.582047
 30
0.0
 10
98.623495
 20
452.197555
 30
0.0
 10
94.676220
 20
454.206640
 30
0.0
 11
139.072660
 21
461.049760
 31
0.0
 11
122.440048
 21
454.372111
 31
0.0
 11
106.606565
 21
449.912311
 31
0.0
 11
94.676220
 21
454.206640
 31
0.0
  0
LWPOLYLINE
  5
1c7
100
AcDbEntity
  8
Layer_1
 62
7
100
AcDbPolyline
 90
3
 70
1
 10
205.562103
 20
484.173671
 30
0.0
 10
206.915272
 20
498.736265
 30
0.0
 10
201.425321
 20
498.126265
 30
0.0
  0
SPLINE
  5
1c8
100
AcDbEntity
  8
Layer_1
 62
7
100
AcDbSpline
 70
0
 71
3
 72
10
 73
6
 74
4
 40
0.000000
 40
0.000000
 40
0.000000
 40
0.000000
 40
8.660768
 40
15.770174
 40
24.861997
 40
24.861997
 40
24.861997
 40
24.861997
 10
94.676220
 20
454.206640
 30
0.0
 10
93.934270
 20
457.094548
 30
0.0
 10
92.583272
 20
462.353066
 30
0.0
 10
97.170041
 20
470.359846
 30
0.0
 10
102.605721
 20
471.734851
 30
0.0
 10
105.656122
 20
472.506477
 30
0.0
 11
94.676220
 21
454.206640
 31
0.0
 11
93.735339
 21
462.816149
 31
0.0
 11
97.275453
 21
468.981475
 31
0.0
 11
105.656122
 21
472.506477
 31
0.0
  0
SPLINE
  5
1c9
100
AcDbEntity
  8
Layer_1
 62
7
100
AcDbSpline
 70
0
 71
3
 72
10
 73
6
 74
4
 40
0.000000
 40
0.000000
 40
0.000000
 40
0.000000
 40
12.218570
 40
21.890630
 40
31.894629
 40
31.894629
 40
31.894629
 40
31.894629
 10
85.526302
 20
495.076265
 30
0.0
 10
85.046821
 20
499.185690
 30
0.0
 10
84.187791
 20
506.548082
 30
0.0
 10
89.317660
 20
516.760985
 30
0.0
 10
95.296391
 20
519.774076
 30
0.0
 10
98.336188
 20
521.306037
 30
0.0
 11
85.526302
 21
495.076265
 31
0.0
 11
85.452400
 21
507.294611
 31
0.0
 11
89.944253
 21
515.860357
 31
0.0
 11
98.336188
 21
521.306037
 31
0.0
  0
SPLINE
  5
1ca
100
AcDbEntity
  8
Layer_1
 62
7
100
AcDbSpline
 70
0
 71
3
 72
10
 73
6
 74
4
 40
0.000000
 40
0.000000
 40
0.000000
 40
0.000000
 40
3.215843
 40
6.431653
 40
11.704892
 40
11.704892
 40
11.704892
 40
11.704892
 10
98.336188
 20
521.306037
 30
0.0
 10
98.811894
 20
522.243524
 30
0.0
 10
99.763302
 20
524.118487
 30
0.0
 10
101.732743
 20
527.916190
 30
0.0
 10
104.905355
 20
527.601480
 30
0.0
 10
106.876122
 20
527.405988
 30
0.0
 11
98.336188
 21
521.306037
 31
0.0
 11
99.795999
 21
524.171451
 31
0.0
 11
101.636872
 21
526.808233
 31
0.0
 11
106.876122
 21
527.405988
 31
0.0
  0
SPLINE
  5
1cb
100
AcDbEntity
  8
Layer_1
 62
7
100
AcDbSpline
 70
0
 71
3
 72
19
 73
15
 74
13
 40
0.000000
 40
0.000000
 40
0.000000
 40
0.000000
 40
13.361227
 40
25.354251
 40
36.891037
 40
47.699883
 40
70.049817
 40
89.363081
 40
102.915253
 40
120.499321
 40
129.270720
 40
144.316910
 40
159.244233
 40
179.465182
 40
179.465182
 40
179.465182
 40
179.465182
 10
106.876122
 20
527.405988
 30
0.0
 10
107.029952
 20
531.924154
 30
0.0
 10
107.321857
 20
540.497819
 30
0.0
 10
111.538014
 20
551.684176
 30
0.0
 10
116.614465
 20
563.719837
 30
0.0
 10
104.266991
 20
575.038692
 30
0.0
 10
97.443933
 20
590.049027
 30
0.0
 10
86.985656
 20
607.674988
 30
0.0
 10
95.062068
 20
623.763173
 30
0.0
 10
100.900629
 20
635.307196
 30
0.0
 10
109.354284
 20
646.650644
 30
0.0
 10
110.225405
 20
659.707839
 30
0.0
 10
115.392104
 20
676.993868
 30
0.0
 10
127.411236
 20
680.777783
 30
0.0
 10
134.325894
 20
682.954685
 30
0.0
 11
106.876122
 21
527.405988
 31
0.0
 11
108.061252
 21
540.714552
 31
0.0
 11
111.795228
 21
552.111483
 31
0.0
 11
114.196057
 21
563.395695
 31
0.0
 11
107.970507
 21
572.231626
 31
0.0
 11
96.337174
 21
591.315261
 31
0.0
 11
89.861036
 21
609.510364
 31
0.0
 11
94.335280
 21
622.302648
 31
0.0
 11
102.869034
 21
637.677124
 31
0.0
 11
107.486106
 21
645.135011
 31
0.0
 11
110.835712
 21
659.803616
 31
0.0
 11
116.362505
 21
673.670105
 31
0.0
 11
134.325894
 21
682.954685
 31
0.0
  0
SPLINE
  5
1cc
100
AcDbEntity
  8
Layer_1
 62
7
100
AcDbSpline
 70
0
 71
3
 72
10
 73
6
 74
4
 40
0.000000
 40
0.000000
 40
0.000000
 40
0.000000
 40
11.142811
 40
21.904757
 40
32.377775
 40
32.377775
 40
32.377775
 40
32.377775
 10
134.325894
 20
682.954685
 30
0.0
 10
132.971464
 20
679.524440
 30
0.0
 10
130.308899
 20
672.781197
 30
0.0
 10
126.291372
 20
662.361620
 30
0.0
 10
127.995471
 20
655.318561
 30
0.0
 10
128.835927
 20
651.844946
 30
0.0
 11
134.325894
 21
682.954685
 31
0.0
 11
130.248258
 21
672.584771
 31
0.0
 11
127.369989
 21
662.214860
 31
0.0
 11
128.835927
 21
651.844946
 31
0.0
  0
SPLINE
  5
1cd
100
AcDbEntity
  8
Layer_1
 62
7
100
AcDbSpline
 70
0
 71
3
 72
10
 73
6
 74
4
 40
0.000000
 40
0.000000
 40
0.000000
 40
0.000000
 40
8.994352
 40
14.825702
 40
20.449069
 40
20.449069
 40
20.449069
 40
20.449069
 10
128.835927
 20
651.844946
 30
0.0
 10
131.901547
 20
650.977062
 30
0.0
 10
136.954714
 20
649.546499
 30
0.0
 10
142.953381
 20
653.553971
 30
0.0
 10
145.758625
 20
656.089948
 30
0.0
 10
147.135780
 20
657.334913
 30
0.0
 11
128.835927
 21
651.844946
 31
0.0
 11
137.773642
 21
650.837170
 31
0.0
 11
142.870568
 21
653.670187
 31
0.0
 11
147.135780
 21
657.334913
 31
0.0
  0
SPLINE
  5
1ce
100
AcDbEntity
  8
Layer_1
 62
7
100
AcDbSpline
 70
0
 71
3
 72
10
 73
6
 74
4
 40
0.000000
 40
0.000000
 40
0.000000
 40
0.000000
 40
11.301215
 40
20.393389
 40
29.387466
 40
29.387466
 40
29.387466
 40
29.387466
 10
147.135780
 20
657.334913
 30
0.0
 10
146.633242
 20
653.606239
 30
0.0
 10
145.726395
 20
646.877732
 30
0.0
 10
140.285320
 20
637.839314
 30
0.0
 10
134.268168
 20
636.193524
 30
0.0
 10
131.275911
 20
635.375092
 30
0.0
 11
147.135780
 21
657.334913
 31
0.0
 11
144.747118
 21
646.289021
 31
0.0
 11
139.592778
 21
638.799000
 31
0.0
 11
131.275911
 21
635.375092
 31
0.0
  0
LWPOLYLINE
  5
1cf
100
AcDbEntity
  8
Layer_1
 62
7
100
AcDbPolyline
 90
4
 70
1
 10
105.656122
 20
472.506477
 30
0.0
 10
106.609768
 20
476.432799
 30
0.0
 10
95.552558
 20
476.510074
 30
0.0
 10
85.526302
 20
495.076265
 30
0.0
  0
SPLINE
  5
1d0
100
AcDbEntity
  8
Layer_1
 62
7
100
AcDbSpline
 70
0
 71
3
 72
10
 73
6
 74
4
 40
0.000000
 40
0.000000
 40
0.000000
 40
0.000000
 40
9.469667
 40
18.939336
 40
28.409003
 40
28.409003
 40
28.409003
 40
28.409003
 10
131.275911
 20
635.375092
 30
0.0
 10
130.462584
 20
632.325118
 30
0.0
 10
128.835929
 20
626.225169
 30
0.0
 10
126.395957
 20
617.075244
 30
0.0
 10
124.769303
 20
610.975295
 30
0.0
 10
123.955976
 20
607.925321
 30
0.0
 11
131.275911
 21
635.375092
 31
0.0
 11
128.835931
 21
626.225170
 31
0.0
 11
126.395955
 21
617.075243
 31
0.0
 11
123.955976
 21
607.925321
 31
0.0
  0
SPLINE
  5
1d1
100
AcDbEntity
  8
Layer_1
 62
1
100
AcDbSpline
 70
0
 71
3
 72
19
 73
15
 74
13
 40
0.000000
 40
0.000000
 40
0.000000
 40
0.000000
 40
4.518961
 40
8.971157
 40
13.692192
 40
18.477890
 40
23.057193
 40
27.643654
 40
32.162611
 40
36.614802
 40
41.335846
 40
46.026797
 40
50.523419
 40
55.025097
 40
55.025097
 40
55.025097
 40
55.025097
 10
176.114236
 20
602.088375
 30
0.0
 10
174.576211
 20
601.923545
 30
0.0
 10
171.522885
 20
601.596321
 30
0.0
 10
167.435721
 20
604.285759
 30
0.0
 10
165.162675
 20
608.534709
 30
0.0
 10
165.193854
 20
613.436242
 30
0.0
 10
167.503909
 20
617.690351
 30
0.0
 10
171.580848
 20
620.214747
 30
0.0
 10
176.348273
 20
620.175270
 30
0.0
 10
180.393911
 20
617.630604
 30
0.0
 10
182.666296
 20
613.359249
 30
0.0
 10
182.643099
 20
608.577925
 30
0.0
 10
180.488170
 20
604.234486
 30
0.0
 10
177.746213
 20
602.855320
 30
0.0
 10
176.374464
 20
602.165350
 30
0.0
 11
176.114236
 21
602.088375
 31
0.0
 11
171.595415
 21
602.124027
 31
0.0
 11
167.809123
 21
604.466257
 31
0.0
 11
165.560162
 21
608.617202
 31
0.0
 11
165.593832
 21
613.402781
 31
0.0
 11
167.805502
 21
617.412586
 31
0.0
 11
171.725071
 21
619.794308
 31
0.0
 11
176.243888
 21
619.758659
 31
0.0
 11
180.030176
 21
617.416432
 31
0.0
 11
182.279145
 21
613.265481
 31
0.0
 11
182.269741
 21
608.574540
 31
0.0
 11
180.157972
 21
604.604648
 31
0.0
 11
176.374464
 21
602.165350
 31
0.0
  0
SPLINE
  5
1d2
100
AcDbEntity
  8
Layer_1
 62
1
100
AcDbSpline
 70
0
 71
3
 72
19
 73
15
 74
13
 40
0.000000
 40
0.000000
 40
0.000000
 40
0.000000
 40
3.789529
 40
7.523069
 40
11.482054
 40
15.495263
 40
19.335394
 40
23.181527
 40
26.971052
 40
30.704588
 40
34.663581
 40
38.597337
 40
42.368132
 40
46.143168
 40
46.143168
 40
46.143168
 40
46.143168
 10
194.260913
 20
595.634460
 30
0.0
 10
192.971150
 20
595.496236
 30
0.0
 10
190.410680
 20
595.221831
 30
0.0
 10
186.983249
 20
597.477151
 30
0.0
 10
185.077109
 20
601.040253
 30
0.0
 10
185.103255
 20
605.150600
 30
0.0
 10
187.040430
 20
608.718028
 30
0.0
 10
190.459286
 20
610.834946
 30
0.0
 10
194.457173
 20
610.801842
 30
0.0
 10
197.849781
 20
608.667925
 30
0.0
 10
199.755366
 20
605.086035
 30
0.0
 10
199.735914
 20
601.076493
 30
0.0
 10
197.928824
 20
597.434155
 30
0.0
 10
195.629463
 20
596.277608
 30
0.0
 10
194.479136
 20
595.699010
 30
0.0
 11
194.260913
 21
595.634460
 31
0.0
 11
190.471502
 21
595.664357
 31
0.0
 11
187.296378
 21
597.628514
 31
0.0
 11
185.410435
 21
601.109430
 31
0.0
 11
185.438671
 21
605.122540
 31
0.0
 11
187.293342
 21
608.485099
 31
0.0
 11
190.580229
 21
610.482373
 31
0.0
 11
194.369637
 21
610.452478
 31
0.0
 11
197.544758
 21
608.488324
 31
0.0
 11
199.430707
 21
605.007403
 31
0.0
 11
199.422821
 21
601.073654
 31
0.0
 11
197.651925
 21
597.744567
 31
0.0
 11
194.479136
 21
595.699010
 31
0.0
  0
LWPOLYLINE
  5
1d3
100
AcDbEntity
  8
Layer_1
 62
7
100
AcDbPolyline
 90
2
 70
1
 10
123.955976
 20
607.925321
 30
0.0
 10
123.955976
 20
607.925353
 30
0.0
  0
SPLINE
  5
1d4
100
AcDbEntity
  8
Layer_1
 62
1
100
AcDbSpline
 70
0
 71
3
 72
10
 73
6
 74
4
 40
0.000000
 40
0.000000
 40
0.000000
 40
0.000000
 40
10.122937
 40
18.696321
 40
26.730462
 40
26.730462
 40
26.730462
 40
26.730462
 10
108.833823
 20
645.495340
 30
0.0
 10
112.182021
 20
645.255453
 30
0.0
 10
118.365898
 20
644.812400
 30
0.0
 10
127.218738
 20
641.652304
 30
0.0
 10
130.253185
 20
636.851138
 30
0.0
 10
131.721144
 20
634.528502
 30
0.0
 11
108.833823
 21
645.495340
 31
0.0
 11
118.880805
 21
644.257600
 31
0.0
 11
126.740201
 21
640.832282
 31
0.0
 11
131.721144
 21
634.528502
 31
0.0
  0
SPLINE
  5
1d5
100
AcDbEntity
  8
Layer_1
 62
1
100
AcDbSpline
 70
0
 71
3
 72
10
 73
6
 74
4
 40
0.000000
 40
0.000000
 40
0.000000
 40
0.000000
 40
4.594057
 40
8.194745
 40
11.948160
 40
11.948160
 40
11.948160
 40
11.948160
 10
118.847031
 20
598.767052
 30
0.0
 10
118.508507
 20
600.389673
 30
0.0
 10
117.904658
 20
603.284056
 30
0.0
 10
121.104758
 20
606.224570
 30
0.0
 10
123.082589
 20
607.600948
 30
0.0
 10
124.092043
 20
608.303429
 30
0.0
 11
118.847031
 21
598.767052
 31
0.0
 11
118.711034
 21
603.359096
 31
0.0
 11
121.065811
 21
606.083060
 31
0.0
 11
124.092043
 21
608.303429
 31
0.0
  0
SPLINE
  5
1d6
100
AcDbEntity
  8
Layer_1
 62
1
100
AcDbSpline
 70
0
 71
3
 72
10
 73
6
 74
4
 40
0.000000
 40
0.000000
 40
0.000000
 40
0.000000
 40
11.477356
 40
23.529223
 40
37.666102
 40
37.666102
 40
37.666102
 40
37.666102
 10
115.986110
 20
567.773783
 30
0.0
 10
119.254719
 20
569.816253
 30
0.0
 10
125.955550
 20
574.003431
 30
0.0
 10
133.318278
 20
584.679901
 30
0.0
 10
135.377667
 20
593.209218
 30
0.0
 10
136.489341
 20
597.813406
 30
0.0
 11
115.986110
 21
567.773783
 31
0.0
 11
125.291907
 21
574.491807
 31
0.0
 11
132.262713
 21
584.323152
 31
0.0
 11
136.489341
 21
597.813406
 31
0.0
  0
SPLINE
  5
1d7
100
AcDbEntity
  8
Layer_1
 62
1
100
AcDbSpline
 70
0
 71
3
 72
10
 73
6
 74
4
 40
0.000000
 40
0.000000
 40
0.000000
 40
0.000000
 40
12.612909
 40
25.706557
 40
42.479545
 40
42.479545
 40
42.479545
 40
42.479545
 10
149.363453
 20
591.614749
 30
0.0
 10
148.472998
 20
587.528170
 30
0.0
 10
146.658146
 20
579.199253
 30
0.0
 10
145.151168
 20
564.666138
 30
0.0
 10
149.985978
 20
555.663907
 30
0.0
 10
152.701189
 20
550.608288
 30
0.0
 11
149.363453
 21
591.614749
 31
0.0
 11
146.909448
 21
579.242873
 31
0.0
 11
146.414574
 21
566.158580
 31
0.0
 11
152.701189
 21
550.608288
 31
0.0
  0
SPLINE
  5
1d8
100
AcDbEntity
  8
Layer_1
 62
1
100
AcDbSpline
 70
0
 71
3
 72
10
 73
6
 74
4
 40
0.000000
 40
0.000000
 40
0.000000
 40
0.000000
 40
17.106502
 40
34.935527
 40
59.776267
 40
59.776267
 40
59.776267
 40
59.776267
 10
184.171271
 20
574.449255
 30
0.0
 10
181.208710
 20
569.549252
 30
0.0
 10
175.158461
 20
559.542285
 30
0.0
 10
157.703937
 20
547.680692
 30
0.0
 10
143.089843
 20
548.626961
 30
0.0
 10
134.582065
 20
549.177844
 30
0.0
 11
184.171271
 21
574.449255
 31
0.0
 11
174.288359
 21
560.486430
 31
0.0
 11
159.375168
 21
550.715510
 31
0.0
 11
134.582065
 21
549.177844
 31
0.0
  0
SPLINE
  5
1d9
100
AcDbEntity
  8
Layer_1
 62
1
100
AcDbSpline
 70
0
 71
3
 72
10
 73
6
 74
4
 40
0.000000
 40
0.000000
 40
0.000000
 40
0.000000
 40
8.893729
 40
17.272062
 40
24.898856
 40
24.898856
 40
24.898856
 40
24.898856
 10
134.582065
 20
549.177844
 30
0.0
 10
132.255926
 20
546.974550
 30
0.0
 10
127.738447
 20
542.695644
 30
0.0
 10
130.174946
 20
533.765891
 30
0.0
 10
128.315734
 20
528.703057
 30
0.0
 10
127.429779
 20
526.290506
 30
0.0
 11
134.582065
 21
549.177844
 31
0.0
 11
129.249558
 21
542.060064
 31
0.0
 11
129.309826
 21
533.681948
 31
0.0
 11
127.429779
 21
526.290506
 31
0.0
  0
SPLINE
  5
1da
100
AcDbEntity
  8
Layer_1
 62
1
100
AcDbSpline
 70
0
 71
3
 72
10
 73
6
 74
4
 40
0.000000
 40
0.000000
 40
0.000000
 40
0.000000
 40
5.413292
 40
8.686061
 40
11.564583
 40
11.564583
 40
11.564583
 40
11.564583
 10
127.429779
 20
526.290506
 30
0.0
 10
127.496497
 20
524.535983
 30
0.0
 10
127.603553
 20
521.720709
 30
0.0
 10
125.970295
 20
517.491256
 30
0.0
 10
123.716333
 20
517.638742
 30
0.0
 10
122.661582
 20
517.707759
 30
0.0
 11
127.429779
 21
526.290506
 31
0.0
 11
127.111897
 21
520.886556
 31
0.0
 11
125.522498
 21
518.025642
 31
0.0
 11
122.661582
 21
517.707759
 31
0.0
  0
SPLINE
  5
1db
100
AcDbEntity
  8
Layer_1
 62
1
100
AcDbSpline
 70
0
 71
3
 72
10
 73
6
 74
4
 40
0.000000
 40
0.000000
 40
0.000000
 40
0.000000
 40
6.043426
 40
10.853812
 40
14.507507
 40
14.507507
 40
14.507507
 40
14.507507
 10
122.661582
 20
517.707759
 30
0.0
 10
122.622212
 20
515.695458
 30
0.0
 10
122.551503
 20
512.081425
 30
0.0
 10
122.052562
 20
507.238713
 30
0.0
 10
121.145751
 20
504.559656
 30
0.0
 10
120.754307
 20
503.403186
 30
0.0
 11
122.661582
 21
517.707759
 31
0.0
 11
122.449664
 21
511.668050
 31
0.0
 11
121.813906
 21
506.899861
 31
0.0
 11
120.754307
 21
503.403186
 31
0.0
  0
SPLINE
  5
1dc
100
AcDbEntity
  8
Layer_1
 62
1
100
AcDbSpline
 70
0
 71
3
 72
10
 73
6
 74
4
 40
0.000000
 40
0.000000
 40
0.000000
 40
0.000000
 40
13.723403
 40
26.267975
 40
37.540699
 40
37.540699
 40
37.540699
 40
37.540699
 10
146.502549
 20
581.601558
 30
0.0
 10
149.921551
 20
578.555252
 30
0.0
 10
156.465865
 20
572.724315
 30
0.0
 10
168.092879
 20
567.192541
 30
0.0
 10
176.093293
 20
566.939783
 30
0.0
 10
179.879889
 20
566.820153
 30
0.0
 11
146.502549
 21
581.601558
 31
0.0
 11
157.193898
 21
572.997672
 31
0.0
 11
168.659837
 21
567.908612
 31
0.0
 11
179.879889
 21
566.820153
 31
0.0
  0
SPLINE
  5
1dd
100
AcDbEntity
  8
Layer_1
 62
1
100
AcDbSpline
 70
0
 71
3
 72
10
 73
6
 74
4
 40
0.000000
 40
0.000000
 40
0.000000
 40
0.000000
 40
8.783328
 40
17.882908
 40
30.347532
 40
30.347532
 40
30.347532
 40
30.347532
 10
146.025717
 20
572.541979
 30
0.0
 10
148.314858
 20
570.740650
 30
0.0
 10
152.975560
 20
567.073133
 30
0.0
 10
161.115955
 20
560.635137
 30
0.0
 10
168.474302
 20
560.022174
 30
0.0
 10
172.727602
 20
559.667866
 30
0.0
 11
146.025717
 21
572.541979
 31
0.0
 11
152.925992
 21
567.107546
 31
0.0
 11
160.493588
 21
562.054444
 31
0.0
 11
172.727602
 21
559.667866
 31
0.0
  0
SPLINE
  5
1de
100
AcDbEntity
  8
Layer_1
 62
1
100
AcDbSpline
 70
0
 71
3
 72
10
 73
6
 74
4
 40
0.000000
 40
0.000000
 40
0.000000
 40
0.000000
 40
12.915362
 40
28.349558
 40
43.818586
 40
43.818586
 40
43.818586
 40
43.818586
 10
108.356992
 20
527.244152
 30
0.0
 10
112.550808
 20
525.676607
 30
0.0
 10
121.756344
 20
522.235804
 30
0.0
 10
127.801291
 20
507.907592
 30
0.0
 10
133.591149
 20
499.503857
 30
0.0
 10
136.489341
 20
495.297253
 30
0.0
 11
108.356992
 21
527.244152
 31
0.0
 11
119.839551
 21
521.331671
 31
0.0
 11
128.177285
 21
508.343346
 31
0.0
 11
136.489341
 21
495.297253
 31
0.0
  0
SPLINE
  5
1df
100
AcDbEntity
  8
Layer_1
 62
1
100
AcDbSpline
 70
0
 71
3
 72
10
 73
6
 74
4
 40
0.000000
 40
0.000000
 40
0.000000
 40
0.000000
 40
11.459763
 40
29.404932
 40
48.521255
 40
48.521255
 40
48.521255
 40
48.521255
 10
99.774245
 20
521.045495
 30
0.0
 10
103.703369
 20
520.187450
 30
0.0
 10
113.785221
 20
517.985767
 30
0.0
 10
119.789156
 20
500.952652
 30
0.0
 10
126.088072
 20
490.615797
 30
0.0
 10
129.337054
 20
485.284045
 30
0.0
 11
99.774245
 21
521.045495
 31
0.0
 11
110.582981
 21
517.237950
 31
0.0
 11
120.045850
 21
501.990550
 31
0.0
 11
129.337054
 21
485.284045
 31
0.0
  0
SPLINE
  5
1e0
100
AcDbEntity
  8
Layer_1
 62
1
100
AcDbSpline
 70
0
 71
3
 72
10
 73
6
 74
4
 40
0.000000
 40
0.000000
 40
0.000000
 40
0.000000
 40
10.158813
 40
18.136125
 40
26.056419
 40
26.056419
 40
26.056419
 40
26.056419
 10
105.972902
 20
476.701298
 30
0.0
 10
109.442969
 20
476.013759
 30
0.0
 10
115.637941
 20
474.786323
 30
0.0
 10
123.307953
 20
479.752977
 30
0.0
 10
127.332165
 20
483.126512
 30
0.0
 10
129.337054
 20
484.807230
 30
0.0
 11
105.972902
 21
476.701298
 31
0.0
 11
116.114401
 21
476.108453
 31
0.0
 11
123.159701
 21
479.850279
 31
0.0
 11
129.337054
 21
484.807230
 31
0.0
  0
SPLINE
  5
1e1
100
AcDbEntity
  8
Layer_1
 62
1
100
AcDbSpline
 70
0
 71
3
 72
19
 73
15
 74
13
 40
0.000000
 40
0.000000
 40
0.000000
 40
0.000000
 40
1.293808
 40
2.568761
 40
3.921204
 40
5.292399
 40
6.604237
 40
7.917630
 40
9.211442
 40
10.486399
 40
11.838845
 40
13.182895
 40
14.471050
 40
15.760191
 40
15.760191
 40
15.760191
 40
15.760191
 10
136.731312
 20
537.343362
 30
0.0
 10
136.290950
 20
537.296140
 30
0.0
 10
135.416642
 20
537.202386
 30
0.0
 10
134.246410
 20
537.973165
 30
0.0
 10
133.595802
 20
539.190486
 30
0.0
 10
133.604734
 20
540.594618
 30
0.0
 10
134.265936
 20
541.813426
 30
0.0
 10
135.433213
 20
542.536929
 30
0.0
 10
136.798472
 20
542.525597
 30
0.0
 10
137.956798
 20
541.796315
 30
0.0
 10
138.607211
 20
540.572553
 30
0.0
 10
138.600560
 20
539.202871
 30
0.0
 10
137.983791
 20
537.958440
 30
0.0
 10
137.198574
 20
537.563140
 30
0.0
 10
136.805815
 20
537.365415
 30
0.0
 11
136.731312
 21
537.343362
 31
0.0
 11
135.437545
 21
537.353575
 31
0.0
 11
134.353507
 21
538.024670
 31
0.0
 11
133.709609
 21
539.213997
 31
0.0
 11
133.719255
 21
540.585158
 31
0.0
 11
134.352470
 21
541.734051
 31
0.0
 11
135.474659
 21
542.416468
 31
0.0
 11
136.768431
 21
542.406247
 31
0.0
 11
137.852473
 21
541.735152
 31
0.0
 11
138.496362
 21
540.545817
 31
0.0
 11
138.493668
 21
539.201770
 31
0.0
 11
137.889057
 21
538.064322
 31
0.0
 11
136.805815
 21
537.365415
 31
0.0
  0
SPLINE
  5
1e2
100
AcDbEntity
  8
Layer_1
 62
1
100
AcDbSpline
 70
0
 71
3
 72
19
 73
15
 74
13
 40
0.000000
 40
0.000000
 40
0.000000
 40
0.000000
 40
1.293808
 40
2.568761
 40
3.921204
 40
5.292399
 40
6.604237
 40
7.917630
 40
9.211442
 40
10.486399
 40
11.838845
 40
13.182895
 40
14.471050
 40
15.760191
 40
15.760191
 40
15.760191
 40
15.760191
 10
129.965404
 20
510.879848
 30
0.0
 10
129.525041
 20
510.832627
 30
0.0
 10
128.650733
 20
510.738872
 30
0.0
 10
127.480502
 20
511.509652
 30
0.0
 10
126.829893
 20
512.726972
 30
0.0
 10
126.838825
 20
514.131105
 30
0.0
 10
127.500028
 20
515.349913
 30
0.0
 10
128.667305
 20
516.073416
 30
0.0
 10
130.032563
 20
516.062084
 30
0.0
 10
131.190890
 20
515.332802
 30
0.0
 10
131.841302
 20
514.109039
 30
0.0
 10
131.834651
 20
512.739358
 30
0.0
 10
131.217882
 20
511.494927
 30
0.0
 10
130.432665
 20
511.099627
 30
0.0
 10
130.039906
 20
510.901901
 30
0.0
 11
129.965404
 21
510.879848
 31
0.0
 11
128.671636
 21
510.890061
 31
0.0
 11
127.587599
 21
511.561157
 31
0.0
 11
126.943701
 21
512.750484
 31
0.0
 11
126.953346
 21
514.121645
 31
0.0
 11
127.586562
 21
515.270537
 31
0.0
 11
128.708751
 21
515.952955
 31
0.0
 11
130.002522
 21
515.942734
 31
0.0
 11
131.086564
 21
515.271638
 31
0.0
 11
131.730454
 21
514.082304
 31
0.0
 11
131.727759
 21
512.738257
 31
0.0
 11
131.123148
 21
511.600809
 31
0.0
 11
130.039906
 21
510.901901
 31
0.0
  0
SPLINE
  5
1e3
100
AcDbEntity
  8
Layer_1
 62
1
100
AcDbSpline
 70
0
 71
3
 72
10
 73
6
 74
4
 40
0.000000
 40
0.000000
 40
0.000000
 40
0.000000
 40
12.488092
 40
24.126421
 40
35.358816
 40
35.358816
 40
35.358816
 40
35.358816
 10
196.091754
 20
574.449255
 30
0.0
 10
196.181435
 20
570.291876
 30
0.0
 10
196.354695
 20
562.260011
 30
0.0
 10
194.383070
 20
550.405677
 30
0.0
 10
190.412624
 20
543.826364
 30
0.0
 10
188.462636
 20
540.595096
 30
0.0
 11
196.091754
 21
574.449255
 31
0.0
 11
195.953943
 21
561.961923
 31
0.0
 11
193.662513
 21
550.551400
 31
0.0
 11
188.462636
 21
540.595096
 31
0.0
  0
SPLINE
  5
1e4
100
AcDbEntity
  8
Layer_1
 62
1
100
AcDbSpline
 70
0
 71
3
 72
10
 73
6
 74
4
 40
0.000000
 40
0.000000
 40
0.000000
 40
0.000000
 40
7.049080
 40
14.899427
 40
24.203973
 40
24.203973
 40
24.203973
 40
24.203973
 10
218.303162
 20
543.087928
 30
0.0
 10
215.964092
 20
542.864952
 30
0.0
 10
211.020069
 20
542.393654
 30
0.0
 10
202.984701
 20
541.664173
 30
0.0
 10
197.279094
 20
541.280182
 30
0.0
 10
194.184462
 20
541.071911
 30
0.0
 11
218.303162
 21
543.087928
 31
0.0
 11
211.285420
 21
542.423979
 31
0.0
 11
203.465289
 21
541.735861
 31
0.0
 11
194.184462
 21
541.071911
 31
0.0
  0
SPLINE
  5
1e5
100
AcDbEntity
  8
Layer_1
 62
1
100
AcDbSpline
 70
0
 71
3
 72
13
 73
9
 74
7
 40
0.000000
 40
0.000000
 40
0.000000
 40
0.000000
 40
4.544656
 40
9.069114
 40
14.225849
 40
23.035783
 40
33.449334
 40
44.757799
 40
44.757799
 40
44.757799
 40
44.757799
 10
194.184462
 20
541.071911
 30
0.0
 10
195.364684
 20
540.147110
 30
0.0
 10
197.719881
 20
538.301618
 30
0.0
 10
202.098310
 20
535.825172
 30
0.0
 10
203.164414
 20
529.211775
 30
0.0
 10
202.181102
 20
521.305729
 30
0.0
 10
202.156598
 20
511.054188
 30
0.0
 10
201.931017
 20
503.827604
 30
0.0
 10
201.813580
 20
500.065450
 30
0.0
 11
194.184462
 21
541.071911
 31
0.0
 11
197.834636
 21
538.364489
 31
0.0
 11
201.374823
 21
535.547080
 31
0.0
 11
202.767226
 21
530.581888
 31
0.0
 11
202.405381
 21
521.779388
 31
0.0
 11
202.109479
 21
511.370043
 31
0.0
 11
201.813580
 21
500.065450
 31
0.0
  0
SPLINE
  5
1e6
100
AcDbEntity
  8
Layer_1
 62
1
100
AcDbSpline
 70
0
 71
3
 72
10
 73
6
 74
4
 40
0.000000
 40
0.000000
 40
0.000000
 40
0.000000
 40
13.585107
 40
27.364407
 40
41.465774
 40
41.465774
 40
41.465774
 40
41.465774
 10
189.416282
 20
511.509118
 30
0.0
 10
190.508267
 20
515.906381
 30
0.0
 10
192.707845
 20
524.763764
 30
0.0
 10
194.453015
 20
538.517006
 30
0.0
 10
194.591335
 20
547.813591
 30
0.0
 10
194.661293
 20
552.515580
 30
0.0
 11
189.416282
 21
511.509118
 31
0.0
 11
192.433968
 21
524.754824
 31
0.0
 11
194.186631
 21
538.422203
 31
0.0
 11
194.661293
 21
552.515580
 31
0.0
  0
SPLINE
  5
1e7
100
AcDbEntity
  8
Layer_1
 62
1
100
AcDbSpline
 70
0
 71
3
 72
10
 73
6
 74
4
 40
0.000000
 40
0.000000
 40
0.000000
 40
0.000000
 40
10.280882
 40
19.417245
 40
28.607415
 40
28.607415
 40
28.607415
 40
28.607415
 10
135.535695
 20
531.535518
 30
0.0
 10
136.903372
 20
528.299322
 30
0.0
 10
139.486469
 20
522.187199
 30
0.0
 10
147.823525
 20
516.893665
 30
0.0
 10
153.295104
 20
514.260174
 30
0.0
 10
156.038925
 20
512.939562
 30
0.0
 11
135.535695
 21
531.535518
 31
0.0
 11
140.500960
 21
522.533147
 31
0.0
 11
147.840323
 21
517.091926
 31
0.0
 11
156.038925
 21
512.939562
 31
0.0
  0
SPLINE
  5
1e8
100
AcDbEntity
  8
Layer_1
 62
1
100
AcDbSpline
 70
0
 71
3
 72
19
 73
15
 74
13
 40
0.000000
 40
0.000000
 40
0.000000
 40
0.000000
 40
0.872592
 40
1.751650
 40
2.719511
 40
3.716744
 40
4.655113
 40
5.560172
 40
6.432760
 40
7.311811
 40
8.279670
 40
9.257156
 40
10.179436
 40
11.069439
 40
11.069439
 40
11.069439
 40
11.069439
 10
178.157960
 20
611.703722
 30
0.0
 10
177.859795
 20
611.669950
 30
0.0
 10
177.261257
 20
611.602155
 30
0.0
 10
176.469218
 20
612.177261
 30
0.0
 10
176.043319
 20
613.055683
 30
0.0
 10
176.048921
 20
614.059505
 30
0.0
 10
176.482834
 20
614.939595
 30
0.0
 10
177.271086
 20
615.479962
 30
0.0
 10
178.214665
 20
615.471390
 30
0.0
 10
178.996761
 20
614.927172
 30
0.0
 10
179.423427
 20
614.043408
 30
0.0
 10
179.418242
 20
613.064928
 30
0.0
 10
179.016095
 20
612.164109
 30
0.0
 10
178.474285
 20
611.866112
 30
0.0
 10
178.208205
 20
611.719767
 30
0.0
 11
178.157960
 21
611.703722
 31
0.0
 11
177.285399
 21
611.711154
 31
0.0
 11
176.554284
 21
612.199224
 31
0.0
 11
176.120020
 21
613.064193
 31
0.0
 11
176.126524
 21
614.061404
 31
0.0
 11
176.553588
 21
614.896960
 31
0.0
 11
177.310436
 21
615.393257
 31
0.0
 11
178.182993
 21
615.385826
 31
0.0
 11
178.914100
 21
614.897755
 31
0.0
 11
179.348359
 21
614.032786
 31
0.0
 11
179.346552
 21
613.055302
 31
0.0
 11
178.938780
 21
612.228065
 31
0.0
 11
178.208205
 21
611.719767
 31
0.0
  0
SPLINE
  5
1e9
100
AcDbEntity
  8
Layer_1
 62
1
100
AcDbSpline
 70
0
 71
3
 72
19
 73
15
 74
13
 40
0.000000
 40
0.000000
 40
0.000000
 40
0.000000
 40
0.872592
 40
1.751650
 40
2.719511
 40
3.716744
 40
4.655113
 40
5.560172
 40
6.432760
 40
7.311811
 40
8.279670
 40
9.257156
 40
10.179436
 40
11.069439
 40
11.069439
 40
11.069439
 40
11.069439
 10
196.515540
 20
602.644127
 30
0.0
 10
196.217376
 20
602.610355
 30
0.0
 10
195.618838
 20
602.542560
 30
0.0
 10
194.826799
 20
603.117667
 30
0.0
 10
194.400899
 20
603.996089
 30
0.0
 10
194.406502
 20
604.999910
 30
0.0
 10
194.840414
 20
605.880000
 30
0.0
 10
195.628666
 20
606.420367
 30
0.0
 10
196.572246
 20
606.411795
 30
0.0
 10
197.354341
 20
605.867577
 30
0.0
 10
197.781008
 20
604.983813
 30
0.0
 10
197.775823
 20
604.005333
 30
0.0
 10
197.373675
 20
603.104514
 30
0.0
 10
196.831866
 20
602.806517
 30
0.0
 10
196.565786
 20
602.660172
 30
0.0
 11
196.515540
 21
602.644127
 31
0.0
 11
195.642980
 21
602.651559
 31
0.0
 11
194.911865
 21
603.139629
 31
0.0
 11
194.477601
 21
604.004598
 31
0.0
 11
194.484104
 21
605.001810
 31
0.0
 11
194.911168
 21
605.837365
 31
0.0
 11
195.668017
 21
606.333662
 31
0.0
 11
196.540574
 21
606.326231
 31
0.0
 11
197.271681
 21
605.838161
 31
0.0
 11
197.705940
 21
604.973192
 31
0.0
 11
197.704132
 21
603.995708
 31
0.0
 11
197.296360
 21
603.168470
 31
0.0
 11
196.565786
 21
602.660172
 31
0.0
  0
SPLINE
  5
1ea
100
AcDbEntity
  8
Layer_1
 62
1
100
AcDbSpline
 70
0
 71
3
 72
10
 73
6
 74
4
 40
0.000000
 40
0.000000
 40
0.000000
 40
0.000000
 40
5.396975
 40
8.813244
 40
11.714263
 40
11.714263
 40
11.714263
 40
11.714263
 10
165.098504
 20
585.416108
 30
0.0
 10
163.350638
 20
586.330932
 30
0.0
 10
160.496378
 20
587.824837
 30
0.0
 10
160.469590
 20
592.179832
 30
0.0
 10
161.354432
 20
594.079926
 30
0.0
 10
161.760768
 20
594.952485
 30
0.0
 11
165.098504
 21
585.416108
 31
0.0
 11
160.917691
 21
588.829045
 31
0.0
 11
160.731403
 21
592.240232
 31
0.0
 11
161.760768
 21
594.952485
 31
0.0
  0
SPLINE
  5
1eb
100
AcDbEntity
  8
Layer_1
 62
1
100
AcDbSpline
 70
0
 71
3
 72
10
 73
6
 74
4
 40
0.000000
 40
0.000000
 40
0.000000
 40
0.000000
 40
7.302292
 40
13.374151
 40
26.203058
 40
26.203058
 40
26.203058
 40
26.203058
 10
161.760768
 20
594.952485
 30
0.0
 10
164.350014
 20
595.342078
 30
0.0
 10
169.092221
 20
596.055617
 30
0.0
 10
175.184646
 20
586.113021
 30
0.0
 10
166.620227
 20
584.561755
 30
0.0
 10
160.807122
 20
583.508833
 30
0.0
 11
161.760768
 21
594.952485
 31
0.0
 11
169.041800
 21
594.395681
 31
0.0
 11
172.276193
 21
589.256987
 31
0.0
 11
160.807122
 21
583.508833
 31
0.0
  0
SPLINE
  5
1ec
100
AcDbEntity
  8
Layer_1
 62
1
100
AcDbSpline
 70
0
 71
3
 72
10
 73
6
 74
4
 40
0.000000
 40
0.000000
 40
0.000000
 40
0.000000
 40
7.163845
 40
12.611186
 40
27.370179
 40
27.370179
 40
27.370179
 40
27.370179
 10
160.807122
 20
583.508833
 30
0.0
 10
161.278783
 20
580.540381
 30
0.0
 10
162.109091
 20
575.314738
 30
0.0
 10
172.891022
 20
579.378249
 30
0.0
 10
175.552106
 20
585.623029
 30
0.0
 10
177.495799
 20
590.184305
 30
0.0
 11
160.807122
 21
583.508833
 31
0.0
 11
163.557255
 21
576.893892
 31
0.0
 11
168.837786
 21
578.231619
 31
0.0
 11
177.495799
 21
590.184305
 31
0.0
  0
SPLINE
  5
1ed
100
AcDbEntity
  8
Layer_1
 62
1
100
AcDbSpline
 70
0
 71
3
 72
10
 73
6
 74
4
 40
0.000000
 40
0.000000
 40
0.000000
 40
0.000000
 40
5.619639
 40
12.467093
 40
22.495869
 40
22.495869
 40
22.495869
 40
22.495869
 10
168.913051
 20
577.310176
 30
0.0
 10
170.188144
 20
575.279499
 30
0.0
 10
173.016919
 20
570.774470
 30
0.0
 10
178.123021
 20
580.189250
 30
0.0
 10
180.421364
 20
584.664152
 30
0.0
 10
181.787164
 20
587.323384
 30
0.0
 11
168.913051
 21
577.310176
 31
0.0
 11
172.738532
 21
573.193618
 31
0.0
 11
177.148678
 21
578.431770
 31
0.0
 11
181.787164
 21
587.323384
 31
0.0
  0
SPLINE
  5
1ee
100
AcDbEntity
  8
Layer_1
 62
1
100
AcDbSpline
 70
0
 71
3
 72
10
 73
6
 74
4
 40
0.000000
 40
0.000000
 40
0.000000
 40
0.000000
 40
9.754562
 40
14.894853
 40
20.414621
 40
20.414621
 40
20.414621
 40
20.414621
 10
185.601731
 20
585.416108
 30
0.0
 10
185.021302
 20
582.579795
 30
0.0
 10
184.135008
 20
578.248851
 30
0.0
 10
180.339527
 20
569.415332
 30
0.0
 10
178.000779
 20
573.674383
 30
0.0
 10
176.789778
 20
575.879715
 30
0.0
 11
185.601731
 21
585.416108
 31
0.0
 11
183.052869
 21
576.000441
 31
0.0
 11
180.327109
 21
571.642366
 31
0.0
 11
176.789778
 21
575.879715
 31
0.0
  0
SPLINE
  5
1ef
100
AcDbEntity
  8
Layer_1
 62
1
100
AcDbSpline
 70
0
 71
3
 72
10
 73
6
 74
4
 40
0.000000
 40
0.000000
 40
0.000000
 40
0.000000
 40
3.323873
 40
5.479561
 40
8.823835
 40
8.823835
 40
8.823835
 40
8.823835
 10
189.754231
 20
576.942103
 30
0.0
 10
189.235238
 20
575.930034
 30
0.0
 10
188.379655
 20
574.261590
 30
0.0
 10
184.968943
 20
573.315413
 30
0.0
 10
184.138922
 20
575.311671
 30
0.0
 10
183.634224
 20
576.525504
 30
0.0
 11
189.754231
 21
576.942103
 31
0.0
 11
187.732725
 21
574.303610
 31
0.0
 11
185.627450
 21
573.840133
 31
0.0
 11
183.634224
 21
576.525504
 31
0.0
  0
SPLINE
  5
1f0
100
AcDbEntity
  8
Layer_1
 62
3
100
AcDbSpline
 70
0
 71
3
 72
10
 73
6
 74
4
 40
0.000000
 40
0.000000
 40
0.000000
 40
0.000000
 40
3.168571
 40
6.792184
 40
12.407639
 40
12.407639
 40
12.407639
 40
12.407639
 10
161.612406
 20
595.361782
 30
0.0
 10
161.133837
 20
594.398199
 30
0.0
 10
160.107970
 20
592.332650
 30
0.0
 10
161.015198
 20
587.895173
 30
0.0
 10
163.593709
 20
586.023071
 30
0.0
 10
165.160914
 20
584.885217
 30
0.0
 11
161.612406
 21
595.361782
 31
0.0
 11
160.508031
 21
592.391901
 31
0.0
 11
161.162281
 21
588.827840
 31
0.0
 11
165.160914
 21
584.885217
 31
0.0
  0
LWPOLYLINE
  5
1f1
100
AcDbEntity
  8
Layer_1
 62
1
100
AcDbPolyline
 90
2
 70
0
 10
125.045672
 20
645.018525
 30
0.0
 10
128.860223
 20
651.217166
 30
0.0
  0
LWPOLYLINE
  5
1f2
100
AcDbEntity
  8
Layer_1
 62
3
100
AcDbPolyline
 90
2
 70
1
 10
161.612406
 20
595.361782
 30
0.0
 10
161.612406
 20
595.361782
 30
0.0
  0
SPLINE
  5
1f3
100
AcDbEntity
  8
Layer_1
 62
3
100
AcDbSpline
 70
0
 71
3
 72
10
 73
6
 74
4
 40
0.000000
 40
0.000000
 40
0.000000
 40
0.000000
 40
8.460947
 40
13.829794
 40
21.667531
 40
21.667531
 40
21.667531
 40
21.667531
 10
165.160914
 20
584.885217
 30
0.0
 10
168.649013
 20
586.059782
 30
0.0
 10
174.350467
 20
587.979661
 30
0.0
 10
168.955527
 20
595.873729
 30
0.0
 10
164.347275
 20
595.552452
 30
0.0
 10
161.612406
 20
595.361782
 30
0.0
 11
165.160914
 21
584.885217
 31
0.0
 11
172.202382
 21
589.576202
 31
0.0
 11
169.352103
 21
594.125974
 31
0.0
 11
161.612406
 21
595.361782
 31
0.0
  0
SPLINE
  5
1f4
100
AcDbEntity
  8
Layer_1
 62
1
100
AcDbSpline
 70
0
 71
3
 72
10
 73
6
 74
4
 40
0.000000
 40
0.000000
 40
0.000000
 40
0.000000
 40
9.636399
 40
17.478222
 40
24.277636
 40
24.277636
 40
24.277636
 40
24.277636
 10
205.094326
 20
500.045983
 30
0.0
 10
208.295761
 20
500.199758
 30
0.0
 10
214.102433
 20
500.478669
 30
0.0
 10
222.113283
 20
502.964659
 30
0.0
 10
225.513079
 20
506.561007
 30
0.0
 10
227.091949
 20
508.231156
 30
0.0
 11
205.094326
 21
500.045983
 31
0.0
 11
214.686653
 21
500.966558
 31
0.0
 11
222.046640
 21
503.672989
 31
0.0
 11
227.091949
 21
508.231156
 31
0.0
  0
SPLINE
  5
1f5
100
AcDbEntity
  8
Layer_1
 62
1
100
AcDbSpline
 70
0
 71
3
 72
10
 73
6
 74
4
 40
0.000000
 40
0.000000
 40
0.000000
 40
0.000000
 40
3.960908
 40
7.709042
 40
13.367034
 40
13.367034
 40
13.367034
 40
13.367034
 10
95.617718
 20
467.305326
 30
0.0
 10
96.859062
 20
467.742340
 30
0.0
 10
99.275067
 20
468.592892
 30
0.0
 10
103.975550
 20
468.754492
 30
0.0
 10
106.423171
 20
466.571899
 30
0.0
 10
107.895469
 20
465.259021
 30
0.0
 11
95.617718
 21
467.305326
 31
0.0
 11
99.419590
 21
468.416433
 31
0.0
 11
103.167395
 21
468.366784
 31
0.0
 11
107.895469
 21
465.259021
 31
0.0
  0
SPLINE
  5
1f6
100
AcDbEntity
  8
Layer_1
 62
1
100
AcDbSpline
 70
0
 71
3
 72
10
 73
6
 74
4
 40
0.000000
 40
0.000000
 40
0.000000
 40
0.000000
 40
2.130744
 40
6.082165
 40
15.296788
 40
15.296788
 40
15.296788
 40
15.296788
 10
107.895469
 20
465.259021
 30
0.0
 10
108.542678
 20
464.962741
 30
0.0
 10
110.390123
 20
464.117016
 30
0.0
 10
115.788954
 20
463.988052
 30
0.0
 10
118.368119
 20
459.920591
 30
0.0
 10
120.173219
 20
457.073865
 30
0.0
 11
107.895469
 21
465.259021
 31
0.0
 11
109.873815
 21
464.467683
 31
0.0
 11
113.745126
 21
463.676054
 31
0.0
 11
120.173219
 21
457.073865
 31
0.0
  0
SPLINE
  5
1f7
100
AcDbEntity
  8
Layer_1
 62
1
100
AcDbSpline
 70
0
 71
3
 72
10
 73
6
 74
4
 40
0.000000
 40
0.000000
 40
0.000000
 40
0.000000
 40
2.393822
 40
5.735757
 40
13.752799
 40
13.752799
 40
13.752799
 40
13.752799
 10
95.106146
 20
456.562292
 30
0.0
 10
95.912426
 20
456.589315
 30
0.0
 10
97.844327
 20
456.654062
 30
0.0
 10
101.968544
 20
458.972538
 30
0.0
 10
104.543427
 20
461.758208
 30
0.0
 10
106.360752
 20
463.724304
 30
0.0
 11
95.106146
 21
456.562292
 31
0.0
 11
97.488086
 21
456.800506
 31
0.0
 11
100.494591
 21
458.259770
 31
0.0
 11
106.360752
 21
463.724304
 31
0.0
  0
SPLINE
  5
1f8
100
AcDbEntity
  8
Layer_1
 62
1
100
AcDbSpline
 70
0
 71
3
 72
10
 73
6
 74
4
 40
0.000000
 40
0.000000
 40
0.000000
 40
0.000000
 40
5.690875
 40
10.219609
 40
22.342211
 40
22.342211
 40
22.342211
 40
22.342211
 10
106.360752
 20
463.724304
 30
0.0
 10
105.368318
 20
462.171801
 30
0.0
 10
103.586116
 20
459.383835
 30
0.0
 10
102.572527
 20
450.321992
 30
0.0
 10
110.093562
 20
453.341134
 30
0.0
 10
115.569069
 20
455.539148
 30
0.0
 11
106.360752
 21
463.724304
 31
0.0
 11
103.792328
 21
458.645992
 31
0.0
 11
103.529243
 21
454.124906
 31
0.0
 11
115.569069
 21
455.539148
 31
0.0
  0
SPLINE
  5
1f9
100
AcDbEntity
  8
Layer_1
 62
1
100
AcDbSpline
 70
0
 71
3
 72
10
 73
6
 74
4
 40
0.000000
 40
0.000000
 40
0.000000
 40
0.000000
 40
8.760879
 40
17.367505
 40
26.347338
 40
26.347338
 40
26.347338
 40
26.347338
 10
115.569069
 20
455.539148
 30
0.0
 10
118.485195
 20
456.045197
 30
0.0
 10
124.266103
 20
457.048385
 30
0.0
 10
131.537777
 20
462.240207
 30
0.0
 10
136.544791
 20
465.254582
 30
0.0
 10
139.101426
 20
466.793754
 30
0.0
 11
115.569069
 21
455.539148
 31
0.0
 11
124.066141
 21
457.672868
 31
0.0
 11
131.471485
 21
462.058628
 31
0.0
 11
139.101426
 21
466.793754
 31
0.0
  0
LWPOLYLINE
  5
1fa
100
AcDbEntity
  8
Layer_1
 62
1
100
AcDbPolyline
 90
2
 70
0
 10
218.395221
 20
519.485762
 30
0.0
 10
205.094326
 20
500.045983
 30
0.0
  0
SPLINE
  5
1fb
100
AcDbEntity
  8
Layer_1
 62
1
100
AcDbSpline
 70
0
 71
3
 72
10
 73
6
 74
4
 40
0.000000
 40
0.000000
 40
0.000000
 40
0.000000
 40
10.326500
 40
29.087261
 40
40.491263
 40
40.491263
 40
40.491263
 40
40.491263
 10
208.163759
 20
485.721944
 30
0.0
 10
211.642550
 20
485.447632
 30
0.0
 10
221.441466
 20
484.674961
 30
0.0
 10
233.865249
 20
491.809444
 30
0.0
 10
241.571889
 20
498.157593
 30
0.0
 10
244.485439
 20
500.557556
 30
0.0
 11
208.163759
 21
485.721944
 31
0.0
 11
218.489953
 21
485.642352
 31
0.0
 11
235.523438
 21
493.505336
 31
0.0
 11
244.485439
 21
500.557556
 31
0.0
  0
SPLINE
  5
1fc
100
AcDbEntity
  8
Layer_1
 62
1
100
AcDbSpline
 70
0
 71
3
 72
10
 73
6
 74
4
 40
0.000000
 40
0.000000
 40
0.000000
 40
0.000000
 40
3.263399
 40
6.758857
 40
11.861029
 40
11.861029
 40
11.861029
 40
11.861029
 10
233.230833
 20
504.650134
 30
0.0
 10
233.988086
 20
503.870080
 30
0.0
 10
235.556440
 20
502.254501
 30
0.0
 10
237.338765
 20
498.507886
 30
0.0
 10
236.687031
 20
495.620566
 30
0.0
 10
236.300266
 20
493.907116
 30
0.0
 11
233.230833
 21
504.650134
 31
0.0
 11
235.373738
 21
502.188888
 31
0.0
 11
236.776055
 21
498.987055
 31
0.0
 11
236.300266
 21
493.907116
 31
0.0
  0
SPLINE
  5
1fd
100
AcDbEntity
  8
Layer_1
 62
1
100
AcDbSpline
 70
0
 71
3
 72
10
 73
6
 74
4
 40
0.000000
 40
0.000000
 40
0.000000
 40
0.000000
 40
9.130073
 40
17.651471
 40
26.519807
 40
26.519807
 40
26.519807
 40
26.519807
 10
222.487799
 20
598.267988
 30
0.0
 10
225.538732
 20
598.641531
 30
0.0
 10
231.437203
 20
599.363712
 30
0.0
 10
240.117598
 20
596.506266
 30
0.0
 10
244.704230
 20
592.929846
 30
0.0
 10
247.043300
 20
591.105960
 30
0.0
 11
222.487799
 21
598.267988
 31
0.0
 11
231.608271
 21
598.686571
 31
0.0
 11
239.738623
 21
596.134784
 31
0.0
 11
247.043300
 21
591.105960
 31
0.0
  0
SPLINE
  5
1fe
100
AcDbEntity
  8
Layer_1
 62
7
100
AcDbSpline
 70
0
 71
3
 72
10
 73
6
 74
4
 40
0.000000
 40
0.000000
 40
0.000000
 40
0.000000
 40
10.665405
 40
21.712790
 40
33.754458
 40
33.754458
 40
33.754458
 40
33.754458
 10
323.719402
 20
590.040024
 30
0.0
 10
326.579775
 20
587.931868
 30
0.0
 10
332.402965
 20
583.640054
 30
0.0
 10
341.982880
 20
577.632977
 30
0.0
 10
349.223136
 20
574.962758
 30
0.0
 10
352.999158
 20
573.570154
 30
0.0
 11
323.719402
 21
590.040024
 31
0.0
 11
332.382354
 21
583.818758
 31
0.0
 11
341.858038
 21
578.139311
 31
0.0
 11
352.999158
 21
573.570154
 31
0.0
  0
SPLINE
  5
1ff
100
AcDbEntity
  8
Layer_1
 62
7
100
AcDbSpline
 70
0
 71
3
 72
10
 73
6
 74
4
 40
0.000000
 40
0.000000
 40
0.000000
 40
0.000000
 40
14.684116
 40
25.281284
 40
35.252003
 40
35.252003
 40
35.252003
 40
35.252003
 10
352.999158
 20
573.570154
 30
0.0
 10
354.120433
 20
578.351665
 30
0.0
 10
356.050906
 20
586.583875
 30
0.0
 10
356.082541
 20
598.415886
 30
0.0
 10
357.703375
 20
605.099739
 30
0.0
 10
358.489109
 20
608.339877
 30
0.0
 11
352.999158
 21
573.570154
 31
0.0
 11
355.719368
 21
588.000113
 31
0.0
 11
356.508471
 21
598.567861
 31
0.0
 11
358.489109
 21
608.339877
 31
0.0
  0
SPLINE
  5
200
100
AcDbEntity
  8
Layer_1
 62
7
100
AcDbSpline
 70
0
 71
3
 72
10
 73
6
 74
4
 40
0.000000
 40
0.000000
 40
0.000000
 40
0.000000
 40
18.466934
 40
36.358149
 40
64.225027
 40
64.225027
 40
64.225027
 40
64.225027
 10
358.489109
 20
608.339877
 30
0.0
 10
362.543159
 20
613.573739
 30
0.0
 10
370.524872
 20
623.878292
 30
0.0
 10
396.489151
 20
617.856676
 30
0.0
 10
398.272624
 20
600.947678
 30
0.0
 10
399.358767
 20
590.650024
 30
0.0
 11
358.489109
 21
608.339877
 31
0.0
 11
372.384063
 21
620.503672
 31
0.0
 11
389.900910
 21
616.862842
 31
0.0
 11
399.358767
 21
590.650024
 31
0.0
  0
SPLINE
  5
201
100
AcDbEntity
  8
Layer_1
 62
7
100
AcDbSpline
 70
0
 71
3
 72
10
 73
6
 74
4
 40
0.000000
 40
0.000000
 40
0.000000
 40
0.000000
 40
4.840353
 40
9.561460
 40
13.416767
 40
13.416767
 40
13.416767
 40
13.416767
 10
399.358767
 20
590.650024
 30
0.0
 10
399.169658
 20
589.058687
 30
0.0
 10
398.796098
 20
585.915217
 30
0.0
 10
398.810084
 20
581.265729
 30
0.0
 10
397.084494
 20
578.902466
 30
0.0
 10
396.308800
 20
577.840122
 30
0.0
 11
399.358767
 21
590.650024
 31
0.0
 11
398.889728
 21
585.832450
 31
0.0
 11
398.285384
 21
581.150184
 31
0.0
 11
396.308800
 21
577.840122
 31
0.0
  0
SPLINE
  5
202
100
AcDbEntity
  8
Layer_1
 62
7
100
AcDbSpline
 70
0
 71
3
 72
13
 73
9
 74
7
 40
0.000000
 40
0.000000
 40
0.000000
 40
0.000000
 40
4.403645
 40
7.073879
 40
8.532490
 40
14.208103
 40
19.786578
 40
22.345339
 40
22.345339
 40
22.345339
 40
22.345339
 10
396.308800
 20
577.840122
 30
0.0
 10
395.923956
 20
576.141281
 30
0.0
 10
395.305754
 20
573.412316
 30
0.0
 10
391.755819
 20
573.861986
 30
0.0
 10
390.040088
 20
570.697808
 30
0.0
 10
391.937649
 20
566.369463
 30
0.0
 10
390.094760
 20
561.897237
 30
0.0
 10
390.181556
 20
559.175985
 30
0.0
 10
390.208848
 20
558.320285
 30
0.0
 11
396.308800
 21
577.840122
 31
0.0
 11
394.253299
 21
573.945638
 31
0.0
 11
391.668003
 21
573.277507
 31
0.0
 11
390.874742
 21
572.053463
 31
0.0
 11
391.143023
 21
566.384194
 31
0.0
 11
390.242901
 21
560.878819
 31
0.0
 11
390.208848
 21
558.320285
 31
0.0
  0
SPLINE
  5
203
100
AcDbEntity
  8
Layer_1
 62
7
100
AcDbSpline
 70
0
 71
3
 72
10
 73
6
 74
4
 40
0.000000
 40
0.000000
 40
0.000000
 40
0.000000
 40
8.650774
 40
17.002726
 40
25.532274
 40
25.532274
 40
25.532274
 40
25.532274
 10
390.208848
 20
558.320285
 30
0.0
 10
392.956769
 20
557.323455
 30
0.0
 10
398.357691
 20
555.364229
 30
0.0
 10
407.006543
 20
556.368410
 30
0.0
 10
412.462141
 20
557.665112
 30
0.0
 10
415.218637
 20
558.320285
 30
0.0
 11
390.208848
 21
558.320285
 31
0.0
 11
398.545444
 21
556.010077
 31
0.0
 11
406.882041
 21
556.516303
 31
0.0
 11
415.218637
 21
558.320285
 31
0.0
  0
SPLINE
  5
204
100
AcDbEntity
  8
Layer_1
 62
7
100
AcDbSpline
 70
0
 71
3
 72
10
 73
6
 74
4
 40
0.000000
 40
0.000000
 40
0.000000
 40
0.000000
 40
7.394865
 40
14.709737
 40
21.707574
 40
21.707574
 40
21.707574
 40
21.707574
 10
415.218637
 20
558.320285
 30
0.0
 10
416.083244
 20
560.625185
 30
0.0
 10
417.803105
 20
565.210053
 30
0.0
 10
420.523202
 20
571.967758
 30
0.0
 10
421.057403
 20
576.731171
 30
0.0
 10
421.318588
 20
579.060122
 30
0.0
 11
415.218637
 21
558.320285
 31
0.0
 11
417.843635
 21
565.233562
 31
0.0
 11
420.234009
 21
572.146844
 31
0.0
 11
421.318588
 21
579.060122
 31
0.0
  0
SPLINE
  5
205
100
AcDbEntity
  8
Layer_1
 62
7
100
AcDbSpline
 70
0
 71
3
 72
10
 73
6
 74
4
 40
0.000000
 40
0.000000
 40
0.000000
 40
0.000000
 40
11.023647
 40
21.039787
 40
30.153193
 40
30.153193
 40
30.153193
 40
30.153193
 10
421.318588
 20
579.060122
 30
0.0
 10
420.971788
 20
582.683303
 30
0.0
 10
420.309884
 20
589.598525
 30
0.0
 10
420.202602
 20
600.130247
 30
0.0
 10
424.263776
 20
605.277637
 30
0.0
 10
426.198539
 20
607.729877
 30
0.0
 11
421.318588
 21
579.060122
 31
0.0
 11
420.439342
 21
590.048649
 31
0.0
 11
421.331428
 21
600.024983
 31
0.0
 11
426.198539
 21
607.729877
 31
0.0
  0
SPLINE
  5
206
100
AcDbEntity
  8
Layer_1
 62
7
100
AcDbSpline
 70
0
 71
3
 72
10
 73
6
 74
4
 40
0.000000
 40
0.000000
 40
0.000000
 40
0.000000
 40
8.518932
 40
16.036670
 40
22.130020
 40
22.130020
 40
22.130020
 40
22.130020
 10
426.198539
 20
607.729877
 30
0.0
 10
426.828315
 20
604.988159
 30
0.0
 10
428.013854
 20
599.826944
 30
0.0
 10
430.044110
 20
592.397174
 30
0.0
 10
433.708166
 20
589.543468
 30
0.0
 10
435.348474
 20
588.265934
 30
0.0
 11
426.198539
 21
607.729877
 31
0.0
 11
428.168491
 21
599.441844
 31
0.0
 11
430.911617
 21
592.442441
 31
0.0
 11
435.348474
 21
588.265934
 31
0.0
  0
SPLINE
  5
207
100
AcDbEntity
  8
Layer_1
 62
7
100
AcDbSpline
 70
0
 71
3
 72
10
 73
6
 74
4
 40
0.000000
 40
0.000000
 40
0.000000
 40
0.000000
 40
13.340177
 40
24.041637
 40
35.795451
 40
35.795451
 40
35.795451
 40
35.795451
 10
435.348474
 20
588.265934
 30
0.0
 10
438.159981
 20
591.684064
 30
0.0
 10
443.226874
 20
597.844210
 30
0.0
 10
454.507108
 20
604.109995
 30
0.0
 10
455.144607
 20
612.091841
 30
0.0
 10
455.478295
 20
616.269796
 30
0.0
 11
435.348474
 21
588.265934
 31
0.0
 11
444.555602
 21
597.919385
 31
0.0
 11
452.713110
 21
604.845878
 31
0.0
 11
455.478295
 21
616.269796
 31
0.0
  0
LWPOLYLINE
  5
208
100
AcDbEntity
  8
Layer_1
 62
1
100
AcDbPolyline
 90
2
 70
0
 10
231.696116
 20
509.765873
 30
0.0
 10
233.230833
 20
504.650134
 30
0.0
  0
SPLINE
  5
209
100
AcDbEntity
  8
Layer_1
 62
7
100
AcDbSpline
 70
0
 71
3
 72
10
 73
6
 74
4
 40
0.000000
 40
0.000000
 40
0.000000
 40
0.000000
 40
20.287289
 40
34.165057
 40
48.199608
 40
48.199608
 40
48.199608
 40
48.199608
 10
455.478295
 20
616.269796
 30
0.0
 10
458.759549
 20
609.847594
 30
0.0
 10
464.285385
 20
599.032208
 30
0.0
 10
456.813441
 20
583.355969
 30
0.0
 10
450.242368
 20
576.844285
 30
0.0
 10
446.938376
 20
573.570154
 30
0.0
 11
455.478295
 21
616.269796
 31
0.0
 11
461.506161
 21
596.898711
 31
0.0
 11
456.283010
 21
584.041373
 31
0.0
 11
446.938376
 21
573.570154
 31
0.0
  0
LWPOLYLINE
  5
20a
100
AcDbEntity
  8
Layer_1
 62
7
100
AcDbPolyline
 90
2
 70
1
 10
446.938376
 20
573.570154
 30
0.0
 10
449.988343
 20
569.300203
 30
0.0
  0
SPLINE
  5
20b
100
AcDbEntity
  8
Layer_1
 62
7
100
AcDbSpline
 70
0
 71
3
 72
10
 73
6
 74
4
 40
0.000000
 40
0.000000
 40
0.000000
 40
0.000000
 40
16.369925
 40
36.676175
 40
55.277562
 40
55.277562
 40
55.277562
 40
55.277562
 10
449.988343
 20
569.300203
 30
0.0
 10
447.031069
 20
564.727408
 30
0.0
 10
440.405412
 20
554.482240
 30
0.0
 10
436.446335
 20
535.097778
 30
0.0
 10
424.560915
 20
528.523611
 30
0.0
 10
418.878604
 20
525.380561
 30
0.0
 11
449.988343
 21
569.300203
 31
0.0
 11
441.913156
 21
555.060618
 31
0.0
 11
433.845820
 21
536.425654
 31
0.0
 11
418.878604
 21
525.380561
 31
0.0
  0
SPLINE
  5
20c
100
AcDbEntity
  8
Layer_1
 62
7
100
AcDbSpline
 70
0
 71
3
 72
10
 73
6
 74
4
 40
0.000000
 40
0.000000
 40
0.000000
 40
0.000000
 40
32.068306
 40
56.138475
 40
81.585109
 40
81.585109
 40
81.585109
 40
81.585109
 10
401.188751
 20
480.240936
 30
0.0
 10
394.013085
 20
471.396361
 30
0.0
 10
381.451432
 20
455.913131
 30
0.0
 10
351.899929
 20
457.177458
 30
0.0
 10
336.772729
 20
463.496440
 30
0.0
 10
328.998876
 20
466.743758
 30
0.0
 11
401.188751
 21
480.240936
 31
0.0
 11
377.125458
 21
459.043432
 31
0.0
 11
353.062169
 21
458.467942
 31
0.0
 11
328.998876
 21
466.743758
 31
0.0
  0
SPLINE
  5
20d
100
AcDbEntity
  8
Layer_1
 62
7
100
AcDbSpline
 70
0
 71
3
 72
10
 73
6
 74
4
 40
0.000000
 40
0.000000
 40
0.000000
 40
0.000000
 40
20.724160
 40
38.180507
 40
50.555595
 40
50.555595
 40
50.555595
 40
50.555595
 10
328.998876
 20
466.743758
 30
0.0
 10
325.965437
 20
472.779525
 30
0.0
 10
320.376876
 20
483.899329
 30
0.0
 10
312.626763
 20
500.751889
 30
0.0
 10
302.359021
 20
502.638202
 30
0.0
 10
298.099614
 20
503.420708
 30
0.0
 11
328.998876
 21
466.743758
 31
0.0
 11
319.820641
 21
485.324684
 31
0.0
 11
309.897864
 21
499.686527
 31
0.0
 11
298.099614
 21
503.420708
 31
0.0
  0
SPLINE
  5
20e
100
AcDbEntity
  8
Layer_1
 62
7
100
AcDbSpline
 70
0
 71
3
 72
10
 73
6
 74
4
 40
0.000000
 40
0.000000
 40
0.000000
 40
0.000000
 40
3.215843
 40
6.431653
 40
11.704892
 40
11.704892
 40
11.704892
 40
11.704892
 10
298.099614
 20
503.420708
 30
0.0
 10
298.575320
 20
504.358194
 30
0.0
 10
299.526728
 20
506.233158
 30
0.0
 10
301.496170
 20
510.030861
 30
0.0
 10
304.668781
 20
509.716151
 30
0.0
 10
306.639549
 20
509.520659
 30
0.0
 11
298.099614
 21
503.420708
 31
0.0
 11
299.559426
 21
506.286122
 31
0.0
 11
301.400299
 21
508.922904
 31
0.0
 11
306.639549
 21
509.520659
 31
0.0
  0
SPLINE
  5
20f
100
AcDbEntity
  8
Layer_1
 62
7
100
AcDbSpline
 70
0
 71
3
 72
19
 73
15
 74
13
 40
0.000000
 40
0.000000
 40
0.000000
 40
0.000000
 40
13.361227
 40
25.354251
 40
36.891037
 40
47.699883
 40
70.049817
 40
89.363081
 40
102.915253
 40
120.499321
 40
129.270720
 40
144.316910
 40
159.244233
 40
179.465182
 40
179.465182
 40
179.465182
 40
179.465182
 10
306.639549
 20
509.520659
 30
0.0
 10
306.793378
 20
514.038824
 30
0.0
 10
307.085284
 20
522.612490
 30
0.0
 10
311.301440
 20
533.798847
 30
0.0
 10
316.377891
 20
545.834507
 30
0.0
 10
304.030417
 20
557.153363
 30
0.0
 10
297.207359
 20
572.163698
 30
0.0
 10
286.749082
 20
589.789659
 30
0.0
 10
294.825494
 20
605.877844
 30
0.0
 10
300.664056
 20
617.421867
 30
0.0
 10
309.117710
 20
628.765314
 30
0.0
 10
309.988831
 20
641.822509
 30
0.0
 10
315.155530
 20
659.108539
 30
0.0
 10
327.174663
 20
662.892454
 30
0.0
 10
334.089321
 20
665.069356
 30
0.0
 11
306.639549
 21
509.520659
 31
0.0
 11
307.824678
 21
522.829222
 31
0.0
 11
311.558655
 21
534.226153
 31
0.0
 11
313.959484
 21
545.510366
 31
0.0
 11
307.733933
 21
554.346296
 31
0.0
 11
296.100601
 21
573.429931
 31
0.0
 11
289.624463
 21
591.625035
 31
0.0
 11
294.098706
 21
604.417319
 31
0.0
 11
302.632460
 21
619.791794
 31
0.0
 11
307.249532
 21
627.249682
 31
0.0
 11
310.599138
 21
641.918287
 31
0.0
 11
316.125931
 21
655.784776
 31
0.0
 11
334.089321
 21
665.069356
 31
0.0
  0
SPLINE
  5
210
100
AcDbEntity
  8
Layer_1
 62
7
100
AcDbSpline
 70
0
 71
3
 72
10
 73
6
 74
4
 40
0.000000
 40
0.000000
 40
0.000000
 40
0.000000
 40
11.142811
 40
21.904757
 40
32.377775
 40
32.377775
 40
32.377775
 40
32.377775
 10
334.089321
 20
665.069356
 30
0.0
 10
332.734891
 20
661.639111
 30
0.0
 10
330.072325
 20
654.895868
 30
0.0
 10
326.054799
 20
644.476291
 30
0.0
 10
327.758897
 20
637.433231
 30
0.0
 10
328.599353
 20
633.959616
 30
0.0
 11
334.089321
 21
665.069356
 31
0.0
 11
330.011684
 21
654.699442
 31
0.0
 11
327.133415
 21
644.329531
 31
0.0
 11
328.599353
 21
633.959616
 31
0.0
  0
SPLINE
  5
211
100
AcDbEntity
  8
Layer_1
 62
7
100
AcDbSpline
 70
0
 71
3
 72
10
 73
6
 74
4
 40
0.000000
 40
0.000000
 40
0.000000
 40
0.000000
 40
8.994352
 40
14.825702
 40
20.449069
 40
20.449069
 40
20.449069
 40
20.449069
 10
328.599353
 20
633.959616
 30
0.0
 10
331.664973
 20
633.091733
 30
0.0
 10
336.718140
 20
631.661169
 30
0.0
 10
342.716807
 20
635.668641
 30
0.0
 10
345.522052
 20
638.204618
 30
0.0
 10
346.899207
 20
639.449584
 30
0.0
 11
328.599353
 21
633.959616
 31
0.0
 11
337.537069
 21
632.951840
 31
0.0
 11
342.633994
 21
635.784857
 31
0.0
 11
346.899207
 21
639.449584
 31
0.0
  0
SPLINE
  5
212
100
AcDbEntity
  8
Layer_1
 62
7
100
AcDbSpline
 70
0
 71
3
 72
10
 73
6
 74
4
 40
0.000000
 40
0.000000
 40
0.000000
 40
0.000000
 40
11.301215
 40
20.393389
 40
29.387466
 40
29.387466
 40
29.387466
 40
29.387466
 10
346.899207
 20
639.449584
 30
0.0
 10
346.396668
 20
635.720910
 30
0.0
 10
345.489822
 20
628.992403
 30
0.0
 10
340.048746
 20
619.953984
 30
0.0
 10
334.031595
 20
618.308195
 30
0.0
 10
331.039337
 20
617.489763
 30
0.0
 11
346.899207
 21
639.449584
 31
0.0
 11
344.510544
 21
628.403692
 31
0.0
 11
339.356204
 21
620.913670
 31
0.0
 11
331.039337
 21
617.489763
 31
0.0
  0
LWPOLYLINE
  5
213
100
AcDbEntity
  8
Layer_1
 62
7
100
AcDbPolyline
 90
4
 70
1
 10
418.878604
 20
525.380561
 30
0.0
 10
395.799421
 20
523.351528
 30
0.0
 10
402.549418
 20
516.975776
 30
0.0
 10
401.188751
 20
480.240936
 30
0.0
  0
SPLINE
  5
214
100
AcDbEntity
  8
Layer_1
 62
7
100
AcDbSpline
 70
0
 71
3
 72
10
 73
6
 74
4
 40
0.000000
 40
0.000000
 40
0.000000
 40
0.000000
 40
9.469667
 40
18.939336
 40
28.409003
 40
28.409003
 40
28.409003
 40
28.409003
 10
331.039337
 20
617.489763
 30
0.0
 10
330.226010
 20
614.439789
 30
0.0
 10
328.599356
 20
608.339840
 30
0.0
 10
326.159383
 20
599.189914
 30
0.0
 10
324.532729
 20
593.089965
 30
0.0
 10
323.719402
 20
590.039991
 30
0.0
 11
331.039337
 21
617.489763
 31
0.0
 11
328.599358
 21
608.339840
 31
0.0
 11
326.159382
 21
599.189914
 31
0.0
 11
323.719402
 21
590.039991
 31
0.0
  0
LWPOLYLINE
  5
215
100
AcDbEntity
  8
Layer_1
 62
7
100
AcDbPolyline
 90
2
 70
1
 10
323.719402
 20
590.039991
 30
0.0
 10
323.719402
 20
590.040024
 30
0.0
  0
SPLINE
  5
216
100
AcDbEntity
  8
Layer_1
 62
1
100
AcDbSpline
 70
0
 71
3
 72
10
 73
6
 74
4
 40
0.000000
 40
0.000000
 40
0.000000
 40
0.000000
 40
10.122937
 40
18.696321
 40
26.730462
 40
26.730462
 40
26.730462
 40
26.730462
 10
308.597250
 20
627.610010
 30
0.0
 10
311.945448
 20
627.370124
 30
0.0
 10
318.129324
 20
626.927070
 30
0.0
 10
326.982165
 20
623.766974
 30
0.0
 10
330.016611
 20
618.965809
 30
0.0
 10
331.484570
 20
616.643173
 30
0.0
 11
308.597250
 21
627.610010
 31
0.0
 11
318.644232
 21
626.372271
 31
0.0
 11
326.503628
 21
622.946952
 31
0.0
 11
331.484570
 21
616.643173
 31
0.0
  0
SPLINE
  5
217
100
AcDbEntity
  8
Layer_1
 62
1
100
AcDbSpline
 70
0
 71
3
 72
10
 73
6
 74
4
 40
0.000000
 40
0.000000
 40
0.000000
 40
0.000000
 40
4.594057
 40
8.194745
 40
11.948160
 40
11.948160
 40
11.948160
 40
11.948160
 10
318.610458
 20
580.881723
 30
0.0
 10
318.271933
 20
582.504343
 30
0.0
 10
317.668084
 20
585.398726
 30
0.0
 10
320.868184
 20
588.339241
 30
0.0
 10
322.846016
 20
589.715619
 30
0.0
 10
323.855469
 20
590.418100
 30
0.0
 11
318.610458
 21
580.881723
 31
0.0
 11
318.474460
 21
585.473767
 31
0.0
 11
320.829237
 21
588.197731
 31
0.0
 11
323.855469
 21
590.418100
 31
0.0
  0
SPLINE
  5
218
100
AcDbEntity
  8
Layer_1
 62
1
100
AcDbSpline
 70
0
 71
3
 72
10
 73
6
 74
4
 40
0.000000
 40
0.000000
 40
0.000000
 40
0.000000
 40
11.477356
 40
23.529223
 40
37.666102
 40
37.666102
 40
37.666102
 40
37.666102
 10
315.749536
 20
549.888453
 30
0.0
 10
319.018145
 20
551.930924
 30
0.0
 10
325.718977
 20
556.118102
 30
0.0
 10
333.081704
 20
566.794572
 30
0.0
 10
335.141093
 20
575.323889
 30
0.0
 10
336.252767
 20
579.928077
 30
0.0
 11
315.749536
 21
549.888453
 31
0.0
 11
325.055333
 21
556.606478
 31
0.0
 11
332.026140
 21
566.437823
 31
0.0
 11
336.252767
 21
579.928077
 31
0.0
  0
SPLINE
  5
219
100
AcDbEntity
  8
Layer_1
 62
1
100
AcDbSpline
 70
0
 71
3
 72
10
 73
6
 74
4
 40
0.000000
 40
0.000000
 40
0.000000
 40
0.000000
 40
12.612909
 40
25.706557
 40
42.479545
 40
42.479545
 40
42.479545
 40
42.479545
 10
349.126880
 20
573.729420
 30
0.0
 10
348.236424
 20
569.642841
 30
0.0
 10
346.421573
 20
561.313924
 30
0.0
 10
344.914594
 20
546.780809
 30
0.0
 10
349.749405
 20
537.778577
 30
0.0
 10
352.464616
 20
532.722958
 30
0.0
 11
349.126880
 21
573.729420
 31
0.0
 11
346.672874
 21
561.357544
 31
0.0
 11
346.178000
 21
548.273250
 31
0.0
 11
352.464616
 21
532.722958
 31
0.0
  0
SPLINE
  5
21a
100
AcDbEntity
  8
Layer_1
 62
1
100
AcDbSpline
 70
0
 71
3
 72
10
 73
6
 74
4
 40
0.000000
 40
0.000000
 40
0.000000
 40
0.000000
 40
17.106502
 40
34.935529
 40
59.776270
 40
59.776270
 40
59.776270
 40
59.776270
 10
383.934700
 20
556.563925
 30
0.0
 10
380.972140
 20
551.663922
 30
0.0
 10
374.921889
 20
541.656956
 30
0.0
 10
357.467364
 20
529.795363
 30
0.0
 10
342.853270
 20
530.741632
 30
0.0
 10
334.345492
 20
531.292514
 30
0.0
 11
383.934700
 21
556.563925
 31
0.0
 11
374.051788
 21
542.601101
 31
0.0
 11
359.138596
 21
532.830181
 31
0.0
 11
334.345492
 21
531.292514
 31
0.0
  0
SPLINE
  5
21b
100
AcDbEntity
  8
Layer_1
 62
1
100
AcDbSpline
 70
0
 71
3
 72
10
 73
6
 74
4
 40
0.000000
 40
0.000000
 40
0.000000
 40
0.000000
 40
8.893729
 40
17.272062
 40
24.898856
 40
24.898856
 40
24.898856
 40
24.898856
 10
334.345492
 20
531.292514
 30
0.0
 10
332.019352
 20
529.089220
 30
0.0
 10
327.501873
 20
524.810315
 30
0.0
 10
329.938372
 20
515.880561
 30
0.0
 10
328.079160
 20
510.817728
 30
0.0
 10
327.193205
 20
508.405177
 30
0.0
 11
334.345492
 21
531.292514
 31
0.0
 11
329.012985
 21
524.174735
 31
0.0
 11
329.073253
 21
515.796618
 31
0.0
 11
327.193205
 21
508.405177
 31
0.0
  0
SPLINE
  5
21c
100
AcDbEntity
  8
Layer_1
 62
1
100
AcDbSpline
 70
0
 71
3
 72
10
 73
6
 74
4
 40
0.000000
 40
0.000000
 40
0.000000
 40
0.000000
 40
5.413292
 40
8.686061
 40
11.564583
 40
11.564583
 40
11.564583
 40
11.564583
 10
327.193205
 20
508.405177
 30
0.0
 10
327.259924
 20
506.650653
 30
0.0
 10
327.366980
 20
503.835380
 30
0.0
 10
325.733721
 20
499.605926
 30
0.0
 10
323.479759
 20
499.753413
 30
0.0
 10
322.425008
 20
499.822430
 30
0.0
 11
327.193205
 21
508.405177
 31
0.0
 11
326.875323
 21
503.001226
 31
0.0
 11
325.285924
 21
500.140313
 31
0.0
 11
322.425008
 21
499.822430
 31
0.0
  0
SPLINE
  5
21d
100
AcDbEntity
  8
Layer_1
 62
1
100
AcDbSpline
 70
0
 71
3
 72
10
 73
6
 74
4
 40
0.000000
 40
0.000000
 40
0.000000
 40
0.000000
 40
6.043426
 40
10.853812
 40
14.507507
 40
14.507507
 40
14.507507
 40
14.507507
 10
322.425008
 20
499.822430
 30
0.0
 10
322.385638
 20
497.810128
 30
0.0
 10
322.314930
 20
494.196096
 30
0.0
 10
321.815989
 20
489.353384
 30
0.0
 10
320.909177
 20
486.674327
 30
0.0
 10
320.517733
 20
485.517856
 30
0.0
 11
322.425008
 21
499.822430
 31
0.0
 11
322.213090
 21
493.782720
 31
0.0
 11
321.577333
 21
489.014532
 31
0.0
 11
320.517733
 21
485.517856
 31
0.0
  0
SPLINE
  5
21e
100
AcDbEntity
  8
Layer_1
 62
1
100
AcDbSpline
 70
0
 71
3
 72
10
 73
6
 74
4
 40
0.000000
 40
0.000000
 40
0.000000
 40
0.000000
 40
13.723404
 40
26.267977
 40
37.540702
 40
37.540702
 40
37.540702
 40
37.540702
 10
346.265975
 20
563.716228
 30
0.0
 10
349.684977
 20
560.669922
 30
0.0
 10
356.229292
 20
554.838985
 30
0.0
 10
367.856307
 20
549.307211
 30
0.0
 10
375.856723
 20
549.054454
 30
0.0
 10
379.643319
 20
548.934824
 30
0.0
 11
346.265975
 21
563.716228
 31
0.0
 11
356.957325
 21
555.112343
 31
0.0
 11
368.423266
 21
550.023283
 31
0.0
 11
379.643319
 21
548.934824
 31
0.0
  0
SPLINE
  5
21f
100
AcDbEntity
  8
Layer_1
 62
1
100
AcDbSpline
 70
0
 71
3
 72
10
 73
6
 74
4
 40
0.000000
 40
0.000000
 40
0.000000
 40
0.000000
 40
8.783328
 40
17.882909
 40
30.347535
 40
30.347535
 40
30.347535
 40
30.347535
 10
345.789144
 20
554.656650
 30
0.0
 10
348.078284
 20
552.855321
 30
0.0
 10
352.738987
 20
549.187803
 30
0.0
 10
360.879382
 20
542.749807
 30
0.0
 10
368.237731
 20
542.136844
 30
0.0
 10
372.491032
 20
541.782537
 30
0.0
 11
345.789144
 21
554.656650
 31
0.0
 11
352.689419
 21
549.222217
 31
0.0
 11
360.257015
 21
544.169114
 31
0.0
 11
372.491032
 21
541.782537
 31
0.0
  0
SPLINE
  5
220
100
AcDbEntity
  8
Layer_1
 62
1
100
AcDbSpline
 70
0
 71
3
 72
10
 73
6
 74
4
 40
0.000000
 40
0.000000
 40
0.000000
 40
0.000000
 40
12.915362
 40
28.349558
 40
43.818586
 40
43.818586
 40
43.818586
 40
43.818586
 10
308.120418
 20
509.358823
 30
0.0
 10
312.314234
 20
507.791277
 30
0.0
 10
321.519770
 20
504.350474
 30
0.0
 10
327.564717
 20
490.022263
 30
0.0
 10
333.354575
 20
481.618527
 30
0.0
 10
336.252767
 20
477.411924
 30
0.0
 11
308.120418
 21
509.358823
 31
0.0
 11
319.602977
 21
503.446342
 31
0.0
 11
327.940711
 21
490.458016
 31
0.0
 11
336.252767
 21
477.411924
 31
0.0
  0
SPLINE
  5
221
100
AcDbEntity
  8
Layer_1
 62
1
100
AcDbSpline
 70
0
 71
3
 72
19
 73
15
 74
13
 40
0.000000
 40
0.000000
 40
0.000000
 40
0.000000
 40
1.293808
 40
2.568761
 40
3.921204
 40
5.292399
 40
6.604237
 40
7.917630
 40
9.211442
 40
10.486399
 40
11.838845
 40
13.182895
 40
14.471050
 40
15.760191
 40
15.760191
 40
15.760191
 40
15.760191
 10
336.494765
 20
519.458016
 30
0.0
 10
336.054402
 20
519.410795
 30
0.0
 10
335.180094
 20
519.317040
 30
0.0
 10
334.009863
 20
520.087819
 30
0.0
 10
333.359254
 20
521.305140
 30
0.0
 10
333.368186
 20
522.709273
 30
0.0
 10
334.029389
 20
523.928081
 30
0.0
 10
335.196666
 20
524.651584
 30
0.0
 10
336.561925
 20
524.640252
 30
0.0
 10
337.720251
 20
523.910970
 30
0.0
 10
338.370663
 20
522.687207
 30
0.0
 10
338.364012
 20
521.317525
 30
0.0
 10
337.747244
 20
520.073094
 30
0.0
 10
336.962026
 20
519.677794
 30
0.0
 10
336.569268
 20
519.480069
 30
0.0
 11
336.494765
 21
519.458016
 31
0.0
 11
335.200998
 21
519.468229
 31
0.0
 11
334.116960
 21
520.139324
 31
0.0
 11
333.473062
 21
521.328651
 31
0.0
 11
333.482707
 21
522.699812
 31
0.0
 11
334.115923
 21
523.848705
 31
0.0
 11
335.238112
 21
524.531123
 31
0.0
 11
336.531883
 21
524.520902
 31
0.0
 11
337.615925
 21
523.849806
 31
0.0
 11
338.259815
 21
522.660471
 31
0.0
 11
338.257121
 21
521.316424
 31
0.0
 11
337.652509
 21
520.178976
 31
0.0
 11
336.569268
 21
519.480069
 31
0.0
  0
SPLINE
  5
222
100
AcDbEntity
  8
Layer_1
 62
1
100
AcDbSpline
 70
0
 71
3
 72
19
 73
15
 74
13
 40
0.000000
 40
0.000000
 40
0.000000
 40
0.000000
 40
1.293808
 40
2.568761
 40
3.921204
 40
5.292399
 40
6.604237
 40
7.917630
 40
9.211442
 40
10.486399
 40
11.838845
 40
13.182895
 40
14.471050
 40
15.760191
 40
15.760191
 40
15.760191
 40
15.760191
 10
329.728855
 20
492.994519
 30
0.0
 10
329.288492
 20
492.947298
 30
0.0
 10
328.414184
 20
492.853543
 30
0.0
 10
327.243953
 20
493.624322
 30
0.0
 10
326.593344
 20
494.841643
 30
0.0
 10
326.602276
 20
496.245776
 30
0.0
 10
327.263479
 20
497.464584
 30
0.0
 10
328.430756
 20
498.188087
 30
0.0
 10
329.796014
 20
498.176755
 30
0.0
 10
330.954340
 20
497.447473
 30
0.0
 10
331.604753
 20
496.223710
 30
0.0
 10
331.598102
 20
494.854028
 30
0.0
 10
330.981333
 20
493.609597
 30
0.0
 10
330.196116
 20
493.214297
 30
0.0
 10
329.803357
 20
493.016572
 30
0.0
 11
329.728855
 21
492.994519
 31
0.0
 11
328.435087
 21
493.004732
 31
0.0
 11
327.351050
 21
493.675827
 31
0.0
 11
326.707152
 21
494.865154
 31
0.0
 11
326.716797
 21
496.236315
 31
0.0
 11
327.350013
 21
497.385208
 31
0.0
 11
328.472202
 21
498.067626
 31
0.0
 11
329.765973
 21
498.057405
 31
0.0
 11
330.850015
 21
497.386309
 31
0.0
 11
331.493905
 21
496.196974
 31
0.0
 11
331.491210
 21
494.852927
 31
0.0
 11
330.886599
 21
493.715479
 31
0.0
 11
329.803357
 21
493.016572
 31
0.0
  0
SPLINE
  5
223
100
AcDbEntity
  8
Layer_1
 62
1
100
AcDbSpline
 70
0
 71
3
 72
10
 73
6
 74
4
 40
0.000000
 40
0.000000
 40
0.000000
 40
0.000000
 40
12.488092
 40
24.126421
 40
35.358816
 40
35.358816
 40
35.358816
 40
35.358816
 10
395.855184
 20
556.563925
 30
0.0
 10
395.944865
 20
552.406547
 30
0.0
 10
396.118125
 20
544.374682
 30
0.0
 10
394.146499
 20
532.520348
 30
0.0
 10
390.176053
 20
525.941035
 30
0.0
 10
388.226066
 20
522.709767
 30
0.0
 11
395.855184
 21
556.563925
 31
0.0
 11
395.717373
 21
544.076594
 31
0.0
 11
393.425943
 21
532.666070
 31
0.0
 11
388.226066
 21
522.709767
 31
0.0
  0
SPLINE
  5
224
100
AcDbEntity
  8
Layer_1
 62
1
100
AcDbSpline
 70
0
 71
3
 72
10
 73
6
 74
4
 40
0.000000
 40
0.000000
 40
0.000000
 40
0.000000
 40
13.585107
 40
27.364407
 40
41.465774
 40
41.465774
 40
41.465774
 40
41.465774
 10
389.179712
 20
493.623789
 30
0.0
 10
390.271696
 20
498.021052
 30
0.0
 10
392.471275
 20
506.878434
 30
0.0
 10
394.216445
 20
520.631676
 30
0.0
 10
394.354764
 20
529.928262
 30
0.0
 10
394.424723
 20
534.630250
 30
0.0
 11
389.179712
 21
493.623789
 31
0.0
 11
392.197397
 21
506.869494
 31
0.0
 11
393.950060
 21
520.536874
 31
0.0
 11
394.424723
 21
534.630250
 31
0.0
  0
SPLINE
  5
225
100
AcDbEntity
  8
Layer_1
 62
1
100
AcDbSpline
 70
0
 71
3
 72
10
 73
6
 74
4
 40
0.000000
 40
0.000000
 40
0.000000
 40
0.000000
 40
10.280882
 40
19.417245
 40
28.607415
 40
28.607415
 40
28.607415
 40
28.607415
 10
335.299121
 20
513.650188
 30
0.0
 10
336.666798
 20
510.413992
 30
0.0
 10
339.249896
 20
504.301870
 30
0.0
 10
347.586952
 20
499.008336
 30
0.0
 10
353.058530
 20
496.374845
 30
0.0
 10
355.802352
 20
495.054233
 30
0.0
 11
335.299121
 21
513.650188
 31
0.0
 11
340.264386
 21
504.647818
 31
0.0
 11
347.603749
 21
499.206597
 31
0.0
 11
355.802352
 21
495.054233
 31
0.0
  0
SPLINE
  5
226
100
AcDbEntity
  8
Layer_1
 62
1
100
AcDbSpline
 70
0
 71
3
 72
10
 73
6
 74
4
 40
0.000000
 40
0.000000
 40
0.000000
 40
0.000000
 40
9.130073
 40
17.651471
 40
26.519807
 40
26.519807
 40
26.519807
 40
26.519807
 10
422.251229
 20
580.382659
 30
0.0
 10
425.302162
 20
580.756201
 30
0.0
 10
431.200633
 20
581.478383
 30
0.0
 10
439.881027
 20
578.620936
 30
0.0
 10
444.467660
 20
575.044517
 30
0.0
 10
446.806730
 20
573.220631
 30
0.0
 11
422.251229
 21
580.382659
 31
0.0
 11
431.371701
 21
580.801241
 31
0.0
 11
439.502052
 21
578.249454
 31
0.0
 11
446.806730
 21
573.220631
 31
0.0
  0
SPLINE
  5
227
100
AcDbEntity
  8
Layer_1
 62
7
100
AcDbSpline
 70
0
 71
3
 72
10
 73
6
 74
4
 40
0.000000
 40
0.000000
 40
0.000000
 40
0.000000
 40
10.665405
 40
21.712790
 40
33.754458
 40
33.754458
 40
33.754458
 40
33.754458
 10
334.838361
 20
354.568331
 30
0.0
 10
337.698734
 20
352.460176
 30
0.0
 10
343.521924
 20
348.168362
 30
0.0
 10
353.101838
 20
342.161285
 30
0.0
 10
360.342095
 20
339.491065
 30
0.0
 10
364.118116
 20
338.098461
 30
0.0
 11
334.838361
 21
354.568331
 31
0.0
 11
343.501312
 21
348.347066
 31
0.0
 11
352.976996
 21
342.667618
 31
0.0
 11
364.118116
 21
338.098461
 31
0.0
  0
SPLINE
  5
228
100
AcDbEntity
  8
Layer_1
 62
7
100
AcDbSpline
 70
0
 71
3
 72
10
 73
6
 74
4
 40
0.000000
 40
0.000000
 40
0.000000
 40
0.000000
 40
14.684116
 40
25.281284
 40
35.252003
 40
35.252003
 40
35.252003
 40
35.252003
 10
364.118116
 20
338.098461
 30
0.0
 10
365.239392
 20
342.879972
 30
0.0
 10
367.169864
 20
351.112182
 30
0.0
 10
367.201499
 20
362.944194
 30
0.0
 10
368.822334
 20
369.628046
 30
0.0
 10
369.608067
 20
372.868185
 30
0.0
 11
364.118116
 21
338.098461
 31
0.0
 11
366.838327
 21
352.528421
 31
0.0
 11
367.627430
 21
363.096168
 31
0.0
 11
369.608067
 21
372.868185
 31
0.0
  0
SPLINE
  5
229
100
AcDbEntity
  8
Layer_1
 62
7
100
AcDbSpline
 70
0
 71
3
 72
10
 73
6
 74
4
 40
0.000000
 40
0.000000
 40
0.000000
 40
0.000000
 40
18.466934
 40
36.358149
 40
64.225027
 40
64.225027
 40
64.225027
 40
64.225027
 10
369.608067
 20
372.868185
 30
0.0
 10
373.662118
 20
378.102046
 30
0.0
 10
381.643831
 20
388.406599
 30
0.0
 10
407.608109
 20
382.384983
 30
0.0
 10
409.391582
 20
365.475985
 30
0.0
 10
410.477725
 20
355.178331
 30
0.0
 11
369.608067
 21
372.868185
 31
0.0
 11
383.503021
 21
385.031979
 31
0.0
 11
401.019869
 21
381.391150
 31
0.0
 11
410.477725
 21
355.178331
 31
0.0
  0
SPLINE
  5
22a
100
AcDbEntity
  8
Layer_1
 62
7
100
AcDbSpline
 70
0
 71
3
 72
10
 73
6
 74
4
 40
0.000000
 40
0.000000
 40
0.000000
 40
0.000000
 40
4.840353
 40
9.561460
 40
13.416767
 40
13.416767
 40
13.416767
 40
13.416767
 10
410.477725
 20
355.178331
 30
0.0
 10
410.288616
 20
353.586994
 30
0.0
 10
409.915057
 20
350.443525
 30
0.0
 10
409.929043
 20
345.794037
 30
0.0
 10
408.203453
 20
343.430773
 30
0.0
 10
407.427758
 20
342.368429
 30
0.0
 11
410.477725
 21
355.178331
 31
0.0
 11
410.008686
 21
350.360757
 31
0.0
 11
409.404342
 21
345.678491
 31
0.0
 11
407.427758
 21
342.368429
 31
0.0
  0
SPLINE
  5
22b
100
AcDbEntity
  8
Layer_1
 62
7
100
AcDbSpline
 70
0
 71
3
 72
13
 73
9
 74
7
 40
0.000000
 40
0.000000
 40
0.000000
 40
0.000000
 40
4.403645
 40
7.073879
 40
8.532490
 40
14.208103
 40
19.786578
 40
22.345339
 40
22.345339
 40
22.345339
 40
22.345339
 10
407.427758
 20
342.368429
 30
0.0
 10
407.042914
 20
340.669588
 30
0.0
 10
406.424712
 20
337.940623
 30
0.0
 10
402.874777
 20
338.390294
 30
0.0
 10
401.159047
 20
335.226116
 30
0.0
 10
403.056607
 20
330.897771
 30
0.0
 10
401.213719
 20
326.425545
 30
0.0
 10
401.300514
 20
323.704292
 30
0.0
 10
401.327807
 20
322.848592
 30
0.0
 11
407.427758
 21
342.368429
 31
0.0
 11
405.372257
 21
338.473945
 31
0.0
 11
402.786962
 21
337.805814
 31
0.0
 11
401.993700
 21
336.581770
 31
0.0
 11
402.261982
 21
330.912501
 31
0.0
 11
401.361860
 21
325.407126
 31
0.0
 11
401.327807
 21
322.848592
 31
0.0
  0
SPLINE
  5
22c
100
AcDbEntity
  8
Layer_1
 62
7
100
AcDbSpline
 70
0
 71
3
 72
10
 73
6
 74
4
 40
0.000000
 40
0.000000
 40
0.000000
 40
0.000000
 40
8.650774
 40
17.002726
 40
25.532274
 40
25.532274
 40
25.532274
 40
25.532274
 10
401.327807
 20
322.848592
 30
0.0
 10
404.075728
 20
321.851762
 30
0.0
 10
409.476649
 20
319.892537
 30
0.0
 10
418.125501
 20
320.896717
 30
0.0
 10
423.581099
 20
322.193420
 30
0.0
 10
426.337595
 20
322.848592
 30
0.0
 11
401.327807
 21
322.848592
 31
0.0
 11
409.664403
 21
320.538384
 31
0.0
 11
418.000999
 21
321.044610
 31
0.0
 11
426.337595
 21
322.848592
 31
0.0
  0
SPLINE
  5
22d
100
AcDbEntity
  8
Layer_1
 62
7
100
AcDbSpline
 70
0
 71
3
 72
10
 73
6
 74
4
 40
0.000000
 40
0.000000
 40
0.000000
 40
0.000000
 40
7.394865
 40
14.709737
 40
21.707574
 40
21.707574
 40
21.707574
 40
21.707574
 10
426.337595
 20
322.848592
 30
0.0
 10
427.202202
 20
325.153492
 30
0.0
 10
428.922064
 20
329.738361
 30
0.0
 10
431.642160
 20
336.496066
 30
0.0
 10
432.176362
 20
341.259479
 30
0.0
 10
432.437546
 20
343.588429
 30
0.0
 11
426.337595
 21
322.848592
 31
0.0
 11
428.962593
 21
329.761870
 31
0.0
 11
431.352968
 21
336.675151
 31
0.0
 11
432.437546
 21
343.588429
 31
0.0
  0
SPLINE
  5
22e
100
AcDbEntity
  8
Layer_1
 62
7
100
AcDbSpline
 70
0
 71
3
 72
10
 73
6
 74
4
 40
0.000000
 40
0.000000
 40
0.000000
 40
0.000000
 40
11.023647
 40
21.039787
 40
30.153193
 40
30.153193
 40
30.153193
 40
30.153193
 10
432.437546
 20
343.588429
 30
0.0
 10
432.090746
 20
347.211611
 30
0.0
 10
431.428842
 20
354.126833
 30
0.0
 10
431.321560
 20
364.658554
 30
0.0
 10
435.382735
 20
369.805944
 30
0.0
 10
437.317497
 20
372.258185
 30
0.0
 11
432.437546
 21
343.588429
 31
0.0
 11
431.558300
 21
354.576956
 31
0.0
 11
432.450387
 21
364.553290
 31
0.0
 11
437.317497
 21
372.258185
 31
0.0
  0
SPLINE
  5
22f
100
AcDbEntity
  8
Layer_1
 62
7
100
AcDbSpline
 70
0
 71
3
 72
10
 73
6
 74
4
 40
0.000000
 40
0.000000
 40
0.000000
 40
0.000000
 40
8.518932
 40
16.036670
 40
22.130020
 40
22.130020
 40
22.130020
 40
22.130020
 10
437.317497
 20
372.258185
 30
0.0
 10
437.947274
 20
369.516466
 30
0.0
 10
439.132812
 20
364.355251
 30
0.0
 10
441.163068
 20
356.925481
 30
0.0
 10
444.827124
 20
354.071775
 30
0.0
 10
446.467432
 20
352.794241
 30
0.0
 11
437.317497
 21
372.258185
 31
0.0
 11
439.287449
 21
363.970151
 31
0.0
 11
442.030576
 21
356.970749
 31
0.0
 11
446.467432
 21
352.794241
 31
0.0
  0
SPLINE
  5
230
100
AcDbEntity
  8
Layer_1
 62
7
100
AcDbSpline
 70
0
 71
3
 72
10
 73
6
 74
4
 40
0.000000
 40
0.000000
 40
0.000000
 40
0.000000
 40
13.340177
 40
24.041637
 40
35.795451
 40
35.795451
 40
35.795451
 40
35.795451
 10
446.467432
 20
352.794241
 30
0.0
 10
449.278940
 20
356.212371
 30
0.0
 10
454.345832
 20
362.372517
 30
0.0
 10
465.626066
 20
368.638302
 30
0.0
 10
466.263565
 20
376.620148
 30
0.0
 10
466.597253
 20
380.798103
 30
0.0
 11
446.467432
 21
352.794241
 31
0.0
 11
455.674560
 21
362.447693
 31
0.0
 11
463.832068
 21
369.374185
 31
0.0
 11
466.597253
 21
380.798103
 31
0.0
  0
LWPOLYLINE
  5
231
100
AcDbEntity
  8
Layer_1
 62
1
100
AcDbPolyline
 90
2
 70
0
 10
324.809098
 20
627.133196
 30
0.0
 10
328.623649
 20
633.331837
 30
0.0
  0
SPLINE
  5
232
100
AcDbEntity
  8
Layer_1
 62
7
100
AcDbSpline
 70
0
 71
3
 72
10
 73
6
 74
4
 40
0.000000
 40
0.000000
 40
0.000000
 40
0.000000
 40
20.287289
 40
34.165057
 40
48.199608
 40
48.199608
 40
48.199608
 40
48.199608
 10
466.597253
 20
380.798103
 30
0.0
 10
469.878507
 20
374.375902
 30
0.0
 10
475.404343
 20
363.560515
 30
0.0
 10
467.932400
 20
347.884276
 30
0.0
 10
461.361326
 20
341.372592
 30
0.0
 10
458.057334
 20
338.098461
 30
0.0
 11
466.597253
 21
380.798103
 31
0.0
 11
472.625119
 21
361.427019
 31
0.0
 11
467.401969
 21
348.569681
 31
0.0
 11
458.057334
 21
338.098461
 31
0.0
  0
SPLINE
  5
233
100
AcDbEntity
  8
Layer_1
 62
7
100
AcDbSpline
 70
0
 71
3
 72
10
 73
6
 74
4
 40
0.000000
 40
0.000000
 40
0.000000
 40
0.000000
 40
16.369925
 40
36.676175
 40
55.277562
 40
55.277562
 40
55.277562
 40
55.277562
 10
461.107302
 20
333.828510
 30
0.0
 10
458.150027
 20
329.255715
 30
0.0
 10
451.524370
 20
319.010548
 30
0.0
 10
447.565294
 20
299.626086
 30
0.0
 10
435.679874
 20
293.051918
 30
0.0
 10
429.997562
 20
289.908869
 30
0.0
 11
461.107302
 21
333.828510
 31
0.0
 11
453.032114
 21
319.588925
 31
0.0
 11
444.964778
 21
300.953961
 31
0.0
 11
429.997562
 21
289.908869
 31
0.0
  0
SPLINE
  5
234
100
AcDbEntity
  8
Layer_1
 62
7
100
AcDbSpline
 70
0
 71
3
 72
10
 73
6
 74
4
 40
0.000000
 40
0.000000
 40
0.000000
 40
0.000000
 40
7.969439
 40
19.301134
 40
38.900483
 40
38.900483
 40
38.900483
 40
38.900483
 10
429.997562
 20
289.908869
 30
0.0
 10
432.482333
 20
288.669980
 30
0.0
 10
438.500185
 20
285.669523
 30
0.0
 10
441.068725
 20
271.560633
 30
0.0
 10
439.892678
 20
261.508599
 30
0.0
 10
439.147481
 20
255.139162
 30
0.0
 11
429.997562
 21
289.908869
 31
0.0
 11
436.643185
 21
285.510273
 31
0.0
 11
440.090870
 21
274.715793
 31
0.0
 11
439.147481
 21
255.139162
 31
0.0
  0
SPLINE
  5
235
100
AcDbEntity
  8
Layer_1
 62
7
100
AcDbSpline
 70
0
 71
3
 72
10
 73
6
 74
4
 40
0.000000
 40
0.000000
 40
0.000000
 40
0.000000
 40
9.881860
 40
16.669973
 40
26.188283
 40
26.188283
 40
26.188283
 40
26.188283
 10
439.147481
 20
255.139162
 30
0.0
 10
442.314262
 20
256.067195
 30
0.0
 10
447.656391
 20
257.632720
 30
0.0
 10
457.301836
 20
253.952798
 30
0.0
 10
456.238207
 20
247.768897
 30
0.0
 10
455.617351
 20
244.159260
 30
0.0
 11
439.147481
 21
255.139162
 31
0.0
 11
448.928111
 21
256.549989
 31
0.0
 11
455.071184
 21
253.661887
 31
0.0
 11
455.617351
 21
244.159260
 31
0.0
  0
LWPOLYLINE
  5
236
100
AcDbEntity
  8
Layer_1
 62
7
100
AcDbPolyline
 90
2
 70
1
 10
458.057334
 20
338.098461
 30
0.0
 10
461.107302
 20
333.828510
 30
0.0
  0
SPLINE
  5
237
100
AcDbEntity
  8
Layer_1
 62
7
100
AcDbSpline
 70
0
 71
3
 72
10
 73
6
 74
4
 40
0.000000
 40
0.000000
 40
0.000000
 40
0.000000
 40
14.493418
 40
28.639757
 40
43.577896
 40
43.577896
 40
43.577896
 40
43.577896
 10
455.617351
 20
244.159260
 30
0.0
 10
452.056935
 20
240.911561
 30
0.0
 10
445.021368
 20
234.493937
 30
0.0
 10
431.206382
 20
227.996091
 30
0.0
 10
421.453625
 20
229.859553
 30
0.0
 10
416.444491
 20
230.816649
 30
0.0
 11
455.617351
 21
244.159260
 31
0.0
 11
444.412707
 21
234.966048
 31
0.0
 11
431.331434
 21
229.580959
 31
0.0
 11
416.444491
 21
230.816649
 31
0.0
  0
SPLINE
  5
238
100
AcDbEntity
  8
Layer_1
 62
7
100
AcDbSpline
 70
0
 71
3
 72
10
 73
6
 74
4
 40
0.000000
 40
0.000000
 40
0.000000
 40
0.000000
 40
32.068306
 40
56.138475
 40
81.585109
 40
81.585109
 40
81.585109
 40
81.585109
 10
412.307709
 20
244.769243
 30
0.0
 10
405.132043
 20
235.924668
 30
0.0
 10
392.570390
 20
220.441438
 30
0.0
 10
363.018888
 20
221.705765
 30
0.0
 10
347.891687
 20
228.024747
 30
0.0
 10
340.117835
 20
231.272066
 30
0.0
 11
412.307709
 21
244.769243
 31
0.0
 11
388.244416
 21
223.571739
 31
0.0
 11
364.181127
 21
222.996249
 31
0.0
 11
340.117835
 21
231.272066
 31
0.0
  0
SPLINE
  5
239
100
AcDbEntity
  8
Layer_1
 62
7
100
AcDbSpline
 70
0
 71
3
 72
10
 73
6
 74
4
 40
0.000000
 40
0.000000
 40
0.000000
 40
0.000000
 40
9.579534
 40
18.547404
 40
26.514894
 40
26.514894
 40
26.514894
 40
26.514894
 10
340.117835
 20
231.272066
 30
0.0
 10
341.794123
 20
228.601276
 30
0.0
 10
345.039667
 20
223.430228
 30
0.0
 10
351.245715
 20
216.287747
 30
0.0
 10
350.367986
 20
210.442650
 30
0.0
 10
349.955045
 20
207.692738
 30
0.0
 11
340.117835
 21
231.272066
 31
0.0
 11
345.438975
 21
223.306330
 31
0.0
 11
350.122241
 21
215.658474
 31
0.0
 11
349.955045
 21
207.692738
 31
0.0
  0
SPLINE
  5
23a
100
AcDbEntity
  8
Layer_1
 62
7
100
AcDbSpline
 70
0
 71
3
 72
10
 73
6
 74
4
 40
0.000000
 40
0.000000
 40
0.000000
 40
0.000000
 40
17.923024
 40
34.372613
 40
47.052298
 40
47.052298
 40
47.052298
 40
47.052298
 10
349.955045
 20
207.692738
 30
0.0
 10
344.478753
 20
205.584999
 30
0.0
 10
333.976369
 20
201.542796
 30
0.0
 10
318.574028
 20
194.225024
 30
0.0
 10
309.505880
 20
198.840533
 30
0.0
 10
305.558605
 20
200.849618
 30
0.0
 11
349.955045
 21
207.692738
 31
0.0
 11
333.322433
 21
201.015089
 31
0.0
 11
317.488950
 21
196.555289
 31
0.0
 11
305.558605
 21
200.849618
 31
0.0
  0
LWPOLYLINE
  5
23b
100
AcDbEntity
  8
Layer_1
 62
7
100
AcDbPolyline
 90
3
 70
1
 10
416.444491
 20
230.816649
 30
0.0
 10
417.797660
 20
245.379243
 30
0.0
 10
412.307709
 20
244.769243
 30
0.0
  0
SPLINE
  5
23c
100
AcDbEntity
  8
Layer_1
 62
7
100
AcDbSpline
 70
0
 71
3
 72
10
 73
6
 74
4
 40
0.000000
 40
0.000000
 40
0.000000
 40
0.000000
 40
8.660768
 40
15.770174
 40
24.861997
 40
24.861997
 40
24.861997
 40
24.861997
 10
305.558605
 20
200.849618
 30
0.0
 10
304.816655
 20
203.737526
 30
0.0
 10
303.465656
 20
208.996043
 30
0.0
 10
308.052426
 20
217.002824
 30
0.0
 10
313.488106
 20
218.377829
 30
0.0
 10
316.538507
 20
219.149455
 30
0.0
 11
305.558605
 21
200.849618
 31
0.0
 11
304.617724
 21
209.459127
 31
0.0
 11
308.157838
 21
215.624453
 31
0.0
 11
316.538507
 21
219.149455
 31
0.0
  0
SPLINE
  5
23d
100
AcDbEntity
  8
Layer_1
 62
7
100
AcDbSpline
 70
0
 71
3
 72
10
 73
6
 74
4
 40
0.000000
 40
0.000000
 40
0.000000
 40
0.000000
 40
12.218570
 40
21.890630
 40
31.894629
 40
31.894629
 40
31.894629
 40
31.894629
 10
296.408686
 20
241.719243
 30
0.0
 10
295.929206
 20
245.828668
 30
0.0
 10
295.070175
 20
253.191060
 30
0.0
 10
300.200045
 20
263.403963
 30
0.0
 10
306.178776
 20
266.417054
 30
0.0
 10
309.218572
 20
267.949015
 30
0.0
 11
296.408686
 21
241.719243
 31
0.0
 11
296.334785
 21
253.937589
 31
0.0
 11
300.826638
 21
262.503335
 31
0.0
 11
309.218572
 21
267.949015
 31
0.0
  0
SPLINE
  5
23e
100
AcDbEntity
  8
Layer_1
 62
7
100
AcDbSpline
 70
0
 71
3
 72
10
 73
6
 74
4
 40
0.000000
 40
0.000000
 40
0.000000
 40
0.000000
 40
3.215843
 40
6.431653
 40
11.704892
 40
11.704892
 40
11.704892
 40
11.704892
 10
309.218572
 20
267.949015
 30
0.0
 10
309.694279
 20
268.886502
 30
0.0
 10
310.645687
 20
270.761465
 30
0.0
 10
312.615128
 20
274.559168
 30
0.0
 10
315.787740
 20
274.244458
 30
0.0
 10
317.758507
 20
274.048966
 30
0.0
 11
309.218572
 21
267.949015
 31
0.0
 11
310.678384
 21
270.814429
 31
0.0
 11
312.519257
 21
273.451211
 31
0.0
 11
317.758507
 21
274.048966
 31
0.0
  0
SPLINE
  5
23f
100
AcDbEntity
  8
Layer_1
 62
7
100
AcDbSpline
 70
0
 71
3
 72
19
 73
15
 74
13
 40
0.000000
 40
0.000000
 40
0.000000
 40
0.000000
 40
13.361227
 40
25.354251
 40
36.891037
 40
47.699883
 40
70.049817
 40
89.363081
 40
102.915253
 40
120.499321
 40
129.270720
 40
144.316910
 40
159.244233
 40
179.465182
 40
179.465182
 40
179.465182
 40
179.465182
 10
317.758507
 20
274.048966
 30
0.0
 10
317.912336
 20
278.567131
 30
0.0
 10
318.204242
 20
287.140797
 30
0.0
 10
322.420399
 20
298.327154
 30
0.0
 10
327.496850
 20
310.362815
 30
0.0
 10
315.149375
 20
321.681670
 30
0.0
 10
308.326317
 20
336.692005
 30
0.0
 10
297.868041
 20
354.317966
 30
0.0
 10
305.944452
 20
370.406151
 30
0.0
 10
311.783014
 20
381.950174
 30
0.0
 10
320.236669
 20
393.293622
 30
0.0
 10
321.107790
 20
406.350817
 30
0.0
 10
326.274488
 20
423.636846
 30
0.0
 10
338.293621
 20
427.420761
 30
0.0
 10
345.208279
 20
429.597663
 30
0.0
 11
317.758507
 21
274.048966
 31
0.0
 11
318.943636
 21
287.357529
 31
0.0
 11
322.677613
 21
298.754461
 31
0.0
 11
325.078442
 21
310.038673
 31
0.0
 11
318.852892
 21
318.874604
 31
0.0
 11
307.219559
 21
337.958239
 31
0.0
 11
300.743421
 21
356.153342
 31
0.0
 11
305.217665
 21
368.945626
 31
0.0
 11
313.751419
 21
384.320102
 31
0.0
 11
318.368491
 21
391.777989
 31
0.0
 11
321.718096
 21
406.446594
 31
0.0
 11
327.244890
 21
420.313083
 31
0.0
 11
345.208279
 21
429.597663
 31
0.0
  0
SPLINE
  5
240
100
AcDbEntity
  8
Layer_1
 62
7
100
AcDbSpline
 70
0
 71
3
 72
10
 73
6
 74
4
 40
0.000000
 40
0.000000
 40
0.000000
 40
0.000000
 40
11.142811
 40
21.904757
 40
32.377775
 40
32.377775
 40
32.377775
 40
32.377775
 10
345.208279
 20
429.597663
 30
0.0
 10
343.853849
 20
426.167418
 30
0.0
 10
341.191283
 20
419.424175
 30
0.0
 10
337.173757
 20
409.004598
 30
0.0
 10
338.877856
 20
401.961539
 30
0.0
 10
339.718312
 20
398.487924
 30
0.0
 11
345.208279
 21
429.597663
 31
0.0
 11
341.130643
 21
419.227749
 31
0.0
 11
338.252374
 21
408.857838
 31
0.0
 11
339.718312
 21
398.487924
 31
0.0
  0
SPLINE
  5
241
100
AcDbEntity
  8
Layer_1
 62
7
100
AcDbSpline
 70
0
 71
3
 72
10
 73
6
 74
4
 40
0.000000
 40
0.000000
 40
0.000000
 40
0.000000
 40
8.994352
 40
14.825702
 40
20.449069
 40
20.449069
 40
20.449069
 40
20.449069
 10
339.718312
 20
398.487924
 30
0.0
 10
342.783931
 20
397.620040
 30
0.0
 10
347.837099
 20
396.189477
 30
0.0
 10
353.835765
 20
400.196949
 30
0.0
 10
356.641010
 20
402.732926
 30
0.0
 10
358.018165
 20
403.977891
 30
0.0
 11
339.718312
 21
398.487924
 31
0.0
 11
348.656027
 21
397.480148
 31
0.0
 11
353.752953
 21
400.313164
 31
0.0
 11
358.018165
 21
403.977891
 31
0.0
  0
SPLINE
  5
242
100
AcDbEntity
  8
Layer_1
 62
7
100
AcDbSpline
 70
0
 71
3
 72
10
 73
6
 74
4
 40
0.000000
 40
0.000000
 40
0.000000
 40
0.000000
 40
11.301215
 40
20.393389
 40
29.387466
 40
29.387466
 40
29.387466
 40
29.387466
 10
358.018165
 20
403.977891
 30
0.0
 10
357.515626
 20
400.249217
 30
0.0
 10
356.608780
 20
393.520710
 30
0.0
 10
351.167704
 20
384.482292
 30
0.0
 10
345.150553
 20
382.836502
 30
0.0
 10
342.158295
 20
382.018070
 30
0.0
 11
358.018165
 21
403.977891
 31
0.0
 11
355.629502
 21
392.931999
 31
0.0
 11
350.475163
 21
385.441978
 31
0.0
 11
342.158295
 21
382.018070
 31
0.0
  0
LWPOLYLINE
  5
243
100
AcDbEntity
  8
Layer_1
 62
7
100
AcDbPolyline
 90
4
 70
1
 10
316.538507
 20
219.149455
 30
0.0
 10
317.492153
 20
223.075777
 30
0.0
 10
306.434943
 20
223.153052
 30
0.0
 10
296.408686
 20
241.719243
 30
0.0
  0
SPLINE
  5
244
100
AcDbEntity
  8
Layer_1
 62
7
100
AcDbSpline
 70
0
 71
3
 72
10
 73
6
 74
4
 40
0.000000
 40
0.000000
 40
0.000000
 40
0.000000
 40
9.469667
 40
18.939336
 40
28.409003
 40
28.409003
 40
28.409003
 40
28.409003
 10
342.158295
 20
382.018070
 30
0.0
 10
341.344968
 20
378.968096
 30
0.0
 10
339.718314
 20
372.868147
 30
0.0
 10
337.278342
 20
363.718222
 30
0.0
 10
335.651688
 20
357.618273
 30
0.0
 10
334.838361
 20
354.568298
 30
0.0
 11
342.158295
 21
382.018070
 31
0.0
 11
339.718316
 21
372.868148
 31
0.0
 11
337.278340
 21
363.718221
 31
0.0
 11
334.838361
 21
354.568298
 31
0.0
  0
SPLINE
  5
245
100
AcDbEntity
  8
Layer_1
 62
1
100
AcDbSpline
 70
0
 71
3
 72
10
 73
6
 74
4
 40
0.000000
 40
0.000000
 40
0.000000
 40
0.000000
 40
11.459763
 40
29.404932
 40
48.521255
 40
48.521255
 40
48.521255
 40
48.521255
 10
310.656629
 20
267.688473
 30
0.0
 10
314.585754
 20
266.830428
 30
0.0
 10
324.667606
 20
264.628745
 30
0.0
 10
330.671541
 20
247.595630
 30
0.0
 10
336.970457
 20
237.258775
 30
0.0
 10
340.219439
 20
231.927023
 30
0.0
 11
310.656629
 21
267.688473
 31
0.0
 11
321.465365
 21
263.880928
 31
0.0
 11
330.928234
 21
248.633528
 31
0.0
 11
340.219439
 21
231.927023
 31
0.0
  0
LWPOLYLINE
  5
246
100
AcDbEntity
  8
Layer_1
 62
7
100
AcDbPolyline
 90
2
 70
1
 10
334.838361
 20
354.568298
 30
0.0
 10
334.838361
 20
354.568331
 30
0.0
  0
SPLINE
  5
247
100
AcDbEntity
  8
Layer_1
 62
1
100
AcDbSpline
 70
0
 71
3
 72
10
 73
6
 74
4
 40
0.000000
 40
0.000000
 40
0.000000
 40
0.000000
 40
10.158813
 40
18.136125
 40
26.056419
 40
26.056419
 40
26.056419
 40
26.056419
 10
316.855287
 20
223.344276
 30
0.0
 10
320.325354
 20
222.656737
 30
0.0
 10
326.520326
 20
221.429300
 30
0.0
 10
334.190338
 20
226.395955
 30
0.0
 10
338.214549
 20
229.769490
 30
0.0
 10
340.219439
 20
231.450208
 30
0.0
 11
316.855287
 21
223.344276
 31
0.0
 11
326.996786
 21
222.751431
 31
0.0
 11
334.042085
 21
226.493257
 31
0.0
 11
340.219439
 21
231.450208
 31
0.0
  0
SPLINE
  5
248
100
AcDbEntity
  8
Layer_1
 62
1
100
AcDbSpline
 70
0
 71
3
 72
10
 73
6
 74
4
 40
0.000000
 40
0.000000
 40
0.000000
 40
0.000000
 40
9.636399
 40
17.478222
 40
24.277636
 40
24.277636
 40
24.277636
 40
24.277636
 10
415.976714
 20
246.688961
 30
0.0
 10
419.178149
 20
246.842736
 30
0.0
 10
424.984821
 20
247.121647
 30
0.0
 10
432.995671
 20
249.607637
 30
0.0
 10
436.395467
 20
253.203984
 30
0.0
 10
437.974337
 20
254.874134
 30
0.0
 11
415.976714
 21
246.688961
 31
0.0
 11
425.569041
 21
247.609536
 31
0.0
 11
432.929028
 21
250.315967
 31
0.0
 11
437.974337
 21
254.874134
 31
0.0
  0
SPLINE
  5
249
100
AcDbEntity
  8
Layer_1
 62
1
100
AcDbSpline
 70
0
 71
3
 72
10
 73
6
 74
4
 40
0.000000
 40
0.000000
 40
0.000000
 40
0.000000
 40
3.960908
 40
7.709042
 40
13.367034
 40
13.367034
 40
13.367034
 40
13.367034
 10
306.500103
 20
213.948304
 30
0.0
 10
307.741447
 20
214.385318
 30
0.0
 10
310.157452
 20
215.235870
 30
0.0
 10
314.857935
 20
215.397470
 30
0.0
 10
317.305555
 20
213.214877
 30
0.0
 10
318.777853
 20
211.901999
 30
0.0
 11
306.500103
 21
213.948304
 31
0.0
 11
310.301975
 21
215.059411
 31
0.0
 11
314.049780
 21
215.009762
 31
0.0
 11
318.777853
 21
211.901999
 31
0.0
  0
SPLINE
  5
24a
100
AcDbEntity
  8
Layer_1
 62
1
100
AcDbSpline
 70
0
 71
3
 72
10
 73
6
 74
4
 40
0.000000
 40
0.000000
 40
0.000000
 40
0.000000
 40
2.130744
 40
6.082165
 40
15.296788
 40
15.296788
 40
15.296788
 40
15.296788
 10
318.777853
 20
211.901999
 30
0.0
 10
319.425063
 20
211.605719
 30
0.0
 10
321.272508
 20
210.759994
 30
0.0
 10
326.671339
 20
210.631030
 30
0.0
 10
329.250504
 20
206.563569
 30
0.0
 10
331.055604
 20
203.716842
 30
0.0
 11
318.777853
 21
211.901999
 31
0.0
 11
320.756200
 21
211.110661
 31
0.0
 11
324.627511
 21
210.319031
 31
0.0
 11
331.055604
 21
203.716842
 31
0.0
  0
SPLINE
  5
24b
100
AcDbEntity
  8
Layer_1
 62
1
100
AcDbSpline
 70
0
 71
3
 72
10
 73
6
 74
4
 40
0.000000
 40
0.000000
 40
0.000000
 40
0.000000
 40
2.393822
 40
5.735757
 40
13.752799
 40
13.752799
 40
13.752799
 40
13.752799
 10
305.988531
 20
203.205270
 30
0.0
 10
306.794811
 20
203.232293
 30
0.0
 10
308.726712
 20
203.297040
 30
0.0
 10
312.850929
 20
205.615516
 30
0.0
 10
315.425812
 20
208.401186
 30
0.0
 10
317.243137
 20
210.367282
 30
0.0
 11
305.988531
 21
203.205270
 31
0.0
 11
308.370471
 21
203.443484
 31
0.0
 11
311.376976
 21
204.902748
 31
0.0
 11
317.243137
 21
210.367282
 31
0.0
  0
SPLINE
  5
24c
100
AcDbEntity
  8
Layer_1
 62
1
100
AcDbSpline
 70
0
 71
3
 72
10
 73
6
 74
4
 40
0.000000
 40
0.000000
 40
0.000000
 40
0.000000
 40
5.690875
 40
10.219609
 40
22.342211
 40
22.342211
 40
22.342211
 40
22.342211
 10
317.243137
 20
210.367282
 30
0.0
 10
316.250703
 20
208.814779
 30
0.0
 10
314.468501
 20
206.026813
 30
0.0
 10
313.454912
 20
196.964970
 30
0.0
 10
320.975946
 20
199.984112
 30
0.0
 10
326.451454
 20
202.182126
 30
0.0
 11
317.243137
 21
210.367282
 31
0.0
 11
314.674712
 21
205.288970
 31
0.0
 11
314.411628
 21
200.767884
 31
0.0
 11
326.451454
 21
202.182126
 31
0.0
  0
SPLINE
  5
24d
100
AcDbEntity
  8
Layer_1
 62
1
100
AcDbSpline
 70
0
 71
3
 72
10
 73
6
 74
4
 40
0.000000
 40
0.000000
 40
0.000000
 40
0.000000
 40
8.760879
 40
17.367505
 40
26.347338
 40
26.347338
 40
26.347338
 40
26.347338
 10
326.451454
 20
202.182126
 30
0.0
 10
329.367580
 20
202.688175
 30
0.0
 10
335.148487
 20
203.691363
 30
0.0
 10
342.420162
 20
208.883185
 30
0.0
 10
347.427176
 20
211.897560
 30
0.0
 10
349.983810
 20
213.436732
 30
0.0
 11
326.451454
 21
202.182126
 31
0.0
 11
334.948526
 21
204.315846
 31
0.0
 11
342.353870
 21
208.701606
 31
0.0
 11
349.983810
 21
213.436732
 31
0.0
  0
LWPOLYLINE
  5
24e
100
AcDbEntity
  8
Layer_1
 62
1
100
AcDbPolyline
 90
2
 70
0
 10
429.277609
 20
266.128740
 30
0.0
 10
415.976714
 20
246.688961
 30
0.0
  0
SPLINE
  5
24f
100
AcDbEntity
  8
Layer_1
 62
1
100
AcDbSpline
 70
0
 71
3
 72
10
 73
6
 74
4
 40
0.000000
 40
0.000000
 40
0.000000
 40
0.000000
 40
10.326500
 40
29.087261
 40
40.491263
 40
40.491263
 40
40.491263
 40
40.491263
 10
419.046147
 20
232.364922
 30
0.0
 10
422.524938
 20
232.090610
 30
0.0
 10
432.323854
 20
231.317939
 30
0.0
 10
444.747637
 20
238.452421
 30
0.0
 10
452.454277
 20
244.800571
 30
0.0
 10
455.367827
 20
247.200534
 30
0.0
 11
419.046147
 21
232.364922
 31
0.0
 11
429.372341
 21
232.285330
 31
0.0
 11
446.405826
 21
240.148314
 31
0.0
 11
455.367827
 21
247.200534
 31
0.0
  0
LWPOLYLINE
  5
250
100
AcDbEntity
  8
Layer_1
 62
1
100
AcDbPolyline
 90
2
 70
0
 10
442.578504
 20
256.408851
 30
0.0
 10
444.113221
 20
251.293112
 30
0.0
  0
LWPOLYLINE
  5
251
100
AcDbEntity
  8
Layer_1
 62
7
100
AcDbPolyline
 90
2
 70
0
 10
319.747495
 20
398.982715
 30
0.0
 10
338.164129
 20
403.586865
 30
0.0
  0
LWPOLYLINE
  5
252
100
AcDbEntity
  8
Layer_1
 62
7
100
AcDbPolyline
 90
2
 70
0
 10
315.402036
 20
388.013602
 30
0.0
 10
347.884002
 20
396.936426
 30
0.0
  0
LWPOLYLINE
  5
253
100
AcDbEntity
  8
Layer_1
 62
7
100
AcDbPolyline
 90
2
 70
0
 10
446.617579
 20
352.429574
 30
0.0
 10
457.360612
 20
339.128679
 30
0.0
  0
SPLINE
  5
254
100
AcDbEntity
  8
Layer_1
 62
1
100
AcDbSpline
 70
0
 71
3
 72
10
 73
6
 74
4
 40
0.000000
 40
0.000000
 40
0.000000
 40
0.000000
 40
3.263399
 40
6.758857
 40
11.861029
 40
11.861029
 40
11.861029
 40
11.861029
 10
444.113221
 20
251.293112
 30
0.0
 10
444.870474
 20
250.513057
 30
0.0
 10
446.438828
 20
248.897479
 30
0.0
 10
448.221153
 20
245.150864
 30
0.0
 10
447.569419
 20
242.263544
 30
0.0
 10
447.182654
 20
240.550094
 30
0.0
 11
444.113221
 21
251.293112
 31
0.0
 11
446.256126
 21
248.831866
 31
0.0
 11
447.658443
 21
245.630033
 31
0.0
 11
447.182654
 21
240.550094
 31
0.0
  0
SPLINE
  5
255
100
AcDbEntity
  8
Layer_1
 62
7
100
AcDbSpline
 70
0
 71
3
 72
10
 73
6
 74
4
 40
0.000000
 40
0.000000
 40
0.000000
 40
0.000000
 40
10.665405
 40
21.712789
 40
33.754456
 40
33.754456
 40
33.754456
 40
33.754456
 10
132.982712
 20
351.924140
 30
0.0
 10
135.843084
 20
349.815983
 30
0.0
 10
141.666272
 20
345.524167
 30
0.0
 10
151.246186
 20
339.517090
 30
0.0
 10
158.486442
 20
336.846871
 30
0.0
 10
162.262464
 20
335.454268
 30
0.0
 11
132.982712
 21
351.924140
 31
0.0
 11
141.645661
 21
345.702872
 31
0.0
 11
151.121344
 21
340.023424
 31
0.0
 11
162.262464
 21
335.454268
 31
0.0
  0
SPLINE
  5
256
100
AcDbEntity
  8
Layer_1
 62
7
100
AcDbSpline
 70
0
 71
3
 72
10
 73
6
 74
4
 40
0.000000
 40
0.000000
 40
0.000000
 40
0.000000
 40
14.684117
 40
25.281287
 40
35.252008
 40
35.252008
 40
35.252008
 40
35.252008
 10
162.262464
 20
335.454268
 30
0.0
 10
163.383740
 20
340.235778
 30
0.0
 10
165.314214
 20
348.467989
 30
0.0
 10
165.345847
 20
360.300003
 30
0.0
 10
166.966682
 20
366.983856
 30
0.0
 10
167.752416
 20
370.223996
 30
0.0
 11
162.262464
 21
335.454268
 31
0.0
 11
164.982676
 21
349.884227
 31
0.0
 11
165.771778
 21
360.451977
 31
0.0
 11
167.752416
 21
370.223996
 31
0.0
  0
SPLINE
  5
257
100
AcDbEntity
  8
Layer_1
 62
7
100
AcDbSpline
 70
0
 71
3
 72
10
 73
6
 74
4
 40
0.000000
 40
0.000000
 40
0.000000
 40
0.000000
 40
18.466933
 40
36.358148
 40
64.225024
 40
64.225024
 40
64.225024
 40
64.225024
 10
167.752416
 20
370.223996
 30
0.0
 10
171.806468
 20
375.457856
 30
0.0
 10
179.788183
 20
385.762406
 30
0.0
 10
205.752459
 20
379.740791
 30
0.0
 10
207.535930
 20
362.831793
 30
0.0
 10
208.622072
 20
352.534140
 30
0.0
 11
167.752416
 21
370.223996
 31
0.0
 11
181.647373
 21
382.387787
 31
0.0
 11
199.164219
 21
378.746957
 31
0.0
 11
208.622072
 21
352.534140
 31
0.0
  0
SPLINE
  5
258
100
AcDbEntity
  8
Layer_1
 62
7
100
AcDbSpline
 70
0
 71
3
 72
10
 73
6
 74
4
 40
0.000000
 40
0.000000
 40
0.000000
 40
0.000000
 40
4.840352
 40
9.561460
 40
13.416764
 40
13.416764
 40
13.416764
 40
13.416764
 10
208.622072
 20
352.534140
 30
0.0
 10
208.432963
 20
350.942803
 30
0.0
 10
208.059404
 20
347.799333
 30
0.0
 10
208.073386
 20
343.149848
 30
0.0
 10
206.347803
 20
340.786581
 30
0.0
 10
205.572112
 20
339.724236
 30
0.0
 11
208.622072
 21
352.534140
 31
0.0
 11
208.153032
 21
347.716566
 31
0.0
 11
207.548688
 21
343.034300
 31
0.0
 11
205.572112
 21
339.724236
 31
0.0
  0
SPLINE
  5
259
100
AcDbEntity
  8
Layer_1
 62
7
100
AcDbSpline
 70
0
 71
3
 72
13
 73
9
 74
7
 40
0.000000
 40
0.000000
 40
0.000000
 40
0.000000
 40
4.403646
 40
7.073882
 40
8.532493
 40
14.208106
 40
19.786581
 40
22.345346
 40
22.345346
 40
22.345346
 40
22.345346
 10
205.572112
 20
339.724236
 30
0.0
 10
205.187267
 20
338.025395
 30
0.0
 10
204.569063
 20
335.296429
 30
0.0
 10
201.019129
 20
335.746101
 30
0.0
 10
199.303391
 20
332.581927
 30
0.0
 10
201.200957
 20
328.253579
 30
0.0
 10
199.358066
 20
323.781352
 30
0.0
 10
199.444866
 20
321.060098
 30
0.0
 10
199.472160
 20
320.204396
 30
0.0
 11
205.572112
 21
339.724236
 31
0.0
 11
203.516609
 21
335.829752
 31
0.0
 11
200.931311
 21
335.161621
 31
0.0
 11
200.138048
 21
333.937580
 31
0.0
 11
200.406329
 21
328.268310
 31
0.0
 11
199.506209
 21
322.762934
 31
0.0
 11
199.472160
 21
320.204396
 31
0.0
  0
SPLINE
  5
25a
100
AcDbEntity
  8
Layer_1
 62
7
100
AcDbSpline
 70
0
 71
3
 72
10
 73
6
 74
4
 40
0.000000
 40
0.000000
 40
0.000000
 40
0.000000
 40
8.650772
 40
17.002723
 40
25.532269
 40
25.532269
 40
25.532269
 40
25.532269
 10
199.472160
 20
320.204396
 30
0.0
 10
202.220080
 20
319.207567
 30
0.0
 10
207.621001
 20
317.248342
 30
0.0
 10
216.269851
 20
318.252522
 30
0.0
 10
221.725449
 20
319.549224
 30
0.0
 10
224.481944
 20
320.204396
 30
0.0
 11
199.472160
 21
320.204396
 31
0.0
 11
207.808754
 21
317.894190
 31
0.0
 11
216.145350
 21
318.400415
 31
0.0
 11
224.481944
 21
320.204396
 31
0.0
  0
SPLINE
  5
25b
100
AcDbEntity
  8
Layer_1
 62
7
100
AcDbSpline
 70
0
 71
3
 72
10
 73
6
 74
4
 40
0.000000
 40
0.000000
 40
0.000000
 40
0.000000
 40
7.394869
 40
14.709741
 40
21.707577
 40
21.707577
 40
21.707577
 40
21.707577
 10
224.481944
 20
320.204396
 30
0.0
 10
225.346552
 20
322.509298
 30
0.0
 10
227.066414
 20
327.094167
 30
0.0
 10
229.786510
 20
333.851873
 30
0.0
 10
230.320712
 20
338.615286
 30
0.0
 10
230.581896
 20
340.944236
 30
0.0
 11
224.481944
 21
320.204396
 31
0.0
 11
227.106944
 21
327.117678
 31
0.0
 11
229.497318
 21
334.030959
 31
0.0
 11
230.581896
 21
340.944236
 31
0.0
  0
SPLINE
  5
25c
100
AcDbEntity
  8
Layer_1
 62
7
100
AcDbSpline
 70
0
 71
3
 72
10
 73
6
 74
4
 40
0.000000
 40
0.000000
 40
0.000000
 40
0.000000
 40
11.023649
 40
21.039789
 40
30.153196
 40
30.153196
 40
30.153196
 40
30.153196
 10
230.581896
 20
340.944236
 30
0.0
 10
230.235097
 20
344.567418
 30
0.0
 10
229.573195
 20
351.482641
 30
0.0
 10
229.465914
 20
362.014363
 30
0.0
 10
233.527086
 20
367.161754
 30
0.0
 10
235.461848
 20
369.613996
 30
0.0
 11
230.581896
 21
340.944236
 31
0.0
 11
229.702653
 21
351.932765
 31
0.0
 11
230.594739
 21
361.909099
 31
0.0
 11
235.461848
 21
369.613996
 31
0.0
  0
SPLINE
  5
25d
100
AcDbEntity
  8
Layer_1
 62
7
100
AcDbSpline
 70
0
 71
3
 72
10
 73
6
 74
4
 40
0.000000
 40
0.000000
 40
0.000000
 40
0.000000
 40
8.518932
 40
16.036670
 40
22.130021
 40
22.130021
 40
22.130021
 40
22.130021
 10
235.461848
 20
369.613996
 30
0.0
 10
236.091624
 20
366.872277
 30
0.0
 10
237.277162
 20
361.711063
 30
0.0
 10
239.307419
 20
354.281292
 30
0.0
 10
242.971475
 20
351.427586
 30
0.0
 10
244.611784
 20
350.150052
 30
0.0
 11
235.461848
 21
369.613996
 31
0.0
 11
237.431799
 21
361.325962
 31
0.0
 11
240.174926
 21
354.326560
 31
0.0
 11
244.611784
 21
350.150052
 31
0.0
  0
SPLINE
  5
25e
100
AcDbEntity
  8
Layer_1
 62
7
100
AcDbSpline
 70
0
 71
3
 72
10
 73
6
 74
4
 40
0.000000
 40
0.000000
 40
0.000000
 40
0.000000
 40
13.340176
 40
24.041635
 40
35.795444
 40
35.795444
 40
35.795444
 40
35.795444
 10
244.611784
 20
350.150052
 30
0.0
 10
247.423291
 20
353.568181
 30
0.0
 10
252.490183
 20
359.728326
 30
0.0
 10
263.770417
 20
365.994110
 30
0.0
 10
264.407914
 20
373.975954
 30
0.0
 10
264.741600
 20
378.153908
 30
0.0
 11
244.611784
 21
350.150052
 31
0.0
 11
253.818911
 21
359.803502
 31
0.0
 11
261.976419
 21
366.729994
 31
0.0
 11
264.741600
 21
378.153908
 31
0.0
  0
LWPOLYLINE
  5
25f
100
AcDbEntity
  8
Layer_1
 62
7
100
AcDbPolyline
 90
2
 70
0
 10
452.756446
 20
360.103174
 30
0.0
 10
465.034196
 20
344.755990
 30
0.0
  0
SPLINE
  5
260
100
AcDbEntity
  8
Layer_1
 62
7
100
AcDbSpline
 70
0
 71
3
 72
10
 73
6
 74
4
 40
0.000000
 40
0.000000
 40
0.000000
 40
0.000000
 40
20.287287
 40
34.165053
 40
48.199604
 40
48.199604
 40
48.199604
 40
48.199604
 10
264.741600
 20
378.153908
 30
0.0
 10
268.022855
 20
371.731707
 30
0.0
 10
273.548692
 20
360.916322
 30
0.0
 10
266.076751
 20
345.240084
 30
0.0
 10
259.505679
 20
338.728399
 30
0.0
 10
256.201688
 20
335.454268
 30
0.0
 11
264.741600
 21
378.153908
 31
0.0
 11
270.769469
 21
358.782825
 31
0.0
 11
265.546321
 21
345.925489
 31
0.0
 11
256.201688
 21
335.454268
 31
0.0
  0
LWPOLYLINE
  5
261
100
AcDbEntity
  8
Layer_1
 62
7
100
AcDbPolyline
 90
2
 70
1
 10
256.201688
 20
335.454268
 30
0.0
 10
259.251656
 20
331.184316
 30
0.0
  0
SPLINE
  5
262
100
AcDbEntity
  8
Layer_1
 62
7
100
AcDbSpline
 70
0
 71
3
 72
10
 73
6
 74
4
 40
0.000000
 40
0.000000
 40
0.000000
 40
0.000000
 40
16.369925
 40
36.676175
 40
55.277564
 40
55.277564
 40
55.277564
 40
55.277564
 10
259.251656
 20
331.184316
 30
0.0
 10
256.294380
 20
326.611522
 30
0.0
 10
249.668720
 20
316.366356
 30
0.0
 10
245.709645
 20
296.981892
 30
0.0
 10
233.824224
 20
290.407725
 30
0.0
 10
228.141912
 20
287.264676
 30
0.0
 11
259.251656
 21
331.184316
 31
0.0
 11
251.176465
 21
316.944733
 31
0.0
 11
243.109129
 21
298.309768
 31
0.0
 11
228.141912
 21
287.264676
 31
0.0
  0
SPLINE
  5
263
100
AcDbEntity
  8
Layer_1
 62
7
100
AcDbSpline
 70
0
 71
3
 72
10
 73
6
 74
4
 40
0.000000
 40
0.000000
 40
0.000000
 40
0.000000
 40
32.068305
 40
56.138474
 40
81.585108
 40
81.585108
 40
81.585108
 40
81.585108
 10
210.452056
 20
242.125052
 30
0.0
 10
203.276391
 20
233.280477
 30
0.0
 10
190.714738
 20
217.797247
 30
0.0
 10
161.163236
 20
219.061573
 30
0.0
 10
146.036036
 20
225.380556
 30
0.0
 10
138.262184
 20
228.627876
 30
0.0
 11
210.452056
 21
242.125052
 31
0.0
 11
186.388764
 21
220.927547
 31
0.0
 11
162.325476
 21
220.352057
 31
0.0
 11
138.262184
 21
228.627876
 31
0.0
  0
SPLINE
  5
264
100
AcDbEntity
  8
Layer_1
 62
7
100
AcDbSpline
 70
0
 71
3
 72
10
 73
6
 74
4
 40
0.000000
 40
0.000000
 40
0.000000
 40
0.000000
 40
20.724159
 40
38.180504
 40
50.555593
 40
50.555593
 40
50.555593
 40
50.555593
 10
138.262184
 20
228.627876
 30
0.0
 10
135.228745
 20
234.663641
 30
0.0
 10
129.640183
 20
245.783445
 30
0.0
 10
121.890071
 20
262.636006
 30
0.0
 10
111.622328
 20
264.522315
 30
0.0
 10
107.362920
 20
265.304820
 30
0.0
 11
138.262184
 21
228.627876
 31
0.0
 11
129.083948
 21
247.208800
 31
0.0
 11
119.161172
 21
261.570642
 31
0.0
 11
107.362920
 21
265.304820
 31
0.0
  0
SPLINE
  5
265
100
AcDbEntity
  8
Layer_1
 62
7
100
AcDbSpline
 70
0
 71
3
 72
10
 73
6
 74
4
 40
0.000000
 40
0.000000
 40
0.000000
 40
0.000000
 40
3.215844
 40
6.431655
 40
11.704893
 40
11.704893
 40
11.704893
 40
11.704893
 10
107.362920
 20
265.304820
 30
0.0
 10
107.838627
 20
266.242306
 30
0.0
 10
108.790037
 20
268.117270
 30
0.0
 10
110.759478
 20
271.914973
 30
0.0
 10
113.932089
 20
271.600263
 30
0.0
 10
115.902856
 20
271.404772
 30
0.0
 11
107.362920
 21
265.304820
 31
0.0
 11
108.822734
 21
268.170234
 31
0.0
 11
110.663607
 21
270.807017
 31
0.0
 11
115.902856
 21
271.404772
 31
0.0
  0
SPLINE
  5
266
100
AcDbEntity
  8
Layer_1
 62
7
100
AcDbSpline
 70
0
 71
3
 72
19
 73
15
 74
13
 40
0.000000
 40
0.000000
 40
0.000000
 40
0.000000
 40
13.361227
 40
25.354252
 40
36.891042
 40
47.699887
 40
70.049818
 40
89.363082
 40
102.915258
 40
120.499326
 40
129.270724
 40
144.316917
 40
159.244241
 40
179.465194
 40
179.465194
 40
179.465194
 40
179.465194
 10
115.902856
 20
271.404772
 30
0.0
 10
116.056685
 20
275.922937
 30
0.0
 10
116.348590
 20
284.496603
 30
0.0
 10
120.564748
 20
295.682961
 30
0.0
 10
125.641200
 20
307.718624
 30
0.0
 10
113.293726
 20
319.037479
 30
0.0
 10
106.470668
 20
334.047813
 30
0.0
 10
96.012386
 20
351.673772
 30
0.0
 10
104.088801
 20
367.761958
 30
0.0
 10
109.927363
 20
379.305982
 30
0.0
 10
118.381019
 20
390.649429
 30
0.0
 10
119.252139
 20
403.706626
 30
0.0
 10
124.418838
 20
420.992658
 30
0.0
 10
136.437973
 20
424.776573
 30
0.0
 10
143.352632
 20
426.953476
 30
0.0
 11
115.902856
 21
271.404772
 31
0.0
 11
117.087984
 21
284.713335
 31
0.0
 11
120.821962
 21
296.110267
 31
0.0
 11
123.222792
 21
307.394484
 31
0.0
 11
116.997242
 21
316.230413
 31
0.0
 11
105.363910
 21
335.314045
 31
0.0
 11
98.887768
 21
353.509148
 31
0.0
 11
103.362013
 21
366.301434
 31
0.0
 11
111.895768
 21
381.675909
 31
0.0
 11
116.512840
 21
389.133796
 31
0.0
 11
119.862446
 21
403.802404
 31
0.0
 11
125.389239
 21
417.668894
 31
0.0
 11
143.352632
 21
426.953476
 31
0.0
  0
SPLINE
  5
267
100
AcDbEntity
  8
Layer_1
 62
7
100
AcDbSpline
 70
0
 71
3
 72
10
 73
6
 74
4
 40
0.000000
 40
0.000000
 40
0.000000
 40
0.000000
 40
11.142813
 40
21.904760
 40
32.377779
 40
32.377779
 40
32.377779
 40
32.377779
 10
143.352632
 20
426.953476
 30
0.0
 10
141.998202
 20
423.523230
 30
0.0
 10
139.335637
 20
416.779986
 30
0.0
 10
135.318110
 20
406.360407
 30
0.0
 10
137.022208
 20
399.317347
 30
0.0
 10
137.862664
 20
395.843732
 30
0.0
 11
143.352632
 21
426.953476
 31
0.0
 11
139.274996
 21
416.583560
 31
0.0
 11
136.396727
 21
406.213648
 31
0.0
 11
137.862664
 21
395.843732
 31
0.0
  0
SPLINE
  5
268
100
AcDbEntity
  8
Layer_1
 62
7
100
AcDbSpline
 70
0
 71
3
 72
10
 73
6
 74
4
 40
0.000000
 40
0.000000
 40
0.000000
 40
0.000000
 40
8.994352
 40
14.825700
 40
20.449064
 40
20.449064
 40
20.449064
 40
20.449064
 10
137.862664
 20
395.843732
 30
0.0
 10
140.928284
 20
394.975848
 30
0.0
 10
145.981451
 20
393.545285
 30
0.0
 10
151.980115
 20
397.552758
 30
0.0
 10
154.785358
 20
400.088734
 30
0.0
 10
156.162512
 20
401.333700
 30
0.0
 11
137.862664
 21
395.843732
 31
0.0
 11
146.800379
 21
394.835956
 31
0.0
 11
151.897303
 21
397.668974
 31
0.0
 11
156.162512
 21
401.333700
 31
0.0
  0
SPLINE
  5
269
100
AcDbEntity
  8
Layer_1
 62
7
100
AcDbSpline
 70
0
 71
3
 72
10
 73
6
 74
4
 40
0.000000
 40
0.000000
 40
0.000000
 40
0.000000
 40
11.301212
 40
20.393385
 40
29.387464
 40
29.387464
 40
29.387464
 40
29.387464
 10
156.162512
 20
401.333700
 30
0.0
 10
155.659974
 20
397.605026
 30
0.0
 10
154.753130
 20
390.876520
 30
0.0
 10
149.312056
 20
381.838102
 30
0.0
 10
143.294906
 20
380.192309
 30
0.0
 10
140.302648
 20
379.373876
 30
0.0
 11
156.162512
 21
401.333700
 31
0.0
 11
153.773853
 21
390.287809
 31
0.0
 11
148.619515
 21
382.797787
 31
0.0
 11
140.302648
 21
379.373876
 31
0.0
  0
LWPOLYLINE
  5
26a
100
AcDbEntity
  8
Layer_1
 62
7
100
AcDbPolyline
 90
4
 70
1
 10
228.141912
 20
287.264676
 30
0.0
 10
205.062728
 20
285.235644
 30
0.0
 10
211.812728
 20
278.859892
 30
0.0
 10
210.452056
 20
242.125052
 30
0.0
  0
SPLINE
  5
26b
100
AcDbEntity
  8
Layer_1
 62
7
100
AcDbSpline
 70
0
 71
3
 72
10
 73
6
 74
4
 40
0.000000
 40
0.000000
 40
0.000000
 40
0.000000
 40
9.469663
 40
18.939331
 40
28.408999
 40
28.408999
 40
28.408999
 40
28.408999
 10
140.302648
 20
379.373876
 30
0.0
 10
139.489321
 20
376.323903
 30
0.0
 10
137.862666
 20
370.223956
 30
0.0
 10
135.422693
 20
361.074032
 30
0.0
 10
133.796039
 20
354.974082
 30
0.0
 10
132.982712
 20
351.924108
 30
0.0
 11
140.302648
 21
379.373876
 31
0.0
 11
137.862668
 21
370.223957
 31
0.0
 11
135.422692
 21
361.074032
 31
0.0
 11
132.982712
 21
351.924108
 31
0.0
  0
SPLINE
  5
26c
100
AcDbEntity
  8
Layer_1
 62
7
100
AcDbSpline
 70
0
 71
3
 72
10
 73
6
 74
4
 40
0.000000
 40
0.000000
 40
0.000000
 40
0.000000
 40
14.684116
 40
25.281284
 40
35.252003
 40
35.252003
 40
35.252003
 40
35.252003
 10
248.241423
 20
409.242049
 30
0.0
 10
249.362699
 20
414.023560
 30
0.0
 10
251.293172
 20
422.255770
 30
0.0
 10
251.324806
 20
434.087781
 30
0.0
 10
252.945641
 20
440.771633
 30
0.0
 10
253.731375
 20
444.011772
 30
0.0
 11
248.241423
 21
409.242049
 31
0.0
 11
250.961634
 21
423.672008
 31
0.0
 11
251.750737
 21
434.239756
 31
0.0
 11
253.731375
 21
444.011772
 31
0.0
  0
SPLINE
  5
26d
100
AcDbEntity
  8
Layer_1
 62
7
100
AcDbSpline
 70
0
 71
3
 72
10
 73
6
 74
4
 40
0.000000
 40
0.000000
 40
0.000000
 40
0.000000
 40
18.466934
 40
36.358149
 40
64.225027
 40
64.225027
 40
64.225027
 40
64.225027
 10
253.731375
 20
444.011772
 30
0.0
 10
257.785425
 20
449.245633
 30
0.0
 10
265.767138
 20
459.550187
 30
0.0
 10
291.731416
 20
453.528571
 30
0.0
 10
293.514890
 20
436.619573
 30
0.0
 10
294.601032
 20
426.321919
 30
0.0
 11
253.731375
 21
444.011772
 31
0.0
 11
267.626328
 21
456.175567
 31
0.0
 11
285.143176
 21
452.534737
 31
0.0
 11
294.601032
 21
426.321919
 31
0.0
  0
SPLINE
  5
26e
100
AcDbEntity
  8
Layer_1
 62
7
100
AcDbSpline
 70
0
 71
3
 72
10
 73
6
 74
4
 40
0.000000
 40
0.000000
 40
0.000000
 40
0.000000
 40
4.878185
 40
9.632766
 40
14.093643
 40
14.093643
 40
14.093643
 40
14.093643
 10
294.601032
 20
426.321919
 30
0.0
 10
294.945731
 20
424.742375
 30
0.0
 10
295.626395
 20
421.623309
 30
0.0
 10
295.096162
 20
416.609455
 30
0.0
 10
292.707387
 20
414.522323
 30
0.0
 10
291.551065
 20
413.512016
 30
0.0
 11
294.601032
 21
426.321919
 31
0.0
 11
295.367627
 21
421.504345
 31
0.0
 11
294.541535
 21
416.822078
 31
0.0
 11
291.551065
 21
413.512016
 31
0.0
  0
SPLINE
  5
26f
100
AcDbEntity
  8
Layer_1
 62
7
100
AcDbSpline
 70
0
 71
3
 72
13
 73
9
 74
7
 40
0.000000
 40
0.000000
 40
0.000000
 40
0.000000
 40
4.403645
 40
7.073879
 40
8.532490
 40
14.077152
 40
19.451510
 40
22.420790
 40
22.420790
 40
22.420790
 40
22.420790
 10
291.551065
 20
413.512016
 30
0.0
 10
291.165295
 20
411.812956
 30
0.0
 10
290.545607
 20
409.083639
 30
0.0
 10
287.002521
 20
409.534933
 30
0.0
 10
285.287170
 20
406.407676
 30
0.0
 10
287.381809
 20
402.273451
 30
0.0
 10
286.402250
 20
397.628433
 30
0.0
 10
285.700757
 20
394.946580
 30
0.0
 10
285.451114
 20
393.992179
 30
0.0
 11
291.551065
 21
413.512016
 31
0.0
 11
289.495564
 21
409.617533
 31
0.0
 11
286.910269
 21
408.949402
 31
0.0
 11
286.117008
 21
407.725358
 31
0.0
 11
286.735571
 21
402.215307
 31
0.0
 11
286.185731
 21
396.869150
 31
0.0
 11
285.451114
 21
393.992179
 31
0.0
  0
SPLINE
  5
270
100
AcDbEntity
  8
Layer_1
 62
7
100
AcDbSpline
 70
0
 71
3
 72
10
 73
6
 74
4
 40
0.000000
 40
0.000000
 40
0.000000
 40
0.000000
 40
2.950927
 40
5.323022
 40
7.853109
 40
7.853109
 40
7.853109
 40
7.853109
 10
285.451114
 20
393.992179
 30
0.0
 10
284.683534
 20
393.421846
 30
0.0
 10
283.298938
 20
392.393051
 30
0.0
 10
280.499777
 20
391.267182
 30
0.0
 10
279.330574
 20
392.657086
 30
0.0
 10
278.727132
 20
393.374435
 30
0.0
 11
285.451114
 21
393.992179
 31
0.0
 11
282.990796
 21
392.362822
 31
0.0
 11
280.691458
 21
391.779831
 31
0.0
 11
278.727132
 21
393.374435
 31
0.0
  0
SPLINE
  5
271
100
AcDbEntity
  8
Layer_1
 62
7
100
AcDbSpline
 70
0
 71
3
 72
10
 73
6
 74
4
 40
0.000000
 40
0.000000
 40
0.000000
 40
0.000000
 40
5.113964
 40
7.731845
 40
11.763908
 40
11.763908
 40
11.763908
 40
11.763908
 10
278.727132
 20
393.374435
 30
0.0
 10
277.800432
 20
391.437775
 30
0.0
 10
276.399346
 20
388.509723
 30
0.0
 10
272.283373
 20
390.824738
 30
0.0
 10
271.589290
 20
392.957154
 30
0.0
 10
271.168446
 20
394.250102
 30
0.0
 11
278.727132
 21
393.374435
 31
0.0
 11
275.376507
 21
389.511025
 31
0.0
 11
273.031184
 21
390.674107
 31
0.0
 11
271.168446
 21
394.250102
 31
0.0
  0
SPLINE
  5
272
100
AcDbEntity
  8
Layer_1
 62
7
100
AcDbSpline
 70
0
 71
3
 72
10
 73
6
 74
4
 40
0.000000
 40
0.000000
 40
0.000000
 40
0.000000
 40
4.971412
 40
7.551141
 40
11.214468
 40
11.214468
 40
11.214468
 40
11.214468
 10
271.168446
 20
394.250102
 30
0.0
 10
270.067390
 20
392.579004
 30
0.0
 10
268.394981
 20
390.040751
 30
0.0
 10
264.481249
 20
392.150439
 30
0.0
 10
263.925109
 20
394.212948
 30
0.0
 10
263.598775
 20
395.423197
 30
0.0
 11
271.168446
 21
394.250102
 31
0.0
 11
267.447929
 21
390.952725
 31
0.0
 11
265.136472
 21
392.098223
 31
0.0
 11
263.598775
 21
395.423197
 31
0.0
  0
LWPOLYLINE
  5
273
100
AcDbEntity
  8
Layer_1
 62
7
100
AcDbPolyline
 90
2
 70
1
 10
132.982712
 20
351.924108
 30
0.0
 10
132.982712
 20
351.924140
 30
0.0
  0
SPLINE
  5
274
100
AcDbEntity
  8
Layer_1
 62
7
100
AcDbSpline
 70
0
 71
3
 72
10
 73
6
 74
4
 40
0.000000
 40
0.000000
 40
0.000000
 40
0.000000
 40
4.288563
 40
7.687613
 40
13.184090
 40
13.184090
 40
13.184090
 40
13.184090
 10
263.598775
 20
395.423197
 30
0.0
 10
262.182126
 20
394.562095
 30
0.0
 10
259.642662
 20
393.018498
 30
0.0
 10
256.307812
 20
397.073271
 30
0.0
 10
256.032804
 20
399.997880
 30
0.0
 10
255.862879
 20
401.804973
 30
0.0
 11
263.598775
 21
395.423197
 31
0.0
 11
259.533967
 21
394.056042
 31
0.0
 11
257.126719
 21
396.455770
 31
0.0
 11
255.862879
 21
401.804973
 31
0.0
  0
SPLINE
  5
275
100
AcDbEntity
  8
Layer_1
 62
1
100
AcDbSpline
 70
0
 71
3
 72
19
 73
15
 74
13
 40
0.000000
 40
0.000000
 40
0.000000
 40
0.000000
 40
4.518961
 40
8.971157
 40
13.692192
 40
18.477890
 40
23.057193
 40
27.643654
 40
32.162611
 40
36.614802
 40
41.335846
 40
46.026797
 40
50.523419
 40
55.025097
 40
55.025097
 40
55.025097
 40
55.025097
 10
271.119948
 20
419.874924
 30
0.0
 10
269.581923
 20
419.710094
 30
0.0
 10
266.528597
 20
419.382870
 30
0.0
 10
262.441432
 20
422.072308
 30
0.0
 10
260.168387
 20
426.321258
 30
0.0
 10
260.199565
 20
431.222791
 30
0.0
 10
262.509620
 20
435.476900
 30
0.0
 10
266.586560
 20
438.001296
 30
0.0
 10
271.353984
 20
437.961819
 30
0.0
 10
275.399623
 20
435.417153
 30
0.0
 10
277.672008
 20
431.145798
 30
0.0
 10
277.648811
 20
426.364474
 30
0.0
 10
275.493881
 20
422.021035
 30
0.0
 10
272.751925
 20
420.641869
 30
0.0
 10
271.380176
 20
419.951899
 30
0.0
 11
271.119948
 21
419.874924
 31
0.0
 11
266.601127
 21
419.910576
 31
0.0
 11
262.814835
 21
422.252806
 31
0.0
 11
260.565874
 21
426.403751
 31
0.0
 11
260.599544
 21
431.189330
 31
0.0
 11
262.811214
 21
435.199136
 31
0.0
 11
266.730782
 21
437.580857
 31
0.0
 11
271.249599
 21
437.545208
 31
0.0
 11
275.035887
 21
435.202982
 31
0.0
 11
277.284856
 21
431.052030
 31
0.0
 11
277.275453
 21
426.361089
 31
0.0
 11
275.163683
 21
422.391197
 31
0.0
 11
271.380176
 21
419.951899
 31
0.0
  0
SPLINE
  5
276
100
AcDbEntity
  8
Layer_1
 62
1
100
AcDbSpline
 70
0
 71
3
 72
19
 73
15
 74
13
 40
0.000000
 40
0.000000
 40
0.000000
 40
0.000000
 40
3.789529
 40
7.523069
 40
11.482054
 40
15.495263
 40
19.335394
 40
23.181527
 40
26.971052
 40
30.704588
 40
34.663581
 40
38.597337
 40
42.368132
 40
46.143168
 40
46.143168
 40
46.143168
 40
46.143168
 10
289.266630
 20
413.421025
 30
0.0
 10
287.976867
 20
413.282802
 30
0.0
 10
285.416396
 20
413.008397
 30
0.0
 10
281.988965
 20
415.263717
 30
0.0
 10
280.082826
 20
418.826818
 30
0.0
 10
280.108971
 20
422.937165
 30
0.0
 10
282.046147
 20
426.504593
 30
0.0
 10
285.465003
 20
428.621512
 30
0.0
 10
289.462889
 20
428.588407
 30
0.0
 10
292.855497
 20
426.454491
 30
0.0
 10
294.761083
 20
422.872600
 30
0.0
 10
294.741630
 20
418.863058
 30
0.0
 10
292.934541
 20
415.220720
 30
0.0
 10
290.635179
 20
414.064173
 30
0.0
 10
289.484853
 20
413.485575
 30
0.0
 11
289.266630
 21
413.421025
 31
0.0
 11
285.477219
 21
413.450923
 31
0.0
 11
282.302095
 21
415.415079
 31
0.0
 11
280.416152
 21
418.895995
 31
0.0
 11
280.444387
 21
422.909106
 31
0.0
 11
282.299058
 21
426.271665
 31
0.0
 11
285.585946
 21
428.268938
 31
0.0
 11
289.375354
 21
428.239044
 31
0.0
 11
292.550474
 21
426.274890
 31
0.0
 11
294.436424
 21
422.793968
 31
0.0
 11
294.428538
 21
418.860220
 31
0.0
 11
292.657642
 21
415.531132
 31
0.0
 11
289.484853
 21
413.485575
 31
0.0
  0
SPLINE
  5
277
100
AcDbEntity
  8
Layer_1
 62
1
100
AcDbSpline
 70
0
 71
3
 72
19
 73
15
 74
13
 40
0.000000
 40
0.000000
 40
0.000000
 40
0.000000
 40
0.872592
 40
1.751650
 40
2.719511
 40
3.716744
 40
4.655113
 40
5.560172
 40
6.432760
 40
7.311811
 40
8.279670
 40
9.257156
 40
10.179436
 40
11.069439
 40
11.069439
 40
11.069439
 40
11.069439
 10
273.163671
 20
429.490271
 30
0.0
 10
272.865507
 20
429.456499
 30
0.0
 10
272.266969
 20
429.388704
 30
0.0
 10
271.474930
 20
429.963810
 30
0.0
 10
271.049030
 20
430.842232
 30
0.0
 10
271.054633
 20
431.846054
 30
0.0
 10
271.488545
 20
432.726144
 30
0.0
 10
272.276797
 20
433.266511
 30
0.0
 10
273.220376
 20
433.257939
 30
0.0
 10
274.002472
 20
432.713721
 30
0.0
 10
274.429139
 20
431.829957
 30
0.0
 10
274.423954
 20
430.851477
 30
0.0
 10
274.021806
 20
429.950658
 30
0.0
 10
273.479997
 20
429.652661
 30
0.0
 10
273.213917
 20
429.506316
 30
0.0
 11
273.163671
 21
429.490271
 31
0.0
 11
272.291110
 21
429.497703
 31
0.0
 11
271.559995
 21
429.985773
 31
0.0
 11
271.125732
 21
430.850742
 31
0.0
 11
271.132235
 21
431.847954
 31
0.0
 11
271.559299
 21
432.683509
 31
0.0
 11
272.316148
 21
433.179806
 31
0.0
 11
273.188704
 21
433.172375
 31
0.0
 11
273.919812
 21
432.684305
 31
0.0
 11
274.354071
 21
431.819335
 31
0.0
 11
274.352263
 21
430.841852
 31
0.0
 11
273.944491
 21
430.014614
 31
0.0
 11
273.213917
 21
429.506316
 31
0.0
  0
SPLINE
  5
278
100
AcDbEntity
  8
Layer_1
 62
1
100
AcDbSpline
 70
0
 71
3
 72
19
 73
15
 74
13
 40
0.000000
 40
0.000000
 40
0.000000
 40
0.000000
 40
0.872592
 40
1.751650
 40
2.719511
 40
3.716744
 40
4.655113
 40
5.560172
 40
6.432760
 40
7.311811
 40
8.279670
 40
9.257156
 40
10.179436
 40
11.069439
 40
11.069439
 40
11.069439
 40
11.069439
 10
291.521252
 20
420.430676
 30
0.0
 10
291.223087
 20
420.396904
 30
0.0
 10
290.624549
 20
420.329109
 30
0.0
 10
289.832511
 20
420.904216
 30
0.0
 10
289.406611
 20
421.782638
 30
0.0
 10
289.412213
 20
422.786460
 30
0.0
 10
289.846126
 20
423.666549
 30
0.0
 10
290.634378
 20
424.206916
 30
0.0
 10
291.577957
 20
424.198344
 30
0.0
 10
292.360053
 20
423.654126
 30
0.0
 10
292.786719
 20
422.770362
 30
0.0
 10
292.781534
 20
421.791882
 30
0.0
 10
292.379387
 20
420.891064
 30
0.0
 10
291.837577
 20
420.593066
 30
0.0
 10
291.571497
 20
420.446721
 30
0.0
 11
291.521252
 21
420.430676
 31
0.0
 11
290.648691
 21
420.438108
 31
0.0
 11
289.917576
 21
420.926178
 31
0.0
 11
289.483313
 21
421.791147
 31
0.0
 11
289.489816
 21
422.788359
 31
0.0
 11
289.916880
 21
423.623914
 31
0.0
 11
290.673729
 21
424.120211
 31
0.0
 11
291.546285
 21
424.112780
 31
0.0
 11
292.277392
 21
423.624710
 31
0.0
 11
292.711652
 21
422.759741
 31
0.0
 11
292.709844
 21
421.782257
 31
0.0
 11
292.302072
 21
420.955019
 31
0.0
 11
291.571497
 21
420.446721
 31
0.0
  0
SPLINE
  5
279
100
AcDbEntity
  8
Layer_1
 62
3
100
AcDbSpline
 70
0
 71
3
 72
10
 73
6
 74
4
 40
0.000000
 40
0.000000
 40
0.000000
 40
0.000000
 40
3.168571
 40
6.792184
 40
12.407639
 40
12.407639
 40
12.407639
 40
12.407639
 10
256.618098
 20
413.148348
 30
0.0
 10
256.139529
 20
412.184764
 30
0.0
 10
255.113662
 20
410.119216
 30
0.0
 10
256.020890
 20
405.681738
 30
0.0
 10
258.599401
 20
403.809636
 30
0.0
 10
260.166606
 20
402.671783
 30
0.0
 11
256.618098
 21
413.148348
 31
0.0
 11
255.513723
 21
410.178466
 31
0.0
 11
256.167973
 21
406.614405
 31
0.0
 11
260.166606
 21
402.671783
 31
0.0
  0
LWPOLYLINE
  5
27a
100
AcDbEntity
  8
Layer_1
 62
7
100
AcDbPolyline
 90
2
 70
1
 10
255.862879
 20
401.804973
 30
0.0
 10
248.241423
 20
409.242049
 30
0.0
  0
LWPOLYLINE
  5
27b
100
AcDbEntity
  8
Layer_1
 62
3
100
AcDbPolyline
 90
2
 70
1
 10
256.618098
 20
413.148348
 30
0.0
 10
256.618098
 20
413.148348
 30
0.0
  0
SPLINE
  5
27c
100
AcDbEntity
  8
Layer_1
 62
3
100
AcDbSpline
 70
0
 71
3
 72
10
 73
6
 74
4
 40
0.000000
 40
0.000000
 40
0.000000
 40
0.000000
 40
8.460949
 40
13.829796
 40
21.667535
 40
21.667535
 40
21.667535
 40
21.667535
 10
260.166606
 20
402.671783
 30
0.0
 10
263.654706
 20
403.846348
 30
0.0
 10
269.356161
 20
405.766226
 30
0.0
 10
263.961221
 20
413.660296
 30
0.0
 10
259.352967
 20
413.339017
 30
0.0
 10
256.618098
 20
413.148348
 30
0.0
 11
260.166606
 21
402.671783
 31
0.0
 11
267.208076
 21
407.362768
 31
0.0
 11
264.357797
 21
411.912540
 31
0.0
 11
256.618098
 21
413.148348
 31
0.0
  0
LWPOLYLINE
  5
27d
100
AcDbEntity
  8
Layer_1
 62
1
100
AcDbPolyline
 90
2
 70
0
 10
260.323039
 20
402.456804
 30
0.0
 10
255.737520
 20
401.023838
 30
0.0
  0
LWPOLYLINE
  5
27e
100
AcDbEntity
  8
Layer_1
 62
1
100
AcDbPolyline
 90
2
 70
0
 10
276.658954
 20
404.892858
 30
0.0
 10
271.356936
 20
393.572355
 30
0.0
  0
SPLINE
  5
27f
100
AcDbEntity
  8
Layer_1
 62
1
100
AcDbSpline
 70
0
 71
3
 72
10
 73
6
 74
4
 40
0.000000
 40
0.000000
 40
0.000000
 40
0.000000
 40
5.533216
 40
10.562135
 40
15.304054
 40
15.304054
 40
15.304054
 40
15.304054
 10
272.360025
 20
407.902109
 30
0.0
 10
271.559634
 20
406.236853
 30
0.0
 10
270.031800
 20
403.058113
 30
0.0
 10
266.960111
 20
398.939524
 30
0.0
 10
264.614129
 20
396.676708
 30
0.0
 10
263.475592
 20
395.578533
 30
0.0
 11
272.360025
 21
407.902109
 31
0.0
 11
269.796355
 21
402.998632
 31
0.0
 11
266.800555
 21
398.959424
 31
0.0
 11
263.475592
 21
395.578533
 31
0.0
  0
LWPOLYLINE
  5
280
100
AcDbEntity
  8
Layer_1
 62
1
100
AcDbPolyline
 90
2
 70
0
 10
280.671277
 20
402.886696
 30
0.0
 10
278.665115
 20
392.999175
 30
0.0
  0
ENDSEC
  0
SECTION
  2
OBJECTS
  0
DICTIONARY
  5
C
330
0
100
AcDbDictionary
  3
ACAD_GROUP
350
D
  3
ACAD_MLINESTYLE
350
17
  0
DICTIONARY
  5
D
330
C
100
AcDbDictionary
  0
DICTIONARY
  5
1A
330
C
100
AcDbDictionary
  0
DICTIONARY
  5
17
330
C
100
AcDbDictionary
  3
STANDARD
350
18
  0
DICTIONARY
  5
19
330
C
100
AcDbDictionary
  0
ENDSEC
  0
EOF
