ISO-10303-21;
HEADER;
/* Generated by software containing ST-Developer
 * from STEP Tools, Inc. (www.steptools.com) 
 */

FILE_DESCRIPTION(
/* description */ (''),
/* implementation_level */ '2;1');

FILE_NAME(
/* name */ 
'C:\\Users\\Mark\\Desktop\\Inventor Projects\\Hexagon_Puzzle\\Alt\\Hex
_Top_Level.stp',
/* time_stamp */ '2019-03-18T18:17:27-04:00',
/* author */ ('Mark'),
/* organization */ (''),
/* preprocessor_version */ 'ST-DEVELOPER v16.1',
/* originating_system */ 'Autodesk Inventor 2016',
/* authorisation */ '');

FILE_SCHEMA (('AUTOMOTIVE_DESIGN { 1 0 10303 214 3 1 1 }'));
ENDSEC;

DATA;
#10=MECHANICAL_DESIGN_GEOMETRIC_PRESENTATION_REPRESENTATION('',(#43,#44),
#404);
#11=ITEM_DEFINED_TRANSFORMATION($,$,#233,#248);
#12=ITEM_DEFINED_TRANSFORMATION($,$,#240,#249);
#13=ITEM_DEFINED_TRANSFORMATION($,$,#247,#251);
#14=ITEM_DEFINED_TRANSFORMATION($,$,#247,#252);
#15=ITEM_DEFINED_TRANSFORMATION($,$,#250,#254);
#16=ITEM_DEFINED_TRANSFORMATION($,$,#250,#255);
#17=ITEM_DEFINED_TRANSFORMATION($,$,#250,#256);
#18=(
REPRESENTATION_RELATIONSHIP($,$,#431,#433)
REPRESENTATION_RELATIONSHIP_WITH_TRANSFORMATION(#11)
SHAPE_REPRESENTATION_RELATIONSHIP()
);
#19=(
REPRESENTATION_RELATIONSHIP($,$,#432,#433)
REPRESENTATION_RELATIONSHIP_WITH_TRANSFORMATION(#12)
SHAPE_REPRESENTATION_RELATIONSHIP()
);
#20=(
REPRESENTATION_RELATIONSHIP($,$,#433,#434)
REPRESENTATION_RELATIONSHIP_WITH_TRANSFORMATION(#13)
SHAPE_REPRESENTATION_RELATIONSHIP()
);
#21=(
REPRESENTATION_RELATIONSHIP($,$,#433,#434)
REPRESENTATION_RELATIONSHIP_WITH_TRANSFORMATION(#14)
SHAPE_REPRESENTATION_RELATIONSHIP()
);
#22=(
REPRESENTATION_RELATIONSHIP($,$,#434,#435)
REPRESENTATION_RELATIONSHIP_WITH_TRANSFORMATION(#15)
SHAPE_REPRESENTATION_RELATIONSHIP()
);
#23=(
REPRESENTATION_RELATIONSHIP($,$,#434,#435)
REPRESENTATION_RELATIONSHIP_WITH_TRANSFORMATION(#16)
SHAPE_REPRESENTATION_RELATIONSHIP()
);
#24=(
REPRESENTATION_RELATIONSHIP($,$,#434,#435)
REPRESENTATION_RELATIONSHIP_WITH_TRANSFORMATION(#17)
SHAPE_REPRESENTATION_RELATIONSHIP()
);
#25=CONTEXT_DEPENDENT_SHAPE_REPRESENTATION(#18,#422);
#26=CONTEXT_DEPENDENT_SHAPE_REPRESENTATION(#19,#423);
#27=CONTEXT_DEPENDENT_SHAPE_REPRESENTATION(#20,#425);
#28=CONTEXT_DEPENDENT_SHAPE_REPRESENTATION(#21,#426);
#29=CONTEXT_DEPENDENT_SHAPE_REPRESENTATION(#22,#428);
#30=CONTEXT_DEPENDENT_SHAPE_REPRESENTATION(#23,#429);
#31=CONTEXT_DEPENDENT_SHAPE_REPRESENTATION(#24,#430);
#32=NEXT_ASSEMBLY_USAGE_OCCURRENCE('Part:1','Part:1','Part:1',#439,#437,
'Part:1');
#33=NEXT_ASSEMBLY_USAGE_OCCURRENCE('Part2:1','Part2:1','Part2:1',#439,#438,
'Part2:1');
#34=NEXT_ASSEMBLY_USAGE_OCCURRENCE('Hex_SubAssy:1','Hex_SubAssy:1',
'Hex_SubAssy:1',#440,#439,'Hex_SubAssy:1');
#35=NEXT_ASSEMBLY_USAGE_OCCURRENCE('Hex_SubAssy:2','Hex_SubAssy:2',
'Hex_SubAssy:2',#440,#439,'Hex_SubAssy:2');
#36=NEXT_ASSEMBLY_USAGE_OCCURRENCE('Hex_SubAssy1:1','Hex_SubAssy1:1',
'Hex_SubAssy1:1',#441,#440,'Hex_SubAssy1:1');
#37=NEXT_ASSEMBLY_USAGE_OCCURRENCE('Hex_SubAssy1:2','Hex_SubAssy1:2',
'Hex_SubAssy1:2',#441,#440,'Hex_SubAssy1:2');
#38=NEXT_ASSEMBLY_USAGE_OCCURRENCE('Hex_SubAssy1:3','Hex_SubAssy1:3',
'Hex_SubAssy1:3',#441,#440,'Hex_SubAssy1:3');
#39=SHAPE_REPRESENTATION_RELATIONSHIP('SRR','None',#431,#41);
#40=SHAPE_REPRESENTATION_RELATIONSHIP('SRR','None',#432,#42);
#41=ADVANCED_BREP_SHAPE_REPRESENTATION('',(#45),#399);
#42=ADVANCED_BREP_SHAPE_REPRESENTATION('',(#46),#400);
#43=STYLED_ITEM('',(#460),#45);
#44=STYLED_ITEM('',(#460),#46);
#45=MANIFOLD_SOLID_BREP('Solid1',#231);
#46=MANIFOLD_SOLID_BREP('Solid1',#232);
#47=FACE_OUTER_BOUND('',#59,.T.);
#48=FACE_OUTER_BOUND('',#60,.T.);
#49=FACE_OUTER_BOUND('',#61,.T.);
#50=FACE_OUTER_BOUND('',#62,.T.);
#51=FACE_OUTER_BOUND('',#63,.T.);
#52=FACE_OUTER_BOUND('',#64,.T.);
#53=FACE_OUTER_BOUND('',#65,.T.);
#54=FACE_OUTER_BOUND('',#66,.T.);
#55=FACE_OUTER_BOUND('',#67,.T.);
#56=FACE_OUTER_BOUND('',#68,.T.);
#57=FACE_OUTER_BOUND('',#69,.T.);
#58=FACE_OUTER_BOUND('',#70,.T.);
#59=EDGE_LOOP('',(#159,#160,#161,#162));
#60=EDGE_LOOP('',(#163,#164,#165,#166));
#61=EDGE_LOOP('',(#167,#168,#169,#170));
#62=EDGE_LOOP('',(#171,#172,#173,#174));
#63=EDGE_LOOP('',(#175,#176,#177,#178));
#64=EDGE_LOOP('',(#179,#180,#181,#182));
#65=EDGE_LOOP('',(#183,#184,#185,#186));
#66=EDGE_LOOP('',(#187,#188,#189,#190));
#67=EDGE_LOOP('',(#191,#192,#193,#194));
#68=EDGE_LOOP('',(#195,#196,#197,#198));
#69=EDGE_LOOP('',(#199,#200,#201,#202));
#70=EDGE_LOOP('',(#203,#204,#205,#206));
#71=LINE('',#333,#95);
#72=LINE('',#335,#96);
#73=LINE('',#337,#97);
#74=LINE('',#338,#98);
#75=LINE('',#341,#99);
#76=LINE('',#343,#100);
#77=LINE('',#344,#101);
#78=LINE('',#348,#102);
#79=LINE('',#349,#103);
#80=LINE('',#350,#104);
#81=LINE('',#352,#105);
#82=LINE('',#354,#106);
#83=LINE('',#360,#107);
#84=LINE('',#362,#108);
#85=LINE('',#364,#109);
#86=LINE('',#365,#110);
#87=LINE('',#368,#111);
#88=LINE('',#370,#112);
#89=LINE('',#371,#113);
#90=LINE('',#375,#114);
#91=LINE('',#376,#115);
#92=LINE('',#377,#116);
#93=LINE('',#379,#117);
#94=LINE('',#381,#118);
#95=VECTOR('',#261,1.15470053837925);
#96=VECTOR('',#262,0.75);
#97=VECTOR('',#263,1.15470053837925);
#98=VECTOR('',#264,0.75);
#99=VECTOR('',#267,2.30964973081037);
#100=VECTOR('',#268,1.15470053837925);
#101=VECTOR('',#269,2.30964973081037);
#102=VECTOR('',#272,1.15470053837925);
#103=VECTOR('',#273,0.75);
#104=VECTOR('',#274,0.75);
#105=VECTOR('',#277,2.30964973081037);
#106=VECTOR('',#280,2.30964973081037);
#107=VECTOR('',#287,1.15470053837925);
#108=VECTOR('',#288,0.75);
#109=VECTOR('',#289,1.15470053837925);
#110=VECTOR('',#290,0.75);
#111=VECTOR('',#293,2.30964973081037);
#112=VECTOR('',#294,1.15470053837925);
#113=VECTOR('',#295,2.30964973081037);
#114=VECTOR('',#298,1.15470053837925);
#115=VECTOR('',#299,0.75);
#116=VECTOR('',#300,0.75);
#117=VECTOR('',#303,2.30964973081037);
#118=VECTOR('',#306,2.30964973081037);
#119=VERTEX_POINT('',#331);
#120=VERTEX_POINT('',#332);
#121=VERTEX_POINT('',#334);
#122=VERTEX_POINT('',#336);
#123=VERTEX_POINT('',#340);
#124=VERTEX_POINT('',#342);
#125=VERTEX_POINT('',#346);
#126=VERTEX_POINT('',#347);
#127=VERTEX_POINT('',#358);
#128=VERTEX_POINT('',#359);
#129=VERTEX_POINT('',#361);
#130=VERTEX_POINT('',#363);
#131=VERTEX_POINT('',#367);
#132=VERTEX_POINT('',#369);
#133=VERTEX_POINT('',#373);
#134=VERTEX_POINT('',#374);
#135=EDGE_CURVE('',#119,#120,#71,.T.);
#136=EDGE_CURVE('',#120,#121,#72,.T.);
#137=EDGE_CURVE('',#121,#122,#73,.T.);
#138=EDGE_CURVE('',#122,#119,#74,.T.);
#139=EDGE_CURVE('',#123,#121,#75,.T.);
#140=EDGE_CURVE('',#124,#123,#76,.T.);
#141=EDGE_CURVE('',#122,#124,#77,.T.);
#142=EDGE_CURVE('',#125,#126,#78,.T.);
#143=EDGE_CURVE('',#126,#124,#79,.T.);
#144=EDGE_CURVE('',#123,#125,#80,.T.);
#145=EDGE_CURVE('',#119,#126,#81,.T.);
#146=EDGE_CURVE('',#125,#120,#82,.T.);
#147=EDGE_CURVE('',#127,#128,#83,.T.);
#148=EDGE_CURVE('',#128,#129,#84,.T.);
#149=EDGE_CURVE('',#129,#130,#85,.T.);
#150=EDGE_CURVE('',#130,#127,#86,.T.);
#151=EDGE_CURVE('',#131,#129,#87,.T.);
#152=EDGE_CURVE('',#132,#131,#88,.T.);
#153=EDGE_CURVE('',#130,#132,#89,.T.);
#154=EDGE_CURVE('',#133,#134,#90,.T.);
#155=EDGE_CURVE('',#134,#132,#91,.T.);
#156=EDGE_CURVE('',#131,#133,#92,.T.);
#157=EDGE_CURVE('',#127,#134,#93,.T.);
#158=EDGE_CURVE('',#133,#128,#94,.T.);
#159=ORIENTED_EDGE('',*,*,#135,.T.);
#160=ORIENTED_EDGE('',*,*,#136,.T.);
#161=ORIENTED_EDGE('',*,*,#137,.T.);
#162=ORIENTED_EDGE('',*,*,#138,.T.);
#163=ORIENTED_EDGE('',*,*,#137,.F.);
#164=ORIENTED_EDGE('',*,*,#139,.F.);
#165=ORIENTED_EDGE('',*,*,#140,.F.);
#166=ORIENTED_EDGE('',*,*,#141,.F.);
#167=ORIENTED_EDGE('',*,*,#142,.T.);
#168=ORIENTED_EDGE('',*,*,#143,.T.);
#169=ORIENTED_EDGE('',*,*,#140,.T.);
#170=ORIENTED_EDGE('',*,*,#144,.T.);
#171=ORIENTED_EDGE('',*,*,#143,.F.);
#172=ORIENTED_EDGE('',*,*,#145,.F.);
#173=ORIENTED_EDGE('',*,*,#138,.F.);
#174=ORIENTED_EDGE('',*,*,#141,.T.);
#175=ORIENTED_EDGE('',*,*,#136,.F.);
#176=ORIENTED_EDGE('',*,*,#146,.F.);
#177=ORIENTED_EDGE('',*,*,#144,.F.);
#178=ORIENTED_EDGE('',*,*,#139,.T.);
#179=ORIENTED_EDGE('',*,*,#135,.F.);
#180=ORIENTED_EDGE('',*,*,#145,.T.);
#181=ORIENTED_EDGE('',*,*,#142,.F.);
#182=ORIENTED_EDGE('',*,*,#146,.T.);
#183=ORIENTED_EDGE('',*,*,#147,.T.);
#184=ORIENTED_EDGE('',*,*,#148,.T.);
#185=ORIENTED_EDGE('',*,*,#149,.T.);
#186=ORIENTED_EDGE('',*,*,#150,.T.);
#187=ORIENTED_EDGE('',*,*,#149,.F.);
#188=ORIENTED_EDGE('',*,*,#151,.F.);
#189=ORIENTED_EDGE('',*,*,#152,.F.);
#190=ORIENTED_EDGE('',*,*,#153,.F.);
#191=ORIENTED_EDGE('',*,*,#154,.T.);
#192=ORIENTED_EDGE('',*,*,#155,.T.);
#193=ORIENTED_EDGE('',*,*,#152,.T.);
#194=ORIENTED_EDGE('',*,*,#156,.T.);
#195=ORIENTED_EDGE('',*,*,#155,.F.);
#196=ORIENTED_EDGE('',*,*,#157,.F.);
#197=ORIENTED_EDGE('',*,*,#150,.F.);
#198=ORIENTED_EDGE('',*,*,#153,.T.);
#199=ORIENTED_EDGE('',*,*,#148,.F.);
#200=ORIENTED_EDGE('',*,*,#158,.F.);
#201=ORIENTED_EDGE('',*,*,#156,.F.);
#202=ORIENTED_EDGE('',*,*,#151,.T.);
#203=ORIENTED_EDGE('',*,*,#147,.F.);
#204=ORIENTED_EDGE('',*,*,#157,.T.);
#205=ORIENTED_EDGE('',*,*,#154,.F.);
#206=ORIENTED_EDGE('',*,*,#158,.T.);
#207=PLANE('',#234);
#208=PLANE('',#235);
#209=PLANE('',#236);
#210=PLANE('',#237);
#211=PLANE('',#238);
#212=PLANE('',#239);
#213=PLANE('',#241);
#214=PLANE('',#242);
#215=PLANE('',#243);
#216=PLANE('',#244);
#217=PLANE('',#245);
#218=PLANE('',#246);
#219=ADVANCED_FACE('',(#47),#207,.T.);
#220=ADVANCED_FACE('',(#48),#208,.F.);
#221=ADVANCED_FACE('',(#49),#209,.T.);
#222=ADVANCED_FACE('',(#50),#210,.T.);
#223=ADVANCED_FACE('',(#51),#211,.T.);
#224=ADVANCED_FACE('',(#52),#212,.T.);
#225=ADVANCED_FACE('',(#53),#213,.T.);
#226=ADVANCED_FACE('',(#54),#214,.F.);
#227=ADVANCED_FACE('',(#55),#215,.T.);
#228=ADVANCED_FACE('',(#56),#216,.T.);
#229=ADVANCED_FACE('',(#57),#217,.T.);
#230=ADVANCED_FACE('',(#58),#218,.T.);
#231=CLOSED_SHELL('',(#219,#220,#221,#222,#223,#224));
#232=CLOSED_SHELL('',(#225,#226,#227,#228,#229,#230));
#233=AXIS2_PLACEMENT_3D('placement',#329,#257,#258);
#234=AXIS2_PLACEMENT_3D('',#330,#259,#260);
#235=AXIS2_PLACEMENT_3D('',#339,#265,#266);
#236=AXIS2_PLACEMENT_3D('',#345,#270,#271);
#237=AXIS2_PLACEMENT_3D('',#351,#275,#276);
#238=AXIS2_PLACEMENT_3D('',#353,#278,#279);
#239=AXIS2_PLACEMENT_3D('',#355,#281,#282);
#240=AXIS2_PLACEMENT_3D('placement',#356,#283,#284);
#241=AXIS2_PLACEMENT_3D('',#357,#285,#286);
#242=AXIS2_PLACEMENT_3D('',#366,#291,#292);
#243=AXIS2_PLACEMENT_3D('',#372,#296,#297);
#244=AXIS2_PLACEMENT_3D('',#378,#301,#302);
#245=AXIS2_PLACEMENT_3D('',#380,#304,#305);
#246=AXIS2_PLACEMENT_3D('',#382,#307,#308);
#247=AXIS2_PLACEMENT_3D('placement',#383,#309,#310);
#248=AXIS2_PLACEMENT_3D('',#384,#311,#312);
#249=AXIS2_PLACEMENT_3D('',#385,#313,#314);
#250=AXIS2_PLACEMENT_3D('placement',#386,#315,#316);
#251=AXIS2_PLACEMENT_3D('',#387,#317,#318);
#252=AXIS2_PLACEMENT_3D('',#388,#319,#320);
#253=AXIS2_PLACEMENT_3D('placement',#389,#321,#322);
#254=AXIS2_PLACEMENT_3D('',#390,#323,#324);
#255=AXIS2_PLACEMENT_3D('',#391,#325,#326);
#256=AXIS2_PLACEMENT_3D('',#392,#327,#328);
#257=DIRECTION('axis',(0.,0.,1.));
#258=DIRECTION('refdir',(1.,0.,0.));
#259=DIRECTION('center_axis',(-0.866025403784439,0.5,0.));
#260=DIRECTION('ref_axis',(0.,0.,1.));
#261=DIRECTION('',(0.5,0.866025403784439,0.));
#262=DIRECTION('',(0.,0.,-1.));
#263=DIRECTION('',(-0.5,-0.866025403784439,0.));
#264=DIRECTION('',(0.,0.,1.));
#265=DIRECTION('center_axis',(0.,0.,1.));
#266=DIRECTION('ref_axis',(1.,0.,0.));
#267=DIRECTION('',(-1.,-1.21121074883625E-16,0.));
#268=DIRECTION('',(0.5,0.866025403784439,0.));
#269=DIRECTION('',(1.,0.,0.));
#270=DIRECTION('center_axis',(0.866025403784439,-0.5,0.));
#271=DIRECTION('ref_axis',(0.,0.,-1.));
#272=DIRECTION('',(-0.5,-0.866025403784439,0.));
#273=DIRECTION('',(0.,0.,-1.));
#274=DIRECTION('',(0.,0.,1.));
#275=DIRECTION('center_axis',(0.,-1.,0.));
#276=DIRECTION('ref_axis',(1.,0.,0.));
#277=DIRECTION('',(1.,0.,0.));
#278=DIRECTION('center_axis',(-1.21121074883625E-16,1.,0.));
#279=DIRECTION('ref_axis',(-1.,0.,0.));
#280=DIRECTION('',(-1.,-1.21121074883625E-16,0.));
#281=DIRECTION('center_axis',(0.,0.,1.));
#282=DIRECTION('ref_axis',(1.,0.,0.));
#283=DIRECTION('axis',(0.,0.,1.));
#284=DIRECTION('refdir',(1.,0.,0.));
#285=DIRECTION('center_axis',(-0.866025403784439,0.5,0.));
#286=DIRECTION('ref_axis',(0.,0.,1.));
#287=DIRECTION('',(0.5,0.866025403784439,0.));
#288=DIRECTION('',(0.,0.,-1.));
#289=DIRECTION('',(-0.5,-0.866025403784439,0.));
#290=DIRECTION('',(0.,0.,1.));
#291=DIRECTION('center_axis',(0.,0.,1.));
#292=DIRECTION('ref_axis',(1.,0.,0.));
#293=DIRECTION('',(-1.,-1.21121074883625E-16,0.));
#294=DIRECTION('',(0.5,0.866025403784439,0.));
#295=DIRECTION('',(1.,0.,0.));
#296=DIRECTION('center_axis',(0.866025403784439,-0.5,0.));
#297=DIRECTION('ref_axis',(0.,0.,-1.));
#298=DIRECTION('',(-0.5,-0.866025403784439,0.));
#299=DIRECTION('',(0.,0.,-1.));
#300=DIRECTION('',(0.,0.,1.));
#301=DIRECTION('center_axis',(0.,-1.,0.));
#302=DIRECTION('ref_axis',(1.,0.,0.));
#303=DIRECTION('',(1.,0.,0.));
#304=DIRECTION('center_axis',(-1.21121074883625E-16,1.,0.));
#305=DIRECTION('ref_axis',(-1.,0.,0.));
#306=DIRECTION('',(-1.,-1.21121074883625E-16,0.));
#307=DIRECTION('center_axis',(0.,0.,1.));
#308=DIRECTION('ref_axis',(1.,0.,0.));
#309=DIRECTION('axis',(0.,0.,1.));
#310=DIRECTION('refdir',(1.,0.,0.));
#311=DIRECTION('',(-5.55111512312578E-17,1.33319145925967E-16,1.));
#312=DIRECTION('',(0.5,-0.866025403784438,1.43213342798361E-16));
#313=DIRECTION('',(-5.55111512312578E-17,2.40173609332067E-16,1.));
#314=DIRECTION('',(1.,2.66646270987787E-32,5.55111512312578E-17));
#315=DIRECTION('axis',(0.,0.,1.));
#316=DIRECTION('refdir',(1.,0.,0.));
#317=DIRECTION('',(1.22756473831401E-16,6.13585290464574E-16,1.));
#318=DIRECTION('',(-0.500000000000004,0.866025403784436,-4.70002212015073E-16));
#319=DIRECTION('',(-2.62958342858953E-16,6.32170796267969E-16,1.));
#320=DIRECTION('',(-1.,-5.24580379135387E-15,-2.62958342858949E-16));
#321=DIRECTION('axis',(0.,0.,1.));
#322=DIRECTION('refdir',(1.,0.,0.));
#323=DIRECTION('',(-5.15934605602111E-31,-2.36504410804859E-16,1.));
#324=DIRECTION('',(1.,-9.71445146547003E-16,2.86183543588772E-31));
#325=DIRECTION('',(-6.70870322483622E-16,3.32118526814823E-16,1.));
#326=DIRECTION('',(-0.500000000000001,-0.866025403784438,-4.78120799527115E-17));
#327=DIRECTION('',(5.08140364982504E-16,4.81415165755831E-16,1.));
#328=DIRECTION('',(-0.499999999999998,0.86602540378444,-1.62847580820395E-16));
#329=CARTESIAN_POINT('',(0.,0.,0.));
#330=CARTESIAN_POINT('Origin',(0.288675134594813,0.5,0.));
#331=CARTESIAN_POINT('',(0.,0.,0.75));
#332=CARTESIAN_POINT('',(0.577350269189625,1.,0.75));
#333=CARTESIAN_POINT('',(0.433028242770461,0.750026917590709,0.75));
#334=CARTESIAN_POINT('',(0.577350269189625,1.,0.));
#335=CARTESIAN_POINT('',(0.577350269189625,1.,0.));
#336=CARTESIAN_POINT('',(0.,0.,0.));
#337=CARTESIAN_POINT('',(0.433028242770461,0.750026917590709,0.));
#338=CARTESIAN_POINT('',(0.,0.,0.));
#339=CARTESIAN_POINT('Origin',(1.4435,0.5,0.));
#340=CARTESIAN_POINT('',(2.887,1.,0.));
#341=CARTESIAN_POINT('',(2.887,1.,0.));
#342=CARTESIAN_POINT('',(2.30964973081037,0.,0.));
#343=CARTESIAN_POINT('',(2.45397175722954,0.249973082409291,0.));
#344=CARTESIAN_POINT('',(0.,0.,0.));
#345=CARTESIAN_POINT('Origin',(2.59832486540519,0.5,0.));
#346=CARTESIAN_POINT('',(2.887,1.,0.75));
#347=CARTESIAN_POINT('',(2.30964973081037,0.,0.75));
#348=CARTESIAN_POINT('',(2.45397175722954,0.249973082409291,0.75));
#349=CARTESIAN_POINT('',(2.30964973081037,0.,0.));
#350=CARTESIAN_POINT('',(2.887,1.,0.));
#351=CARTESIAN_POINT('Origin',(0.,0.,0.));
#352=CARTESIAN_POINT('',(0.,0.,0.75));
#353=CARTESIAN_POINT('Origin',(2.887,1.,0.));
#354=CARTESIAN_POINT('',(2.887,1.,0.75));
#355=CARTESIAN_POINT('Origin',(1.4435,0.5,0.75));
#356=CARTESIAN_POINT('',(0.,0.,0.));
#357=CARTESIAN_POINT('Origin',(0.288675134594813,0.5,0.));
#358=CARTESIAN_POINT('',(0.,0.,0.75));
#359=CARTESIAN_POINT('',(0.577350269189625,1.,0.75));
#360=CARTESIAN_POINT('',(0.433028242770461,0.750026917590709,0.75));
#361=CARTESIAN_POINT('',(0.577350269189625,1.,0.));
#362=CARTESIAN_POINT('',(0.577350269189625,1.,0.));
#363=CARTESIAN_POINT('',(0.,0.,0.));
#364=CARTESIAN_POINT('',(0.433028242770461,0.750026917590709,0.));
#365=CARTESIAN_POINT('',(0.,0.,0.));
#366=CARTESIAN_POINT('Origin',(1.4435,0.5,0.));
#367=CARTESIAN_POINT('',(2.887,1.,0.));
#368=CARTESIAN_POINT('',(2.887,1.,0.));
#369=CARTESIAN_POINT('',(2.30964973081037,0.,0.));
#370=CARTESIAN_POINT('',(2.45397175722954,0.249973082409291,0.));
#371=CARTESIAN_POINT('',(0.,0.,0.));
#372=CARTESIAN_POINT('Origin',(2.59832486540519,0.5,0.));
#373=CARTESIAN_POINT('',(2.887,1.,0.75));
#374=CARTESIAN_POINT('',(2.30964973081037,0.,0.75));
#375=CARTESIAN_POINT('',(2.45397175722954,0.249973082409291,0.75));
#376=CARTESIAN_POINT('',(2.30964973081037,0.,0.));
#377=CARTESIAN_POINT('',(2.887,1.,0.));
#378=CARTESIAN_POINT('Origin',(0.,0.,0.));
#379=CARTESIAN_POINT('',(0.,0.,0.75));
#380=CARTESIAN_POINT('Origin',(2.887,1.,0.));
#381=CARTESIAN_POINT('',(2.887,1.,0.75));
#382=CARTESIAN_POINT('Origin',(1.4435,0.5,0.75));
#383=CARTESIAN_POINT('',(0.,0.,0.));
#384=CARTESIAN_POINT('',(-2.52525315240504,2.93993355399886,-0.511089800816461));
#385=CARTESIAN_POINT('',(-3.1027277486206,-0.0602817867268105,-0.51108980081646));
#386=CARTESIAN_POINT('',(0.,0.,0.));
#387=CARTESIAN_POINT('',(-1.27024111167898,-3.46474534041181,-2.81975225717663));
#388=CARTESIAN_POINT('',(-3.34674969648796,-5.18192728510755,-2.06975225717663));
#389=CARTESIAN_POINT('',(0.,0.,0.));
#390=CARTESIAN_POINT('',(2.69827894613893,4.39088351956529,1.56956269514095));
#391=CARTESIAN_POINT('',(6.76759680808784,-5.50312927466555,1.56956269514095));
#392=CARTESIAN_POINT('',(-3.83552854805876,-4.08025552207168,1.56956269514094));
#393=UNCERTAINTY_MEASURE_WITH_UNIT(LENGTH_MEASURE(0.000393700787401575),
#405,'DISTANCE_ACCURACY_VALUE',
'Maximum model space distance between geometric entities at asserted c
onnectivities');
#394=UNCERTAINTY_MEASURE_WITH_UNIT(LENGTH_MEASURE(0.000393700787401575),
#405,'DISTANCE_ACCURACY_VALUE',
'Maximum model space distance between geometric entities at asserted c
onnectivities');
#395=UNCERTAINTY_MEASURE_WITH_UNIT(LENGTH_MEASURE(0.000393700787401575),
#405,'DISTANCE_ACCURACY_VALUE',
'Maximum model space distance between geometric entities at asserted c
onnectivities');
#396=UNCERTAINTY_MEASURE_WITH_UNIT(LENGTH_MEASURE(0.000393700787401575),
#405,'DISTANCE_ACCURACY_VALUE',
'Maximum model space distance between geometric entities at asserted c
onnectivities');
#397=UNCERTAINTY_MEASURE_WITH_UNIT(LENGTH_MEASURE(0.000393700787401575),
#405,'DISTANCE_ACCURACY_VALUE',
'Maximum model space distance between geometric entities at asserted c
onnectivities');
#398=UNCERTAINTY_MEASURE_WITH_UNIT(LENGTH_MEASURE(1.E-6),#406,
'DISTANCE_ACCURACY_VALUE',
'Maximum model space distance between geometric entities at asserted c
onnectivities');
#399=(
GEOMETRIC_REPRESENTATION_CONTEXT(3)
GLOBAL_UNCERTAINTY_ASSIGNED_CONTEXT((#393))
GLOBAL_UNIT_ASSIGNED_CONTEXT((#405,#411,#408))
REPRESENTATION_CONTEXT('','3D')
);
#400=(
GEOMETRIC_REPRESENTATION_CONTEXT(3)
GLOBAL_UNCERTAINTY_ASSIGNED_CONTEXT((#394))
GLOBAL_UNIT_ASSIGNED_CONTEXT((#405,#411,#408))
REPRESENTATION_CONTEXT('','3D')
);
#401=(
GEOMETRIC_REPRESENTATION_CONTEXT(3)
GLOBAL_UNCERTAINTY_ASSIGNED_CONTEXT((#395))
GLOBAL_UNIT_ASSIGNED_CONTEXT((#405,#411,#408))
REPRESENTATION_CONTEXT('','3D')
);
#402=(
GEOMETRIC_REPRESENTATION_CONTEXT(3)
GLOBAL_UNCERTAINTY_ASSIGNED_CONTEXT((#396))
GLOBAL_UNIT_ASSIGNED_CONTEXT((#405,#411,#408))
REPRESENTATION_CONTEXT('','3D')
);
#403=(
GEOMETRIC_REPRESENTATION_CONTEXT(3)
GLOBAL_UNCERTAINTY_ASSIGNED_CONTEXT((#397))
GLOBAL_UNIT_ASSIGNED_CONTEXT((#405,#411,#408))
REPRESENTATION_CONTEXT('','3D')
);
#404=(
GEOMETRIC_REPRESENTATION_CONTEXT(3)
GLOBAL_UNCERTAINTY_ASSIGNED_CONTEXT((#398))
GLOBAL_UNIT_ASSIGNED_CONTEXT((#406,#411,#408))
REPRESENTATION_CONTEXT('','3D')
);
#405=(
CONVERSION_BASED_UNIT('__CONSTANT UNIT inch',#407)
LENGTH_UNIT()
NAMED_UNIT(#410)
);
#406=(
LENGTH_UNIT()
NAMED_UNIT(*)
SI_UNIT(.MILLI.,.METRE.)
);
#407=LENGTH_MEASURE_WITH_UNIT(LENGTH_MEASURE(25.4),#406);
#408=(
NAMED_UNIT(*)
SI_UNIT($,.STERADIAN.)
SOLID_ANGLE_UNIT()
);
#409=DIMENSIONAL_EXPONENTS(0.,0.,0.,0.,0.,0.,0.);
#410=DIMENSIONAL_EXPONENTS(1.,0.,0.,0.,0.,0.,0.);
#411=(
CONVERSION_BASED_UNIT('degree',#413)
NAMED_UNIT(#409)
PLANE_ANGLE_UNIT()
);
#412=(
NAMED_UNIT(*)
PLANE_ANGLE_UNIT()
SI_UNIT($,.RADIAN.)
);
#413=PLANE_ANGLE_MEASURE_WITH_UNIT(PLANE_ANGLE_MEASURE(0.01745329252),#412);
#414=SHAPE_DEFINITION_REPRESENTATION(#419,#431);
#415=SHAPE_DEFINITION_REPRESENTATION(#420,#432);
#416=SHAPE_DEFINITION_REPRESENTATION(#421,#433);
#417=SHAPE_DEFINITION_REPRESENTATION(#424,#434);
#418=SHAPE_DEFINITION_REPRESENTATION(#427,#435);
#419=PRODUCT_DEFINITION_SHAPE('',$,#437);
#420=PRODUCT_DEFINITION_SHAPE('',$,#438);
#421=PRODUCT_DEFINITION_SHAPE('',$,#439);
#422=PRODUCT_DEFINITION_SHAPE($,$,#32);
#423=PRODUCT_DEFINITION_SHAPE($,$,#33);
#424=PRODUCT_DEFINITION_SHAPE('',$,#440);
#425=PRODUCT_DEFINITION_SHAPE($,$,#34);
#426=PRODUCT_DEFINITION_SHAPE($,$,#35);
#427=PRODUCT_DEFINITION_SHAPE('',$,#441);
#428=PRODUCT_DEFINITION_SHAPE($,$,#36);
#429=PRODUCT_DEFINITION_SHAPE($,$,#37);
#430=PRODUCT_DEFINITION_SHAPE($,$,#38);
#431=SHAPE_REPRESENTATION('',(#233),#399);
#432=SHAPE_REPRESENTATION('',(#240),#400);
#433=SHAPE_REPRESENTATION('',(#247,#248,#249),#401);
#434=SHAPE_REPRESENTATION('',(#250,#251,#252),#402);
#435=SHAPE_REPRESENTATION('',(#253,#254,#255,#256),#403);
#436=PRODUCT_DEFINITION_CONTEXT('part definition',#453,'design');
#437=PRODUCT_DEFINITION('Part','Part',#442,#436);
#438=PRODUCT_DEFINITION('Part2','Part2',#443,#436);
#439=PRODUCT_DEFINITION('Hex_SubAssy','Hex_SubAssy',#444,#436);
#440=PRODUCT_DEFINITION('Hex_SubAssy1','Hex_SubAssy1',#445,#436);
#441=PRODUCT_DEFINITION('Hex_Top_Level','Hex_Top_Level',#446,#436);
#442=PRODUCT_DEFINITION_FORMATION('',$,#455);
#443=PRODUCT_DEFINITION_FORMATION('',$,#456);
#444=PRODUCT_DEFINITION_FORMATION('',$,#457);
#445=PRODUCT_DEFINITION_FORMATION('',$,#458);
#446=PRODUCT_DEFINITION_FORMATION('',$,#459);
#447=PRODUCT_RELATED_PRODUCT_CATEGORY('Part','Part',(#455));
#448=PRODUCT_RELATED_PRODUCT_CATEGORY('Part2','Part2',(#456));
#449=PRODUCT_RELATED_PRODUCT_CATEGORY('Hex_SubAssy','Hex_SubAssy',(#457));
#450=PRODUCT_RELATED_PRODUCT_CATEGORY('Hex_SubAssy1','Hex_SubAssy1',(#458));
#451=PRODUCT_RELATED_PRODUCT_CATEGORY('Hex_Top_Level','Hex_Top_Level',(#459));
#452=APPLICATION_PROTOCOL_DEFINITION('international standard',
'automotive_design',2009,#453);
#453=APPLICATION_CONTEXT(
'Core Data for Automotive Mechanical Design Process');
#454=PRODUCT_CONTEXT('part definition',#453,'mechanical');
#455=PRODUCT('Part','Part',$,(#454));
#456=PRODUCT('Part2','Part2',$,(#454));
#457=PRODUCT('Hex_SubAssy','Hex_SubAssy',$,(#454));
#458=PRODUCT('Hex_SubAssy1','Hex_SubAssy1',$,(#454));
#459=PRODUCT('Hex_Top_Level','Hex_Top_Level',$,(#454));
#460=PRESENTATION_STYLE_ASSIGNMENT((#461));
#461=SURFACE_STYLE_USAGE(.BOTH.,#462);
#462=SURFACE_SIDE_STYLE('',(#463));
#463=SURFACE_STYLE_FILL_AREA(#464);
#464=FILL_AREA_STYLE('',(#465));
#465=FILL_AREA_STYLE_COLOUR('',#466);
#466=COLOUR_RGB('',0.890196078431373,0.666666666666667,0.501960784313725);
ENDSEC;
END-ISO-10303-21;
