0
SECTION
2
HEADER
9
$INSUNITS
70
4
9
$ACADVER
1
AC1014
9
$HANDSEED
5
FFFF
0
ENDSEC
0
SECTION
2
TABLES
0
TABLE
2
VPORT
5
8
100
AcDbSymbolTable
0
ENDTAB
0
TABLE
2
LTYPE
5
5
100
AcDbSymbolTable
0
LTYPE
5
14
100
AcDbSymbolTableRecord
100
AcDbLinetypeTableRecord
2
BYBLOCK
70
0
0
LTYPE
5
15
100
AcDbSymbolTableRecord
100
AcDbLinetypeTableRecord
2
BYLAYER
70
0
0
ENDTAB
0
TABLE
2
LAYER
5
2
100
AcDbSymbolTable
70
2
0
LAYER
5
50
100
AcDbSymbolTableRecord
100
AcDbLayerTableRecord
2
0
70
0
6
CONTINUOUS
0
ENDTAB
0
TABLE
2
STYLE
5
3
100
AcDbSymbolTable
70
1
0
STYLE
5
11
100
AcDbSymbolTableRecord
100
AcDbTextStyleTableRecord
2
STANDARD
70
0
0
ENDTAB
0
TABLE
2
VIEW
5
6
100
AcDbSymbolTable
70
0
0
ENDTAB
0
TABLE
2
UCS
5
7
100
AcDbSymbolTable
70
0
0
ENDTAB
0
TABLE
2
APPID
5
9
100
AcDbSymbolTable
70
2
0
APPID
5
12
100
AcDbSymbolTableRecord
100
AcDbRegAppTableRecord
2
ACAD
70
0
0
ENDTAB
0
TABLE
2
DIMSTYLE
5
A
100
AcDbSymbolTable
70
1
0
ENDTAB
0
TABLE
2
BLOCK_RECORD
5
1
100
AcDbSymbolTable
70
1
0
BLOCK_RECORD
5
1F
100
AcDbSymbolTableRecord
100
AcDbBlockTableRecord
2
*MODEL_SPACE
0
BLOCK_RECORD
5
1B
100
AcDbSymbolTableRecord
100
AcDbBlockTableRecord
2
*PAPER_SPACE
0
ENDTAB
0
ENDSEC
0
SECTION
2
BLOCKS
0
BLOCK
5
20
100
AcDbEntity
100
AcDbBlockBegin
2
*MODEL_SPACE
0
ENDBLK
5
21
100
AcDbEntity
100
AcDbBlockEnd
0
BLOCK
5
1C
100
AcDbEntity
100
AcDbBlockBegin
2
*PAPER_SPACE
0
ENDBLK
5
1D
100
AcDbEntity
100
AcDbBlockEnd
0
ENDSEC
0
SECTION
2
ENTITIES
0
CIRCLE
5
100
100
AcDbEntity
8
0
100
AcDbCircle
10
-304.00023907761386
20
0.00023905856264481475
30
0
40
2.5
0
LWPOLYLINE
5
101
100
AcDbEntity
8
0
100
AcDbPolyline
90
8
70
1
43
0.0
10
307
20
10.000000000000007
42
-0.41421356237309503
10
310.00000000000006
20
7
10
310
20
-7
42
-0.41421356237309159
10
307
20
-10
10
-307
20
-9.9999999999999716
42
-0.41421356237309503
10
-310
20
-7
10
-310.00000000000006
20
7
42
-0.41421356237309503
10
-307
20
10
0
LWPOLYLINE
5
102
100
AcDbEntity
8
0
100
AcDbPolyline
90
6
70
1
43
0.0
10
-22.118089534208
20
-4.0000000000000027
10
-17.499287380690987
20
-4.0000000000000027
10
-15.189886303932488
20
3.3306690738754696e-15
10
-17.499287380690991
20
4.0000000000000027
10
-22.118089534207996
20
4.0000000000000009
10
-24.427490610966501
20
-1.6653345369377348e-15
0
LINE
5
103
100
AcDbEntity
8
0
100
AcDbLine
10
299.99999999999994
20
-5.9995941967520894
30
0
11
297
21
-5.9995941967520903
31
0
0
LINE
5
104
100
AcDbEntity
8
0
100
AcDbLine
10
297
20
-5.9995941967520903
30
0
11
-297.00000000000006
21
-5.9995941967520903
31
0
0
LINE
5
105
100
AcDbEntity
8
0
100
AcDbLine
10
-297.00000000000006
20
-5.9995941967520903
30
0
11
-300.00000000000006
21
-5.9995941967520894
31
0
0
LINE
5
106
100
AcDbEntity
8
0
100
AcDbLine
10
-300.00000000000006
20
-5.9995941967520894
30
0
11
-300.00000000000006
21
6.00039109038081
31
0
0
LINE
5
107
100
AcDbEntity
8
0
100
AcDbLine
10
-300.00000000000006
20
6.00039109038081
30
0
11
-297.00000000000006
21
6.00039109038081
31
0
0
LINE
5
108
100
AcDbEntity
8
0
100
AcDbLine
10
-297.00000000000006
20
6.00039109038081
30
0
11
297
21
6.0003910903808091
31
0
0
LINE
5
109
100
AcDbEntity
8
0
100
AcDbLine
10
297
20
-5.9995941967520903
30
0
11
297
21
6.0003910903808091
31
0
0
LINE
5
110
100
AcDbEntity
8
0
100
AcDbLine
10
300
20
6.00039109038081
30
0
11
299.99999999999994
21
-5.9995941967520894
31
0
0
LINE
5
111
100
AcDbEntity
8
0
100
AcDbLine
10
297
20
6.0003910903808091
30
0
11
300
21
6.00039109038081
31
0
0
LINE
5
112
100
AcDbEntity
8
0
100
AcDbLine
10
-297.00000000000006
20
6.00039109038081
30
0
11
-297.00000000000006
21
-5.9995941967520903
31
0
0
CIRCLE
5
113
100
AcDbEntity
8
0
100
AcDbCircle
10
304.00023907761386
20
0.00023905856264481475
30
0
40
2.5
0
ENDSEC
0
SECTION
2
OBJECTS
0
DICTIONARY
5
C
100
AcDbDictionary
3
ACAD_GROUP
350
D
3
ACAD_MLINESTYLE
350
17
0
DICTIONARY
5
D
100
AcDbDictionary
0
DICTIONARY
5
1A
330
C
100
AcDbDictionary
0
DICTIONARY
5
17
100
AcDbDictionary
0
ENDSEC
0
EOF
