0
SECTION
2
HEADER
9
$INSUNITS
70
4
9
$ACADVER
1
AC1014
9
$HANDSEED
5
FFFF
0
ENDSEC
0
SECTION
2
TABLES
0
TABLE
2
VPORT
5
8
100
AcDbSymbolTable
0
ENDTAB
0
TABLE
2
LTYPE
5
5
100
AcDbSymbolTable
0
LTYPE
5
14
100
AcDbSymbolTableRecord
100
AcDbLinetypeTableRecord
2
BYBLOCK
70
0
0
LTYPE
5
15
100
AcDbSymbolTableRecord
100
AcDbLinetypeTableRecord
2
BYLAYER
70
0
0
ENDTAB
0
TABLE
2
LAYER
5
2
100
AcDbSymbolTable
70
2
0
LAYER
5
50
100
AcDbSymbolTableRecord
100
AcDbLayerTableRecord
2
0
70
0
6
CONTINUOUS
0
ENDTAB
0
TABLE
2
STYLE
5
3
100
AcDbSymbolTable
70
1
0
STYLE
5
11
100
AcDbSymbolTableRecord
100
AcDbTextStyleTableRecord
2
STANDARD
70
0
0
ENDTAB
0
TABLE
2
VIEW
5
6
100
AcDbSymbolTable
70
0
0
ENDTAB
0
TABLE
2
UCS
5
7
100
AcDbSymbolTable
70
0
0
ENDTAB
0
TABLE
2
APPID
5
9
100
AcDbSymbolTable
70
2
0
APPID
5
12
100
AcDbSymbolTableRecord
100
AcDbRegAppTableRecord
2
ACAD
70
0
0
ENDTAB
0
TABLE
2
DIMSTYLE
5
A
100
AcDbSymbolTable
70
1
0
ENDTAB
0
TABLE
2
BLOCK_RECORD
5
1
100
AcDbSymbolTable
70
1
0
BLOCK_RECORD
5
1F
100
AcDbSymbolTableRecord
100
AcDbBlockTableRecord
2
*MODEL_SPACE
0
BLOCK_RECORD
5
1B
100
AcDbSymbolTableRecord
100
AcDbBlockTableRecord
2
*PAPER_SPACE
0
ENDTAB
0
ENDSEC
0
SECTION
2
BLOCKS
0
BLOCK
5
20
100
AcDbEntity
100
AcDbBlockBegin
2
*MODEL_SPACE
0
ENDBLK
5
21
100
AcDbEntity
100
AcDbBlockEnd
0
BLOCK
5
1C
100
AcDbEntity
100
AcDbBlockBegin
2
*PAPER_SPACE
0
ENDBLK
5
1D
100
AcDbEntity
100
AcDbBlockEnd
0
ENDSEC
0
SECTION
2
ENTITIES
0
CIRCLE
5
100
100
AcDbEntity
8
0
100
AcDbCircle
10
-60.999999999999979
20
53.312523696229228
30
0
40
1.5000000000000036
0
CIRCLE
5
101
100
AcDbEntity
8
0
100
AcDbCircle
10
170.99999999999997
20
53.312523696229228
30
0
40
1.5000000000000213
0
CIRCLE
5
102
100
AcDbEntity
8
0
100
AcDbCircle
10
-60.999999999999979
20
-53.312523696229228
30
0
40
1.5000000000000036
0
CIRCLE
5
103
100
AcDbEntity
8
0
100
AcDbCircle
10
170.99999999999997
20
-53.312523696229221
30
0
40
1.5000000000000213
0
LWPOLYLINE
5
104
100
AcDbEntity
8
0
100
AcDbPolyline
90
4
70
1
43
0.0
10
62.676069179984609
20
-4.0860215053763262
42
-0.4396708383541279
10
63.672362460405978
20
-2.9999999999999982
10
156.32763753959406
20
-3.0000000000000133
42
-0.43967083835412679
10
157.32393082001539
20
-4.0860215053763929
42
-0.91737896118007856
0
CIRCLE
5
105
100
AcDbEntity
8
0
100
AcDbCircle
10
11.249999999999991
20
-35.750000000000007
30
0
40
7.0000000000000018
0
LWPOLYLINE
5
106
100
AcDbEntity
8
0
100
AcDbPolyline
90
8
70
1
43
0.0
10
-22.300000000000004
20
25.800000000000001
42
-0.41421356237309936
10
-22.900000000000006
20
26.400000000000002
10
-22.900000000000006
20
39.025047392458447
42
-0.41421356237310591
10
-22.300000000000004
20
39.625047392458455
10
10.11047460136135
20
39.625047392458448
42
-0.41421356237309176
10
10.710474601361351
20
39.025047392458447
10
10.710474601361346
20
26.399999999999999
42
-0.41421356237309509
10
10.11047460136135
20
25.800000000000001
0
LWPOLYLINE
5
107
100
AcDbEntity
8
0
100
AcDbPolyline
90
8
70
1
43
0.0
10
22.299999999999997
20
39.625047392458448
42
-0.41421356237309936
10
22.899999999999995
20
39.025047392458447
10
22.899999999999995
20
26.399999999999999
42
-0.41421356237310364
10
22.299999999999997
20
25.799999999999997
10
12.810474601361355
20
25.800000000000001
42
-0.41421356237309392
10
12.21047460136135
20
26.400000000000002
10
12.210474601361355
20
39.025047392458447
42
-0.41421356237309714
10
12.810474601361349
20
39.625047392458448
0
LWPOLYLINE
5
108
100
AcDbEntity
8
0
100
AcDbPolyline
90
4
70
1
43
0.0
10
157.32393082001539
20
4.0860215053763334
42
-0.43967083835412873
10
156.32763753959404
20
2.9999999999999978
10
63.672362460405978
20
2.9999999999999716
42
-0.43967083835412918
10
62.676069179984609
20
4.0860215053763316
42
-0.91737896118007989
0
LWPOLYLINE
5
109
100
AcDbEntity
8
0
100
AcDbPolyline
90
8
70
1
43
0.0
10
22.299999999999997
20
24.300000000000001
42
-0.41421356237310364
10
22.899999999999995
20
23.700000000000003
10
22.899999999999999
20
16.500000000000007
42
-0.41421356237309714
10
22.299999999999997
20
15.900000000000007
10
-22.299999999999997
20
15.900000000000006
42
-0.41421356237309936
10
-22.899999999999995
20
16.500000000000007
10
-22.899999999999995
20
23.700000000000003
42
-0.41421356237310364
10
-22.299999999999997
20
24.300000000000001
0
LWPOLYLINE
5
110
100
AcDbEntity
8
0
100
AcDbPolyline
90
8
70
1
43
0.0
10
-66.999999999999986
20
-65.5
10
-67
20
65.5
42
-0.41421356237308637
10
-65.5
20
67.000000000000014
10
175.5
20
67.000000000000028
42
-0.41421356237310197
10
177
20
65.5
10
177
20
-65.5
42
-0.41421356237309853
10
175.5
20
-67.000000000000014
10
-65.5
20
-66.999999999999986
42
-0.4142135623730881
0
ENDSEC
0
SECTION
2
OBJECTS
0
DICTIONARY
5
C
100
AcDbDictionary
3
ACAD_GROUP
350
D
3
ACAD_MLINESTYLE
350
17
0
DICTIONARY
5
D
100
AcDbDictionary
0
DICTIONARY
5
1A
330
C
100
AcDbDictionary
0
DICTIONARY
5
17
100
AcDbDictionary
0
ENDSEC
0
EOF
