ISO-10303-21;
HEADER;
/* Generated by software containing ST-Developer
 * from STEP Tools, Inc. (www.steptools.com) 
 */

FILE_DESCRIPTION(
/* description */ (''),
/* implementation_level */ '2;1');

FILE_NAME(
/* name */ 
'C:\\Users\\jbraithwaite\\OneDrive - Loyalist College\\Skills Ontario\\
SOC2022\\PM\\Stock Model.stp',
/* time_stamp */ '2022-04-28T10:42:28-04:00',
/* author */ ('jBraithwaite'),
/* organization */ (''),
/* preprocessor_version */ 'ST-DEVELOPER v18.1',
/* originating_system */ 'Autodesk Inventor 2022',
/* authorisation */ '');

FILE_SCHEMA (('AUTOMOTIVE_DESIGN { 1 0 10303 214 3 1 1 }'));
ENDSEC;

DATA;
#10=MECHANICAL_DESIGN_GEOMETRIC_PRESENTATION_REPRESENTATION('',(#13),#189);
#11=SHAPE_REPRESENTATION_RELATIONSHIP('SRR','None',#199,#12);
#12=ADVANCED_BREP_SHAPE_REPRESENTATION('',(#14),#188);
#13=STYLED_ITEM('',(#208),#14);
#14=MANIFOLD_SOLID_BREP('Solid1',#107);
#15=FACE_OUTER_BOUND('',#21,.T.);
#16=FACE_OUTER_BOUND('',#22,.T.);
#17=FACE_OUTER_BOUND('',#23,.T.);
#18=FACE_OUTER_BOUND('',#24,.T.);
#19=FACE_OUTER_BOUND('',#25,.T.);
#20=FACE_OUTER_BOUND('',#26,.T.);
#21=EDGE_LOOP('',(#71,#72,#73,#74));
#22=EDGE_LOOP('',(#75,#76,#77,#78));
#23=EDGE_LOOP('',(#79,#80,#81,#82));
#24=EDGE_LOOP('',(#83,#84,#85,#86));
#25=EDGE_LOOP('',(#87,#88,#89,#90));
#26=EDGE_LOOP('',(#91,#92,#93,#94));
#27=LINE('',#163,#39);
#28=LINE('',#165,#40);
#29=LINE('',#167,#41);
#30=LINE('',#168,#42);
#31=LINE('',#171,#43);
#32=LINE('',#173,#44);
#33=LINE('',#174,#45);
#34=LINE('',#177,#46);
#35=LINE('',#179,#47);
#36=LINE('',#180,#48);
#37=LINE('',#182,#49);
#38=LINE('',#183,#50);
#39=VECTOR('',#137,0.393700787401575);
#40=VECTOR('',#138,0.393700787401575);
#41=VECTOR('',#139,0.393700787401575);
#42=VECTOR('',#140,0.393700787401575);
#43=VECTOR('',#143,0.393700787401575);
#44=VECTOR('',#144,0.393700787401575);
#45=VECTOR('',#145,0.393700787401575);
#46=VECTOR('',#148,0.393700787401575);
#47=VECTOR('',#149,0.393700787401575);
#48=VECTOR('',#150,0.393700787401575);
#49=VECTOR('',#153,0.393700787401575);
#50=VECTOR('',#154,0.393700787401575);
#51=VERTEX_POINT('',#161);
#52=VERTEX_POINT('',#162);
#53=VERTEX_POINT('',#164);
#54=VERTEX_POINT('',#166);
#55=VERTEX_POINT('',#170);
#56=VERTEX_POINT('',#172);
#57=VERTEX_POINT('',#176);
#58=VERTEX_POINT('',#178);
#59=EDGE_CURVE('',#51,#52,#27,.T.);
#60=EDGE_CURVE('',#52,#53,#28,.T.);
#61=EDGE_CURVE('',#54,#53,#29,.T.);
#62=EDGE_CURVE('',#51,#54,#30,.T.);
#63=EDGE_CURVE('',#55,#51,#31,.T.);
#64=EDGE_CURVE('',#56,#54,#32,.T.);
#65=EDGE_CURVE('',#55,#56,#33,.T.);
#66=EDGE_CURVE('',#57,#55,#34,.T.);
#67=EDGE_CURVE('',#58,#56,#35,.T.);
#68=EDGE_CURVE('',#57,#58,#36,.T.);
#69=EDGE_CURVE('',#52,#57,#37,.T.);
#70=EDGE_CURVE('',#53,#58,#38,.T.);
#71=ORIENTED_EDGE('',*,*,#59,.T.);
#72=ORIENTED_EDGE('',*,*,#60,.T.);
#73=ORIENTED_EDGE('',*,*,#61,.F.);
#74=ORIENTED_EDGE('',*,*,#62,.F.);
#75=ORIENTED_EDGE('',*,*,#63,.T.);
#76=ORIENTED_EDGE('',*,*,#62,.T.);
#77=ORIENTED_EDGE('',*,*,#64,.F.);
#78=ORIENTED_EDGE('',*,*,#65,.F.);
#79=ORIENTED_EDGE('',*,*,#66,.T.);
#80=ORIENTED_EDGE('',*,*,#65,.T.);
#81=ORIENTED_EDGE('',*,*,#67,.F.);
#82=ORIENTED_EDGE('',*,*,#68,.F.);
#83=ORIENTED_EDGE('',*,*,#69,.T.);
#84=ORIENTED_EDGE('',*,*,#68,.T.);
#85=ORIENTED_EDGE('',*,*,#70,.F.);
#86=ORIENTED_EDGE('',*,*,#60,.F.);
#87=ORIENTED_EDGE('',*,*,#70,.T.);
#88=ORIENTED_EDGE('',*,*,#67,.T.);
#89=ORIENTED_EDGE('',*,*,#64,.T.);
#90=ORIENTED_EDGE('',*,*,#61,.T.);
#91=ORIENTED_EDGE('',*,*,#69,.F.);
#92=ORIENTED_EDGE('',*,*,#59,.F.);
#93=ORIENTED_EDGE('',*,*,#63,.F.);
#94=ORIENTED_EDGE('',*,*,#66,.F.);
#95=PLANE('',#127);
#96=PLANE('',#128);
#97=PLANE('',#129);
#98=PLANE('',#130);
#99=PLANE('',#131);
#100=PLANE('',#132);
#101=ADVANCED_FACE('',(#15),#95,.T.);
#102=ADVANCED_FACE('',(#16),#96,.T.);
#103=ADVANCED_FACE('',(#17),#97,.T.);
#104=ADVANCED_FACE('',(#18),#98,.T.);
#105=ADVANCED_FACE('',(#19),#99,.T.);
#106=ADVANCED_FACE('',(#20),#100,.F.);
#107=CLOSED_SHELL('',(#101,#102,#103,#104,#105,#106));
#108=DERIVED_UNIT_ELEMENT(#110,1.);
#109=DERIVED_UNIT_ELEMENT(#193,-3.);
#110=(
MASS_UNIT()
NAMED_UNIT(*)
SI_UNIT($,.GRAM.)
);
#111=DERIVED_UNIT((#108,#109));
#112=MEASURE_REPRESENTATION_ITEM('density measure',
POSITIVE_RATIO_MEASURE(2.7),#111);
#113=PROPERTY_DEFINITION_REPRESENTATION(#118,#115);
#114=PROPERTY_DEFINITION_REPRESENTATION(#119,#116);
#115=REPRESENTATION('material name',(#117),#188);
#116=REPRESENTATION('density',(#112),#188);
#117=DESCRIPTIVE_REPRESENTATION_ITEM('Aluminum 6061','Aluminum 6061');
#118=PROPERTY_DEFINITION('material property','material name',#201);
#119=PROPERTY_DEFINITION('material property','density of part',#201);
#120=DATE_TIME_ROLE('creation_date');
#121=APPLIED_DATE_AND_TIME_ASSIGNMENT(#122,#120,(#201));
#122=DATE_AND_TIME(#123,#124);
#123=CALENDAR_DATE(2022,28,4);
#124=LOCAL_TIME(0,0,0.,#125);
#125=COORDINATED_UNIVERSAL_TIME_OFFSET(0,0,.BEHIND.);
#126=AXIS2_PLACEMENT_3D('placement',#159,#133,#134);
#127=AXIS2_PLACEMENT_3D('',#160,#135,#136);
#128=AXIS2_PLACEMENT_3D('',#169,#141,#142);
#129=AXIS2_PLACEMENT_3D('',#175,#146,#147);
#130=AXIS2_PLACEMENT_3D('',#181,#151,#152);
#131=AXIS2_PLACEMENT_3D('',#184,#155,#156);
#132=AXIS2_PLACEMENT_3D('',#185,#157,#158);
#133=DIRECTION('axis',(0.,0.,1.));
#134=DIRECTION('refdir',(1.,0.,0.));
#135=DIRECTION('center_axis',(1.,0.,0.));
#136=DIRECTION('ref_axis',(0.,1.,0.));
#137=DIRECTION('',(0.,1.,0.));
#138=DIRECTION('',(0.,0.,1.));
#139=DIRECTION('',(0.,1.,0.));
#140=DIRECTION('',(0.,0.,1.));
#141=DIRECTION('center_axis',(0.,-1.,0.));
#142=DIRECTION('ref_axis',(1.,0.,0.));
#143=DIRECTION('',(1.,0.,0.));
#144=DIRECTION('',(1.,0.,0.));
#145=DIRECTION('',(0.,0.,1.));
#146=DIRECTION('center_axis',(-1.,0.,0.));
#147=DIRECTION('ref_axis',(0.,-1.,0.));
#148=DIRECTION('',(0.,-1.,0.));
#149=DIRECTION('',(0.,-1.,0.));
#150=DIRECTION('',(0.,0.,1.));
#151=DIRECTION('center_axis',(0.,1.,0.));
#152=DIRECTION('ref_axis',(-1.,0.,0.));
#153=DIRECTION('',(-1.,0.,0.));
#154=DIRECTION('',(-1.,0.,0.));
#155=DIRECTION('center_axis',(0.,0.,1.));
#156=DIRECTION('ref_axis',(1.,0.,0.));
#157=DIRECTION('center_axis',(0.,0.,1.));
#158=DIRECTION('ref_axis',(1.,0.,0.));
#159=CARTESIAN_POINT('',(0.,0.,0.));
#160=CARTESIAN_POINT('Origin',(3.,-1.,0.));
#161=CARTESIAN_POINT('',(3.,-1.,0.));
#162=CARTESIAN_POINT('',(3.,1.,0.));
#163=CARTESIAN_POINT('',(3.,-1.,0.));
#164=CARTESIAN_POINT('',(3.,1.,1.125));
#165=CARTESIAN_POINT('',(3.,1.,0.));
#166=CARTESIAN_POINT('',(3.,-1.,1.125));
#167=CARTESIAN_POINT('',(3.,-1.,1.125));
#168=CARTESIAN_POINT('',(3.,-1.,0.));
#169=CARTESIAN_POINT('Origin',(-3.,-1.,0.));
#170=CARTESIAN_POINT('',(-3.,-1.,0.));
#171=CARTESIAN_POINT('',(-3.,-1.,0.));
#172=CARTESIAN_POINT('',(-3.,-1.,1.125));
#173=CARTESIAN_POINT('',(-3.,-1.,1.125));
#174=CARTESIAN_POINT('',(-3.,-1.,0.));
#175=CARTESIAN_POINT('Origin',(-3.,1.,0.));
#176=CARTESIAN_POINT('',(-3.,1.,0.));
#177=CARTESIAN_POINT('',(-3.,1.,0.));
#178=CARTESIAN_POINT('',(-3.,1.,1.125));
#179=CARTESIAN_POINT('',(-3.,1.,1.125));
#180=CARTESIAN_POINT('',(-3.,1.,0.));
#181=CARTESIAN_POINT('Origin',(3.,1.,0.));
#182=CARTESIAN_POINT('',(3.,1.,0.));
#183=CARTESIAN_POINT('',(3.,1.,1.125));
#184=CARTESIAN_POINT('Origin',(0.,0.,1.125));
#185=CARTESIAN_POINT('Origin',(0.,0.,0.));
#186=UNCERTAINTY_MEASURE_WITH_UNIT(LENGTH_MEASURE(0.000393700787401575),
#191,'DISTANCE_ACCURACY_VALUE',
'Maximum model space distance between geometric entities at asserted c
onnectivities');
#187=UNCERTAINTY_MEASURE_WITH_UNIT(LENGTH_MEASURE(0.000393700787401575),
#191,'DISTANCE_ACCURACY_VALUE',
'Maximum model space distance between geometric entities at asserted c
onnectivities');
#188=(
GEOMETRIC_REPRESENTATION_CONTEXT(3)
GLOBAL_UNCERTAINTY_ASSIGNED_CONTEXT((#186))
GLOBAL_UNIT_ASSIGNED_CONTEXT((#191,#195,#196))
REPRESENTATION_CONTEXT('','3D')
);
#189=(
GEOMETRIC_REPRESENTATION_CONTEXT(3)
GLOBAL_UNCERTAINTY_ASSIGNED_CONTEXT((#187))
GLOBAL_UNIT_ASSIGNED_CONTEXT((#191,#195,#196))
REPRESENTATION_CONTEXT('','3D')
);
#190=DIMENSIONAL_EXPONENTS(1.,0.,0.,0.,0.,0.,0.);
#191=(
CONVERSION_BASED_UNIT('inch',#194)
LENGTH_UNIT()
NAMED_UNIT(#190)
);
#192=(
LENGTH_UNIT()
NAMED_UNIT(*)
SI_UNIT(.MILLI.,.METRE.)
);
#193=(
LENGTH_UNIT()
NAMED_UNIT(*)
SI_UNIT(.CENTI.,.METRE.)
);
#194=LENGTH_MEASURE_WITH_UNIT(LENGTH_MEASURE(25.4),#192);
#195=(
NAMED_UNIT(*)
PLANE_ANGLE_UNIT()
SI_UNIT($,.RADIAN.)
);
#196=(
NAMED_UNIT(*)
SI_UNIT($,.STERADIAN.)
SOLID_ANGLE_UNIT()
);
#197=SHAPE_DEFINITION_REPRESENTATION(#198,#199);
#198=PRODUCT_DEFINITION_SHAPE('',$,#201);
#199=SHAPE_REPRESENTATION('',(#126),#188);
#200=PRODUCT_DEFINITION_CONTEXT('part definition',#205,'design');
#201=PRODUCT_DEFINITION('Stock Model','Stock Model',#202,#200);
#202=PRODUCT_DEFINITION_FORMATION('',$,#207);
#203=PRODUCT_RELATED_PRODUCT_CATEGORY('Stock Model','Stock Model',(#207));
#204=APPLICATION_PROTOCOL_DEFINITION('international standard',
'automotive_design',2009,#205);
#205=APPLICATION_CONTEXT(
'Core Data for Automotive Mechanical Design Process');
#206=PRODUCT_CONTEXT('part definition',#205,'mechanical');
#207=PRODUCT('Stock Model','Stock Model',$,(#206));
#208=PRESENTATION_STYLE_ASSIGNMENT((#209));
#209=SURFACE_STYLE_USAGE(.BOTH.,#212);
#210=SURFACE_STYLE_RENDERING_WITH_PROPERTIES($,#216,(#211));
#211=SURFACE_STYLE_TRANSPARENT(0.);
#212=SURFACE_SIDE_STYLE('',(#213,#210));
#213=SURFACE_STYLE_FILL_AREA(#214);
#214=FILL_AREA_STYLE('',(#215));
#215=FILL_AREA_STYLE_COLOUR('',#216);
#216=COLOUR_RGB('',0.956862745098039,0.956862745098039,0.956862745098039);
ENDSEC;
END-ISO-10303-21;
