  0
SECTION
  2
HEADER
  9
$ACADVER
  1
AC1009
  0
ENDSEC
  0
SECTION
  2
TABLES
  0
TABLE
  2
LAYER
  70
1
  0
LAYER
  2
Layer_0
  70
0
  62
7
  6
CONTINUOUS
  0
ENDTAB
  0
ENDSEC
  0
SECTION
  2
ENTITIES
  0
POLYLINE
  5
90
  8
Layer_0
  62
7
  66
1
  10
0
  20
0
  30
0
  0
VERTEX
  5
90
  8
Layer_0
  10
324.89417
  20
241.09592
  0
VERTEX
  5
91
  8
Layer_0
  10
325.23947
  20
241.45685
  0
VERTEX
  5
92
  8
Layer_0
  10
325.56982
  20
241.77441
  0
VERTEX
  5
93
  8
Layer_0
  10
325.88358
  20
242.0517
  0
VERTEX
  5
94
  8
Layer_0
  10
326.17502
  20
242.28827
  0
VERTEX
  5
95
  8
Layer_0
  10
326.44336
  20
242.4881
  0
VERTEX
  5
96
  8
Layer_0
  10
326.68607
  20
242.65356
  0
VERTEX
  5
97
  8
Layer_0
  10
326.90027
  20
242.78683
  0
VERTEX
  5
98
  8
Layer_0
  10
327.08414
  20
242.89084
  0
VERTEX
  5
99
  8
Layer_0
  10
327.23584
  20
242.96848
  0
VERTEX
  5
9a
  8
Layer_0
  10
327.48389
  20
243.08371
  0
VERTEX
  5
9b
  8
Layer_0
  10
327.57892
  20
243.1358
  0
VERTEX
  5
9c
  8
Layer_0
  10
327.66196
  20
243.18863
  0
VERTEX
  5
9d
  8
Layer_0
  10
327.733
  20
243.24167
  0
VERTEX
  5
9e
  8
Layer_0
  10
327.79208
  20
243.29449
  0
VERTEX
  5
9f
  8
Layer_0
  10
327.83923
  20
243.34659
  0
VERTEX
  5
a0
  8
Layer_0
  10
327.87457
  20
243.39746
  0
VERTEX
  5
a1
  8
Layer_0
  10
327.89813
  20
243.44672
  0
VERTEX
  5
a2
  8
Layer_0
  10
327.90997
  20
243.4938
  0
VERTEX
  5
a3
  8
Layer_0
  10
327.91028
  20
243.53833
  0
VERTEX
  5
a4
  8
Layer_0
  10
327.87833
  20
243.65506
  0
VERTEX
  5
a5
  8
Layer_0
  10
327.7049
  20
244.29257
  0
VERTEX
  5
a6
  8
Layer_0
  10
327.54974
  20
244.93478
  0
VERTEX
  5
a7
  8
Layer_0
  10
327.52151
  20
245.05244
  0
VERTEX
  5
a8
  8
Layer_0
  10
327.49982
  20
245.09132
  0
VERTEX
  5
a9
  8
Layer_0
  10
327.46674
  20
245.12688
  0
VERTEX
  5
aa
  8
Layer_0
  10
327.42236
  20
245.15869
  0
VERTEX
  5
ab
  8
Layer_0
  10
327.36688
  20
245.18626
  0
VERTEX
  5
ac
  8
Layer_0
  10
327.30048
  20
245.2092
  0
VERTEX
  5
ad
  8
Layer_0
  10
327.22327
  20
245.22701
  0
VERTEX
  5
ae
  8
Layer_0
  10
327.13544
  20
245.23927
  0
VERTEX
  5
af
  8
Layer_0
  10
327.03723
  20
245.24554
  0
VERTEX
  5
b0
  8
Layer_0
  10
326.92886
  20
245.24541
  0
VERTEX
  5
b1
  8
Layer_0
  10
326.65598
  20
245.2269
  0
VERTEX
  5
b2
  8
Layer_0
  10
326.48566
  20
245.22186
  0
VERTEX
  5
b3
  8
Layer_0
  10
326.27441
  20
245.22443
  0
VERTEX
  5
b4
  8
Layer_0
  10
326.02249
  20
245.23801
  0
VERTEX
  5
b5
  8
Layer_0
  10
325.7301
  20
245.26607
  0
VERTEX
  5
b6
  8
Layer_0
  10
325.39868
  20
245.3119
  0
VERTEX
  5
b7
  8
Layer_0
  10
325.0293
  20
245.37883
  0
VERTEX
  5
b8
  8
Layer_0
  10
324.62079
  20
245.47066
  0
VERTEX
  5
b9
  8
Layer_0
  10
324.17831
  20
245.5898
  0
VERTEX
  5
ba
  8
Layer_0
  10
323.70184
  20
245.73972
  0
VERTEX
  5
bb
  8
Layer_0
  10
323.24649
  20
245.90337
  0
SEQEND
  0
POLYLINE
  5
bd
  8
Layer_0
  62
7
  66
1
  10
0
  20
0
  30
0
  0
VERTEX
  5
bd
  8
Layer_0
  10
323.06613
  20
247.33105
  42
0.013327578
  0
VERTEX
  5
be
  8
Layer_0
  10
323.24649
  20
245.90337
  0
SEQEND
  0
POLYLINE
  5
c0
  8
Layer_0
  62
7
  66
1
  10
0
  20
0
  30
0
  0
VERTEX
  5
c0
  8
Layer_0
  10
323.06613
  20
247.33105
  0
VERTEX
  5
c1
  8
Layer_0
  10
323.46646
  20
247.60278
  0
VERTEX
  5
c2
  8
Layer_0
  10
323.89069
  20
247.8665
  0
VERTEX
  5
c3
  8
Layer_0
  10
324.28964
  20
248.09193
  0
VERTEX
  5
c4
  8
Layer_0
  10
324.66248
  20
248.28247
  0
VERTEX
  5
c5
  8
Layer_0
  10
325.00363
  20
248.43915
  0
VERTEX
  5
c6
  8
Layer_0
  10
325.31323
  20
248.56596
  0
VERTEX
  5
c7
  8
Layer_0
  10
325.58945
  20
248.66586
  0
VERTEX
  5
c8
  8
Layer_0
  10
325.83008
  20
248.74167
  0
VERTEX
  5
c9
  8
Layer_0
  10
326.03406
  20
248.79669
  0
VERTEX
  5
ca
  8
Layer_0
  10
326.20026
  20
248.83417
  0
VERTEX
  5
cb
  8
Layer_0
  10
326.46918
  20
248.88409
  0
VERTEX
  5
cc
  8
Layer_0
  10
326.57419
  20
248.91092
  0
VERTEX
  5
cd
  8
Layer_0
  10
326.66776
  20
248.94142
  0
VERTEX
  5
ce
  8
Layer_0
  10
326.74976
  20
248.97514
  0
VERTEX
  5
cf
  8
Layer_0
  10
326.8201
  20
249.0116
  0
VERTEX
  5
d0
  8
Layer_0
  10
326.87875
  20
249.05032
  0
VERTEX
  5
d1
  8
Layer_0
  10
326.92563
  20
249.09084
  0
VERTEX
  5
d2
  8
Layer_0
  10
326.96069
  20
249.13268
  0
VERTEX
  5
d3
  8
Layer_0
  10
326.98389
  20
249.17534
  0
VERTEX
  5
d4
  8
Layer_0
  10
326.99521
  20
249.21838
  0
VERTEX
  5
d5
  8
Layer_0
  10
326.99332
  20
249.33939
  0
VERTEX
  5
d6
  8
Layer_0
  10
326.98389
  20
250
  0
VERTEX
  5
d7
  8
Layer_0
  10
326.99332
  20
250.66061
  0
VERTEX
  5
d8
  8
Layer_0
  10
326.99521
  20
250.78162
  0
VERTEX
  5
d9
  8
Layer_0
  10
326.98389
  20
250.82466
  0
VERTEX
  5
da
  8
Layer_0
  10
326.96069
  20
250.86732
  0
VERTEX
  5
db
  8
Layer_0
  10
326.92563
  20
250.90916
  0
VERTEX
  5
dc
  8
Layer_0
  10
326.87875
  20
250.94968
  0
VERTEX
  5
dd
  8
Layer_0
  10
326.8201
  20
250.9884
  0
VERTEX
  5
de
  8
Layer_0
  10
326.74976
  20
251.02486
  0
VERTEX
  5
df
  8
Layer_0
  10
326.66776
  20
251.05858
  0
VERTEX
  5
e0
  8
Layer_0
  10
326.57419
  20
251.08908
  0
VERTEX
  5
e1
  8
Layer_0
  10
326.46918
  20
251.11591
  0
VERTEX
  5
e2
  8
Layer_0
  10
326.20026
  20
251.16583
  0
VERTEX
  5
e3
  8
Layer_0
  10
326.03406
  20
251.20331
  0
VERTEX
  5
e4
  8
Layer_0
  10
325.83008
  20
251.25833
  0
VERTEX
  5
e5
  8
Layer_0
  10
325.58945
  20
251.33414
  0
VERTEX
  5
e6
  8
Layer_0
  10
325.31323
  20
251.43404
  0
VERTEX
  5
e7
  8
Layer_0
  10
325.00363
  20
251.56085
  0
VERTEX
  5
e8
  8
Layer_0
  10
324.66248
  20
251.71753
  0
VERTEX
  5
e9
  8
Layer_0
  10
324.28964
  20
251.90807
  0
VERTEX
  5
ea
  8
Layer_0
  10
323.89069
  20
252.1335
  0
VERTEX
  5
eb
  8
Layer_0
  10
323.46646
  20
252.39722
  0
VERTEX
  5
ec
  8
Layer_0
  10
323.06613
  20
252.66895
  0
SEQEND
  0
POLYLINE
  5
ee
  8
Layer_0
  62
7
  66
1
  10
0
  20
0
  30
0
  0
VERTEX
  5
ee
  8
Layer_0
  10
323.24649
  20
254.09663
  42
0.013327578
  0
VERTEX
  5
ef
  8
Layer_0
  10
323.06613
  20
252.66895
  0
SEQEND
  0
POLYLINE
  5
f1
  8
Layer_0
  62
7
  66
1
  10
0
  20
0
  30
0
  0
VERTEX
  5
f1
  8
Layer_0
  10
323.24649
  20
254.09663
  0
VERTEX
  5
f2
  8
Layer_0
  10
323.70184
  20
254.26028
  0
VERTEX
  5
f3
  8
Layer_0
  10
324.17831
  20
254.4102
  0
VERTEX
  5
f4
  8
Layer_0
  10
324.62079
  20
254.52934
  0
VERTEX
  5
f5
  8
Layer_0
  10
325.0293
  20
254.62117
  0
VERTEX
  5
f6
  8
Layer_0
  10
325.39868
  20
254.6881
  0
VERTEX
  5
f7
  8
Layer_0
  10
325.7301
  20
254.73393
  0
VERTEX
  5
f8
  8
Layer_0
  10
326.02249
  20
254.76199
  0
VERTEX
  5
f9
  8
Layer_0
  10
326.27441
  20
254.77557
  0
VERTEX
  5
fa
  8
Layer_0
  10
326.48566
  20
254.77814
  0
VERTEX
  5
fb
  8
Layer_0
  10
326.65598
  20
254.7731
  0
VERTEX
  5
fc
  8
Layer_0
  10
326.92886
  20
254.75459
  0
VERTEX
  5
fd
  8
Layer_0
  10
327.03723
  20
254.75446
  0
VERTEX
  5
fe
  8
Layer_0
  10
327.13544
  20
254.76073
  0
VERTEX
  5
ff
  8
Layer_0
  10
327.22327
  20
254.77299
  0
VERTEX
  5
100
  8
Layer_0
  10
327.30048
  20
254.7908
  0
VERTEX
  5
101
  8
Layer_0
  10
327.36688
  20
254.81374
  0
VERTEX
  5
102
  8
Layer_0
  10
327.42236
  20
254.84131
  0
VERTEX
  5
103
  8
Layer_0
  10
327.46674
  20
254.87312
  0
VERTEX
  5
104
  8
Layer_0
  10
327.49982
  20
254.90868
  0
VERTEX
  5
105
  8
Layer_0
  10
327.52151
  20
254.94756
  0
VERTEX
  5
106
  8
Layer_0
  10
327.54974
  20
255.06522
  0
VERTEX
  5
107
  8
Layer_0
  10
327.7049
  20
255.70743
  0
VERTEX
  5
108
  8
Layer_0
  10
327.87833
  20
256.34496
  0
VERTEX
  5
109
  8
Layer_0
  10
327.91028
  20
256.46167
  0
VERTEX
  5
10a
  8
Layer_0
  10
327.90997
  20
256.50618
  0
VERTEX
  5
10b
  8
Layer_0
  10
327.89813
  20
256.55328
  0
VERTEX
  5
10c
  8
Layer_0
  10
327.87457
  20
256.60252
  0
VERTEX
  5
10d
  8
Layer_0
  10
327.83923
  20
256.65343
  0
VERTEX
  5
10e
  8
Layer_0
  10
327.79208
  20
256.70552
  0
VERTEX
  5
10f
  8
Layer_0
  10
327.733
  20
256.75832
  0
VERTEX
  5
110
  8
Layer_0
  10
327.66196
  20
256.81137
  0
VERTEX
  5
111
  8
Layer_0
  10
327.57892
  20
256.86418
  0
VERTEX
  5
112
  8
Layer_0
  10
327.48389
  20
256.91628
  0
VERTEX
  5
113
  8
Layer_0
  10
327.23584
  20
257.03151
  0
VERTEX
  5
114
  8
Layer_0
  10
327.08414
  20
257.10916
  0
VERTEX
  5
115
  8
Layer_0
  10
326.90027
  20
257.21317
  0
VERTEX
  5
116
  8
Layer_0
  10
326.68607
  20
257.34644
  0
VERTEX
  5
117
  8
Layer_0
  10
326.44336
  20
257.51189
  0
VERTEX
  5
118
  8
Layer_0
  10
326.17502
  20
257.71172
  0
VERTEX
  5
119
  8
Layer_0
  10
325.88358
  20
257.94832
  0
VERTEX
  5
11a
  8
Layer_0
  10
325.56982
  20
258.22559
  0
VERTEX
  5
11b
  8
Layer_0
  10
325.23947
  20
258.54315
  0
VERTEX
  5
11c
  8
Layer_0
  10
324.89417
  20
258.90407
  0
VERTEX
  5
11d
  8
Layer_0
  10
324.57397
  20
259.26683
  0
SEQEND
  0
POLYLINE
  5
11f
  8
Layer_0
  62
7
  66
1
  10
0
  20
0
  30
0
  0
VERTEX
  5
11f
  8
Layer_0
  10
325.10373
  20
260.60481
  42
0.013329489
  0
VERTEX
  5
120
  8
Layer_0
  10
324.57397
  20
259.26683
  0
SEQEND
  0
POLYLINE
  5
122
  8
Layer_0
  62
7
  66
1
  10
0
  20
0
  30
0
  0
VERTEX
  5
122
  8
Layer_0
  10
325.10373
  20
260.60481
  0
VERTEX
  5
123
  8
Layer_0
  10
325.58545
  20
260.65009
  0
VERTEX
  5
124
  8
Layer_0
  10
326.08423
  20
260.6768
  0
VERTEX
  5
125
  8
Layer_0
  10
326.54242
  20
260.68216
  0
VERTEX
  5
126
  8
Layer_0
  10
326.96097
  20
260.66951
  0
VERTEX
  5
127
  8
Layer_0
  10
327.33539
  20
260.64246
  0
VERTEX
  5
128
  8
Layer_0
  10
327.66779
  20
260.60445
  0
VERTEX
  5
129
  8
Layer_0
  10
327.95795
  20
260.55891
  0
VERTEX
  5
12a
  8
Layer_0
  10
328.20535
  20
260.50941
  0
VERTEX
  5
12b
  8
Layer_0
  10
328.41058
  20
260.45937
  0
VERTEX
  5
12c
  8
Layer_0
  10
328.57431
  20
260.41212
  0
VERTEX
  5
12d
  8
Layer_0
  10
328.83401
  20
260.32634
  0
VERTEX
  5
12e
  8
Layer_0
  10
328.93896
  20
260.29926
  0
VERTEX
  5
12f
  8
Layer_0
  10
329.03564
  20
260.28091
  0
VERTEX
  5
130
  8
Layer_0
  10
329.12375
  20
260.27095
  0
VERTEX
  5
131
  8
Layer_0
  10
329.20297
  20
260.269
  0
VERTEX
  5
132
  8
Layer_0
  10
329.27301
  20
260.27469
  0
VERTEX
  5
133
  8
Layer_0
  10
329.33362
  20
260.2876
  0
VERTEX
  5
134
  8
Layer_0
  10
329.38446
  20
260.30737
  0
VERTEX
  5
135
  8
Layer_0
  10
329.42535
  20
260.33359
  0
VERTEX
  5
136
  8
Layer_0
  10
329.45602
  20
260.36584
  0
VERTEX
  5
137
  8
Layer_0
  10
329.51266
  20
260.47279
  0
VERTEX
  5
138
  8
Layer_0
  10
329.82263
  20
261.05624
  0
VERTEX
  5
139
  8
Layer_0
  10
330.14917
  20
261.63062
  0
VERTEX
  5
13a
  8
Layer_0
  10
330.20914
  20
261.73572
  0
VERTEX
  5
13b
  8
Layer_0
  10
330.21994
  20
261.7789
  0
VERTEX
  5
13c
  8
Layer_0
  10
330.22015
  20
261.82747
  0
VERTEX
  5
13d
  8
Layer_0
  10
330.20959
  20
261.88103
  0
VERTEX
  5
13e
  8
Layer_0
  10
330.18802
  20
261.9391
  0
VERTEX
  5
13f
  8
Layer_0
  10
330.1553
  20
262.0013
  0
VERTEX
  5
140
  8
Layer_0
  10
330.11121
  20
262.06714
  0
VERTEX
  5
141
  8
Layer_0
  10
330.05557
  20
262.13618
  0
VERTEX
  5
142
  8
Layer_0
  10
329.98831
  20
262.20798
  0
VERTEX
  5
143
  8
Layer_0
  10
329.90921
  20
262.28207
  0
VERTEX
  5
144
  8
Layer_0
  10
329.6976
  20
262.45538
  0
VERTEX
  5
145
  8
Layer_0
  10
329.57001
  20
262.5683
  0
VERTEX
  5
146
  8
Layer_0
  10
329.41776
  20
262.71478
  0
VERTEX
  5
147
  8
Layer_0
  10
329.24341
  20
262.89714
  0
VERTEX
  5
148
  8
Layer_0
  10
329.04947
  20
263.11774
  0
VERTEX
  5
149
  8
Layer_0
  10
328.83926
  20
263.37802
  0
VERTEX
  5
14a
  8
Layer_0
  10
328.61581
  20
263.67967
  0
VERTEX
  5
14b
  8
Layer_0
  10
328.38086
  20
264.02626
  0
VERTEX
  5
14c
  8
Layer_0
  10
328.13989
  20
264.416
  0
VERTEX
  5
14d
  8
Layer_0
  10
327.89517
  20
264.85147
  0
VERTEX
  5
14e
  8
Layer_0
  10
327.67529
  20
265.28246
  0
SEQEND
  0
POLYLINE
  5
150
  8
Layer_0
  62
7
  66
1
  10
0
  20
0
  30
0
  0
VERTEX
  5
150
  8
Layer_0
  10
328.52112
  20
266.44666
  42
0.013327442
  0
VERTEX
  5
151
  8
Layer_0
  10
327.67529
  20
265.28246
  0
SEQEND
  0
POLYLINE
  5
153
  8
Layer_0
  62
7
  66
1
  10
0
  20
0
  30
0
  0
VERTEX
  5
153
  8
Layer_0
  10
328.52112
  20
266.44666
  0
VERTEX
  5
154
  8
Layer_0
  10
328.99896
  20
266.3707
  0
VERTEX
  5
155
  8
Layer_0
  10
329.48874
  20
266.27254
  0
VERTEX
  5
156
  8
Layer_0
  10
329.93387
  20
266.16377
  0
VERTEX
  5
157
  8
Layer_0
  10
330.33609
  20
266.04744
  0
VERTEX
  5
158
  8
Layer_0
  10
330.69202
  20
265.92813
  0
VERTEX
  5
159
  8
Layer_0
  10
331.00452
  20
265.80864
  0
VERTEX
  5
15a
  8
Layer_0
  10
331.27426
  20
265.69237
  0
VERTEX
  5
15b
  8
Layer_0
  10
331.50159
  20
265.58292
  0
VERTEX
  5
15c
  8
Layer_0
  10
331.68793
  20
265.4834
  0
VERTEX
  5
15d
  8
Layer_0
  10
331.83475
  20
265.39693
  0
VERTEX
  5
15e
  8
Layer_0
  10
332.06497
  20
265.24924
  0
VERTEX
  5
15f
  8
Layer_0
  10
332.15988
  20
265.1969
  0
VERTEX
  5
160
  8
Layer_0
  10
332.24896
  20
265.15509
  0
VERTEX
  5
161
  8
Layer_0
  10
332.33182
  20
265.12354
  0
VERTEX
  5
162
  8
Layer_0
  10
332.40805
  20
265.10194
  0
VERTEX
  5
163
  8
Layer_0
  10
332.47733
  20
265.09004
  0
VERTEX
  5
164
  8
Layer_0
  10
332.53922
  20
265.08748
  0
VERTEX
  5
165
  8
Layer_0
  10
332.59341
  20
265.09398
  0
VERTEX
  5
166
  8
Layer_0
  10
332.63953
  20
265.10921
  0
VERTEX
  5
167
  8
Layer_0
  10
332.67728
  20
265.13281
  0
VERTEX
  5
168
  8
Layer_0
  10
332.7587
  20
265.22234
  0
VERTEX
  5
169
  8
Layer_0
  10
333.20404
  20
265.71036
  0
VERTEX
  5
16a
  8
Layer_0
  10
333.66315
  20
266.18547
  0
VERTEX
  5
16b
  8
Layer_0
  10
333.74738
  20
266.27237
  0
VERTEX
  5
16c
  8
Layer_0
  10
333.76855
  20
266.31151
  0
VERTEX
  5
16d
  8
Layer_0
  10
333.78088
  20
266.35849
  0
VERTEX
  5
16e
  8
Layer_0
  10
333.78397
  20
266.41299
  0
VERTEX
  5
16f
  8
Layer_0
  10
333.77753
  20
266.47461
  0
VERTEX
  5
170
  8
Layer_0
  10
333.76129
  20
266.54298
  0
VERTEX
  5
171
  8
Layer_0
  10
333.73495
  20
266.61772
  0
VERTEX
  5
172
  8
Layer_0
  10
333.69824
  20
266.69844
  0
VERTEX
  5
173
  8
Layer_0
  10
333.65094
  20
266.78471
  0
VERTEX
  5
174
  8
Layer_0
  10
333.59274
  20
266.87614
  0
VERTEX
  5
175
  8
Layer_0
  10
333.43088
  20
267.09663
  0
VERTEX
  5
176
  8
Layer_0
  10
333.33536
  20
267.23775
  0
VERTEX
  5
177
  8
Layer_0
  10
333.22433
  20
267.41748
  0
VERTEX
  5
178
  8
Layer_0
  10
333.10083
  20
267.63747
  0
VERTEX
  5
179
  8
Layer_0
  10
332.96786
  20
267.89937
  0
VERTEX
  5
17a
  8
Layer_0
  10
332.82898
  20
268.20375
  0
VERTEX
  5
17b
  8
Layer_0
  10
332.68756
  20
268.55148
  0
VERTEX
  5
17c
  8
Layer_0
  10
332.5462
  20
268.94562
  0
VERTEX
  5
17d
  8
Layer_0
  10
332.4097
  20
269.38304
  0
VERTEX
  5
17e
  8
Layer_0
  10
332.28098
  20
269.86568
  0
VERTEX
  5
17f
  8
Layer_0
  10
332.17517
  20
270.33781
  0
SEQEND
  0
POLYLINE
  5
181
  8
Layer_0
  62
7
  66
1
  10
0
  20
0
  30
0
  0
VERTEX
  5
181
  8
Layer_0
  10
333.28397
  20
271.2551
  42
0.013327363
  0
VERTEX
  5
182
  8
Layer_0
  10
332.17517
  20
270.33781
  0
SEQEND
  0
POLYLINE
  5
184
  8
Layer_0
  62
7
  66
1
  10
0
  20
0
  30
0
  0
VERTEX
  5
184
  8
Layer_0
  10
333.28397
  20
271.2551
  0
VERTEX
  5
185
  8
Layer_0
  10
333.72791
  20
271.06268
  0
VERTEX
  5
186
  8
Layer_0
  10
334.17786
  20
270.84581
  0
VERTEX
  5
187
  8
Layer_0
  10
334.58197
  20
270.62976
  0
VERTEX
  5
188
  8
Layer_0
  10
334.94263
  20
270.41705
  0
VERTEX
  5
189
  8
Layer_0
  10
335.25772
  20
270.21297
  0
VERTEX
  5
18a
  8
Layer_0
  10
335.53067
  20
270.01952
  0
VERTEX
  5
18b
  8
Layer_0
  10
335.76303
  20
269.83983
  0
VERTEX
  5
18c
  8
Layer_0
  10
335.95596
  20
269.67728
  0
VERTEX
  5
18d
  8
Layer_0
  10
336.11172
  20
269.53453
  0
VERTEX
  5
18e
  8
Layer_0
  10
336.23242
  20
269.41426
  0
VERTEX
  5
18f
  8
Layer_0
  10
336.41867
  20
269.21397
  0
VERTEX
  5
190
  8
Layer_0
  10
336.49759
  20
269.13968
  0
VERTEX
  5
191
  8
Layer_0
  10
336.57349
  20
269.07704
  0
VERTEX
  5
192
  8
Layer_0
  10
336.64587
  20
269.02586
  0
VERTEX
  5
193
  8
Layer_0
  10
336.71436
  20
268.98599
  0
VERTEX
  5
194
  8
Layer_0
  10
336.77847
  20
268.95723
  0
VERTEX
  5
195
  8
Layer_0
  10
336.8378
  20
268.93935
  0
VERTEX
  5
196
  8
Layer_0
  10
336.89191
  20
268.93217
  0
VERTEX
  5
197
  8
Layer_0
  10
336.94037
  20
268.93546
  0
VERTEX
  5
198
  8
Layer_0
  10
336.98279
  20
268.94894
  0
VERTEX
  5
199
  8
Layer_0
  10
337.08392
  20
269.01538
  0
VERTEX
  5
19a
  8
Layer_0
  10
337.63666
  20
269.37732
  0
VERTEX
  5
19b
  8
Layer_0
  10
338.19949
  20
269.72334
  0
VERTEX
  5
19c
  8
Layer_0
  10
338.30267
  20
269.78656
  0
VERTEX
  5
19d
  8
Layer_0
  10
338.33295
  20
269.8192
  0
VERTEX
  5
19e
  8
Layer_0
  10
338.35654
  20
269.86165
  0
VERTEX
  5
19f
  8
Layer_0
  10
338.37308
  20
269.91367
  0
VERTEX
  5
1a0
  8
Layer_0
  10
338.38217
  20
269.97496
  0
VERTEX
  5
1a1
  8
Layer_0
  10
338.38345
  20
270.04521
  0
VERTEX
  5
1a2
  8
Layer_0
  10
338.37653
  20
270.12416
  0
VERTEX
  5
1a3
  8
Layer_0
  10
338.36105
  20
270.21147
  0
VERTEX
  5
1a4
  8
Layer_0
  10
338.33667
  20
270.30679
  0
VERTEX
  5
1a5
  8
Layer_0
  10
338.30304
  20
270.40984
  0
VERTEX
  5
1a6
  8
Layer_0
  10
338.20111
  20
270.66364
  0
VERTEX
  5
1a7
  8
Layer_0
  10
338.14371
  20
270.82407
  0
VERTEX
  5
1a8
  8
Layer_0
  10
338.08087
  20
271.02577
  0
VERTEX
  5
1a9
  8
Layer_0
  10
338.01593
  20
271.26956
  0
VERTEX
  5
1aa
  8
Layer_0
  10
337.95227
  20
271.5563
  0
VERTEX
  5
1ab
  8
Layer_0
  10
337.89346
  20
271.88567
  0
VERTEX
  5
1ac
  8
Layer_0
  10
337.84296
  20
272.25764
  0
VERTEX
  5
1ad
  8
Layer_0
  10
337.80405
  20
272.67455
  0
VERTEX
  5
1ae
  8
Layer_0
  10
337.78061
  20
273.13217
  0
VERTEX
  5
1af
  8
Layer_0
  10
337.77597
  20
273.63167
  0
VERTEX
  5
1b0
  8
Layer_0
  10
337.79089
  20
274.11528
  0
SEQEND
  0
POLYLINE
  5
1b2
  8
Layer_0
  62
7
  66
1
  10
0
  20
0
  30
0
  0
VERTEX
  5
1b2
  8
Layer_0
  10
339.09296
  20
274.728
  42
0.013328457
  0
VERTEX
  5
1b3
  8
Layer_0
  10
337.79089
  20
274.11528
  0
SEQEND
  0
POLYLINE
  5
1b5
  8
Layer_0
  62
7
  66
1
  10
0
  20
0
  30
0
  0
VERTEX
  5
1b5
  8
Layer_0
  10
339.09296
  20
274.728
  0
VERTEX
  5
1b6
  8
Layer_0
  10
339.47513
  20
274.43123
  0
VERTEX
  5
1b7
  8
Layer_0
  10
339.85703
  20
274.10925
  0
VERTEX
  5
1b8
  8
Layer_0
  10
340.1947
  20
273.7995
  0
VERTEX
  5
1b9
  8
Layer_0
  10
340.49112
  20
273.50378
  0
VERTEX
  5
1ba
  8
Layer_0
  10
340.74554
  20
273.22775
  0
VERTEX
  5
1bb
  8
Layer_0
  10
340.96182
  20
272.9725
  0
VERTEX
  5
1bc
  8
Layer_0
  10
341.14218
  20
272.74066
  0
VERTEX
  5
1bd
  8
Layer_0
  10
341.28867
  20
272.53525
  0
VERTEX
  5
1be
  8
Layer_0
  10
341.40402
  20
272.35826
  0
VERTEX
  5
1bf
  8
Layer_0
  10
341.49103
  20
272.21175
  0
VERTEX
  5
1c0
  8
Layer_0
  10
341.62161
  20
271.97142
  0
VERTEX
  5
1c1
  8
Layer_0
  10
341.67957
  20
271.87984
  0
VERTEX
  5
1c2
  8
Layer_0
  10
341.73749
  20
271.80029
  0
VERTEX
  5
1c3
  8
Layer_0
  10
341.79489
  20
271.73273
  0
VERTEX
  5
1c4
  8
Layer_0
  10
341.85129
  20
271.67706
  0
VERTEX
  5
1c5
  8
Layer_0
  10
341.90625
  20
271.63327
  0
VERTEX
  5
1c6
  8
Layer_0
  10
341.95926
  20
271.6012
  0
VERTEX
  5
1c7
  8
Layer_0
  10
342.00989
  20
271.5808
  0
VERTEX
  5
1c8
  8
Layer_0
  10
342.05765
  20
271.57191
  0
VERTEX
  5
1c9
  8
Layer_0
  10
342.10208
  20
271.57443
  0
VERTEX
  5
1ca
  8
Layer_0
  10
342.21658
  20
271.61363
  0
VERTEX
  5
1cb
  8
Layer_0
  10
342.84195
  20
271.82675
  0
VERTEX
  5
1cc
  8
Layer_0
  10
343.47314
  20
272.02193
  0
VERTEX
  5
1cd
  8
Layer_0
  10
343.58881
  20
272.0575
  0
VERTEX
  5
1ce
  8
Layer_0
  10
343.62625
  20
272.08157
  0
VERTEX
  5
1cf
  8
Layer_0
  10
343.65964
  20
272.11684
  0
VERTEX
  5
1d0
  8
Layer_0
  10
343.6886
  20
272.1631
  0
VERTEX
  5
1d1
  8
Layer_0
  10
343.71265
  20
272.2202
  0
VERTEX
  5
1d2
  8
Layer_0
  10
343.73135
  20
272.28793
  0
VERTEX
  5
1d3
  8
Layer_0
  10
343.74429
  20
272.36612
  0
VERTEX
  5
1d4
  8
Layer_0
  10
343.75101
  20
272.45453
  0
VERTEX
  5
1d5
  8
Layer_0
  10
343.75113
  20
272.55293
  0
VERTEX
  5
1d6
  8
Layer_0
  10
343.74417
  20
272.66109
  0
VERTEX
  5
1d7
  8
Layer_0
  10
343.70856
  20
272.93227
  0
VERTEX
  5
1d8
  8
Layer_0
  10
343.69284
  20
273.10194
  0
VERTEX
  5
1d9
  8
Layer_0
  10
343.68213
  20
273.31293
  0
VERTEX
  5
1da
  8
Layer_0
  10
343.67987
  20
273.56522
  0
VERTEX
  5
1db
  8
Layer_0
  10
343.68951
  20
273.85878
  0
VERTEX
  5
1dc
  8
Layer_0
  10
343.71448
  20
274.19241
  0
VERTEX
  5
1dd
  8
Layer_0
  10
343.75806
  20
274.56528
  0
VERTEX
  5
1de
  8
Layer_0
  10
343.82407
  20
274.97876
  0
VERTEX
  5
1df
  8
Layer_0
  10
343.91516
  20
275.42783
  0
VERTEX
  5
1e0
  8
Layer_0
  10
344.03488
  20
275.91278
  0
VERTEX
  5
1e1
  8
Layer_0
  10
344.16962
  20
276.37749
  0
SEQEND
  0
POLYLINE
  5
1e3
  8
Layer_0
  62
7
  66
1
  10
0
  20
0
  30
0
  0
VERTEX
  5
1e3
  8
Layer_0
  10
345.58316
  20
276.64714
  42
0.013326829
  0
VERTEX
  5
1e4
  8
Layer_0
  10
344.16962
  20
276.37749
  0
SEQEND
  0
POLYLINE
  5
1e6
  8
Layer_0
  62
7
  66
1
  10
0
  20
0
  30
0
  0
VERTEX
  5
1e6
  8
Layer_0
  10
345.58316
  20
276.64714
  0
VERTEX
  5
1e7
  8
Layer_0
  10
345.87949
  20
276.26466
  0
VERTEX
  5
1e8
  8
Layer_0
  10
346.16931
  20
275.85783
  0
VERTEX
  5
1e9
  8
Layer_0
  10
346.41937
  20
275.47385
  0
VERTEX
  5
1ea
  8
Layer_0
  10
346.63293
  20
275.11369
  0
VERTEX
  5
1eb
  8
Layer_0
  10
346.81073
  20
274.78307
  0
VERTEX
  5
1ec
  8
Layer_0
  10
346.95673
  20
274.48203
  0
VERTEX
  5
1ed
  8
Layer_0
  10
347.07376
  20
274.21263
  0
VERTEX
  5
1ee
  8
Layer_0
  10
347.16455
  20
273.97723
  0
VERTEX
  5
1ef
  8
Layer_0
  10
347.23227
  20
273.77713
  0
VERTEX
  5
1f0
  8
Layer_0
  10
347.28012
  20
273.61357
  0
VERTEX
  5
1f1
  8
Layer_0
  10
347.34683
  20
273.34833
  0
VERTEX
  5
1f2
  8
Layer_0
  10
347.38019
  20
273.24521
  0
VERTEX
  5
1f3
  8
Layer_0
  10
347.4165
  20
273.15376
  0
VERTEX
  5
1f4
  8
Layer_0
  10
347.45529
  20
273.07404
  0
VERTEX
  5
1f5
  8
Layer_0
  10
347.49609
  20
273.0061
  0
VERTEX
  5
1f6
  8
Layer_0
  10
347.53842
  20
272.95001
  0
VERTEX
  5
1f7
  8
Layer_0
  10
347.58182
  20
272.90576
  0
VERTEX
  5
1f8
  8
Layer_0
  10
347.62576
  20
272.87341
  0
VERTEX
  5
1f9
  8
Layer_0
  10
347.6698
  20
272.85294
  0
VERTEX
  5
1fa
  8
Layer_0
  10
347.71347
  20
272.84431
  0
VERTEX
  5
1fb
  8
Layer_0
  10
347.83411
  20
272.85382
  0
VERTEX
  5
1fc
  8
Layer_0
  10
348.49283
  20
272.90471
  0
VERTEX
  5
1fd
  8
Layer_0
  10
349.15274
  20
272.93678
  0
VERTEX
  5
1fe
  8
Layer_0
  10
349.27362
  20
272.94247
  0
VERTEX
  5
1ff
  8
Layer_0
  10
349.31586
  20
272.9565
  0
VERTEX
  5
200
  8
Layer_0
  10
349.35699
  20
272.98233
  0
VERTEX
  5
201
  8
Layer_0
  10
349.39655
  20
273.01993
  0
VERTEX
  5
202
  8
Layer_0
  10
349.43405
  20
273.06927
  0
VERTEX
  5
203
  8
Layer_0
  10
349.46902
  20
273.13022
  0
VERTEX
  5
204
  8
Layer_0
  10
349.50098
  20
273.20273
  0
VERTEX
  5
205
  8
Layer_0
  10
349.52948
  20
273.2867
  0
VERTEX
  5
206
  8
Layer_0
  10
349.55405
  20
273.38197
  0
VERTEX
  5
207
  8
Layer_0
  10
349.57422
  20
273.48846
  0
VERTEX
  5
208
  8
Layer_0
  10
349.60718
  20
273.75998
  0
VERTEX
  5
209
  8
Layer_0
  10
349.63412
  20
273.92824
  0
VERTEX
  5
20a
  8
Layer_0
  10
349.67624
  20
274.13525
  0
VERTEX
  5
20b
  8
Layer_0
  10
349.73679
  20
274.38017
  0
VERTEX
  5
20c
  8
Layer_0
  10
349.81915
  20
274.66212
  0
VERTEX
  5
20d
  8
Layer_0
  10
349.92627
  20
274.97906
  0
VERTEX
  5
20e
  8
Layer_0
  10
350.06122
  20
275.32938
  0
VERTEX
  5
20f
  8
Layer_0
  10
350.22797
  20
275.71346
  0
VERTEX
  5
210
  8
Layer_0
  10
350.42792
  20
276.12576
  0
VERTEX
  5
211
  8
Layer_0
  10
350.66446
  20
276.5657
  0
VERTEX
  5
212
  8
Layer_0
  10
350.91052
  20
276.9823
  0
SEQEND
  0
POLYLINE
  5
214
  8
Layer_0
  62
7
  66
1
  10
0
  20
0
  30
0
  0
VERTEX
  5
214
  8
Layer_0
  10
352.34671
  20
276.89195
  42
0.013326729
  0
VERTEX
  5
215
  8
Layer_0
  10
350.91052
  20
276.9823
  0
SEQEND
  0
POLYLINE
  5
217
  8
Layer_0
  62
7
  66
1
  10
0
  20
0
  30
0
  0
VERTEX
  5
217
  8
Layer_0
  10
352.34671
  20
276.89195
  0
VERTEX
  5
218
  8
Layer_0
  10
352.53864
  20
276.44778
  0
VERTEX
  5
219
  8
Layer_0
  10
352.71817
  20
275.98167
  0
VERTEX
  5
21a
  8
Layer_0
  10
352.86487
  20
275.54756
  0
VERTEX
  5
21b
  8
Layer_0
  10
352.98215
  20
275.1456
  0
VERTEX
  5
21c
  8
Layer_0
  10
353.07214
  20
274.78116
  0
VERTEX
  5
21d
  8
Layer_0
  10
353.1387
  20
274.45328
  0
VERTEX
  5
21e
  8
Layer_0
  10
353.18506
  20
274.16322
  0
VERTEX
  5
21f
  8
Layer_0
  10
353.21445
  20
273.91266
  0
VERTEX
  5
220
  8
Layer_0
  10
353.23026
  20
273.70198
  0
VERTEX
  5
221
  8
Layer_0
  10
353.23593
  20
273.53168
  0
VERTEX
  5
222
  8
Layer_0
  10
353.23459
  20
273.25818
  0
VERTEX
  5
223
  8
Layer_0
  10
353.24127
  20
273.14999
  0
VERTEX
  5
224
  8
Layer_0
  10
353.25369
  20
273.0524
  0
VERTEX
  5
225
  8
Layer_0
  10
353.27145
  20
272.96552
  0
VERTEX
  5
226
  8
Layer_0
  10
353.29407
  20
272.88957
  0
VERTEX
  5
227
  8
Layer_0
  10
353.32114
  20
272.82471
  0
VERTEX
  5
228
  8
Layer_0
  10
353.35214
  20
272.77107
  0
VERTEX
  5
229
  8
Layer_0
  10
353.38666
  20
272.72881
  0
VERTEX
  5
22a
  8
Layer_0
  10
353.42422
  20
272.69801
  0
VERTEX
  5
22b
  8
Layer_0
  10
353.46439
  20
272.67882
  0
VERTEX
  5
22c
  8
Layer_0
  10
353.58359
  20
272.65802
  0
VERTEX
  5
22d
  8
Layer_0
  10
354.23428
  20
272.54349
  0
VERTEX
  5
22e
  8
Layer_0
  10
354.88144
  20
272.41045
  0
VERTEX
  5
22f
  8
Layer_0
  10
354.99994
  20
272.38589
  0
VERTEX
  5
230
  8
Layer_0
  10
355.04434
  20
272.38896
  0
VERTEX
  5
231
  8
Layer_0
  10
355.09061
  20
272.40376
  0
VERTEX
  5
232
  8
Layer_0
  10
355.13828
  20
272.43034
  0
VERTEX
  5
233
  8
Layer_0
  10
355.18683
  20
272.46881
  0
VERTEX
  5
234
  8
Layer_0
  10
355.23587
  20
272.51915
  0
VERTEX
  5
235
  8
Layer_0
  10
355.28485
  20
272.58144
  0
VERTEX
  5
236
  8
Layer_0
  10
355.33334
  20
272.65567
  0
VERTEX
  5
237
  8
Layer_0
  10
355.38083
  20
272.74185
  0
VERTEX
  5
238
  8
Layer_0
  10
355.42685
  20
272.83998
  0
VERTEX
  5
239
  8
Layer_0
  10
355.52631
  20
273.09477
  0
VERTEX
  5
23a
  8
Layer_0
  10
355.59427
  20
273.25104
  0
VERTEX
  5
23b
  8
Layer_0
  10
355.68652
  20
273.44107
  0
VERTEX
  5
23c
  8
Layer_0
  10
355.80609
  20
273.66324
  0
VERTEX
  5
23d
  8
Layer_0
  10
355.95596
  20
273.91585
  0
VERTEX
  5
23e
  8
Layer_0
  10
356.13855
  20
274.1962
  0
VERTEX
  5
23f
  8
Layer_0
  10
356.35638
  20
274.50194
  0
VERTEX
  5
240
  8
Layer_0
  10
356.6134
  20
274.83249
  0
VERTEX
  5
241
  8
Layer_0
  10
356.90961
  20
275.18211
  0
VERTEX
  5
242
  8
Layer_0
  10
357.24814
  20
275.54941
  0
VERTEX
  5
243
  8
Layer_0
  10
357.59006
  20
275.89172
  0
SEQEND
  0
POLYLINE
  5
245
  8
Layer_0
  62
7
  66
1
  10
0
  20
0
  30
0
  0
VERTEX
  5
245
  8
Layer_0
  10
358.95868
  20
275.44704
  42
0.013325721
  0
VERTEX
  5
246
  8
Layer_0
  10
357.59006
  20
275.89172
  0
SEQEND
  0
POLYLINE
  5
248
  8
Layer_0
  62
7
  66
1
  10
0
  20
0
  30
0
  0
VERTEX
  5
248
  8
Layer_0
  10
358.95868
  20
275.44704
  0
VERTEX
  5
249
  8
Layer_0
  10
359.03409
  20
274.96912
  0
VERTEX
  5
24a
  8
Layer_0
  10
359.09207
  20
274.47298
  0
VERTEX
  5
24b
  8
Layer_0
  10
359.12619
  20
274.01602
  0
VERTEX
  5
24c
  8
Layer_0
  10
359.13986
  20
273.59753
  0
VERTEX
  5
24d
  8
Layer_0
  10
359.13638
  20
273.22215
  0
VERTEX
  5
24e
  8
Layer_0
  10
359.11929
  20
272.88802
  0
VERTEX
  5
24f
  8
Layer_0
  10
359.09207
  20
272.59555
  0
VERTEX
  5
250
  8
Layer_0
  10
359.05823
  20
272.34555
  0
VERTEX
  5
251
  8
Layer_0
  10
359.02115
  20
272.13757
  0
VERTEX
  5
252
  8
Layer_0
  10
358.98428
  20
271.97119
  0
VERTEX
  5
253
  8
Layer_0
  10
358.91498
  20
271.70662
  0
VERTEX
  5
254
  8
Layer_0
  10
358.89453
  20
271.60019
  0
VERTEX
  5
255
  8
Layer_0
  10
358.88229
  20
271.50255
  0
VERTEX
  5
256
  8
Layer_0
  10
358.87787
  20
271.41399
  0
VERTEX
  5
257
  8
Layer_0
  10
358.88092
  20
271.33481
  0
VERTEX
  5
258
  8
Layer_0
  10
358.89099
  20
271.26526
  0
VERTEX
  5
259
  8
Layer_0
  10
358.90768
  20
271.2056
  0
VERTEX
  5
25a
  8
Layer_0
  10
358.9306
  20
271.15607
  0
VERTEX
  5
25b
  8
Layer_0
  10
358.95935
  20
271.1169
  0
VERTEX
  5
25c
  8
Layer_0
  10
358.99347
  20
271.08832
  0
VERTEX
  5
25d
  8
Layer_0
  10
359.10376
  20
271.03853
  0
VERTEX
  5
25e
  8
Layer_0
  10
359.70551
  20
270.76578
  0
VERTEX
  5
25f
  8
Layer_0
  10
360.29926
  20
270.47597
  0
VERTEX
  5
260
  8
Layer_0
  10
360.40793
  20
270.42273
  0
VERTEX
  5
261
  8
Layer_0
  10
360.45169
  20
270.41466
  0
VERTEX
  5
262
  8
Layer_0
  10
360.50018
  20
270.41748
  0
VERTEX
  5
263
  8
Layer_0
  10
360.55295
  20
270.43138
  0
VERTEX
  5
264
  8
Layer_0
  10
360.60959
  20
270.45654
  0
VERTEX
  5
265
  8
Layer_0
  10
360.66959
  20
270.49312
  0
VERTEX
  5
266
  8
Layer_0
  10
360.73251
  20
270.54126
  0
VERTEX
  5
267
  8
Layer_0
  10
360.79794
  20
270.6011
  0
VERTEX
  5
268
  8
Layer_0
  10
360.86539
  20
270.67278
  0
VERTEX
  5
269
  8
Layer_0
  10
360.93436
  20
270.75636
  0
VERTEX
  5
26a
  8
Layer_0
  10
361.09402
  20
270.97842
  0
VERTEX
  5
26b
  8
Layer_0
  10
361.19873
  20
271.11288
  0
VERTEX
  5
26c
  8
Layer_0
  10
361.33536
  20
271.274
  0
VERTEX
  5
26d
  8
Layer_0
  10
361.50641
  20
271.45946
  0
VERTEX
  5
26e
  8
Layer_0
  10
361.71439
  20
271.66685
  0
VERTEX
  5
26f
  8
Layer_0
  10
361.96097
  20
271.89299
  0
VERTEX
  5
270
  8
Layer_0
  10
362.24799
  20
272.13496
  0
VERTEX
  5
271
  8
Layer_0
  10
362.57913
  20
272.39119
  0
VERTEX
  5
272
  8
Layer_0
  10
362.95297
  20
272.65619
  0
VERTEX
  5
273
  8
Layer_0
  10
363.37222
  20
272.92775
  0
VERTEX
  5
274
  8
Layer_0
  10
363.78854
  20
273.17427
  0
SEQEND
  0
POLYLINE
  5
276
  8
Layer_0
  62
7
  66
1
  10
0
  20
0
  30
0
  0
VERTEX
  5
276
  8
Layer_0
  10
365.00357
  20
272.4032
  42
0.013327572
  0
VERTEX
  5
277
  8
Layer_0
  10
363.78854
  20
273.17427
  0
SEQEND
  0
POLYLINE
  5
279
  8
Layer_0
  62
7
  66
1
  10
0
  20
0
  30
0
  0
VERTEX
  5
279
  8
Layer_0
  10
365.00357
  20
272.4032
  0
VERTEX
  5
27a
  8
Layer_0
  10
364.95776
  20
271.92152
  0
VERTEX
  5
27b
  8
Layer_0
  10
364.89053
  20
271.42657
  0
VERTEX
  5
27c
  8
Layer_0
  10
364.80994
  20
270.97548
  0
VERTEX
  5
27d
  8
Layer_0
  10
364.71909
  20
270.56674
  0
VERTEX
  5
27e
  8
Layer_0
  10
364.62238
  20
270.20403
  0
VERTEX
  5
27f
  8
Layer_0
  10
364.52274
  20
269.88463
  0
VERTEX
  5
280
  8
Layer_0
  10
364.42365
  20
269.60812
  0
VERTEX
  5
281
  8
Layer_0
  10
364.32867
  20
269.37439
  0
VERTEX
  5
282
  8
Layer_0
  10
364.24106
  20
269.18216
  0
VERTEX
  5
283
  8
Layer_0
  10
364.16397
  20
269.03018
  0
VERTEX
  5
284
  8
Layer_0
  10
364.03104
  20
268.79117
  0
VERTEX
  5
285
  8
Layer_0
  10
363.98477
  20
268.69316
  0
VERTEX
  5
286
  8
Layer_0
  10
363.94864
  20
268.60164
  0
VERTEX
  5
287
  8
Layer_0
  10
363.92233
  20
268.51695
  0
VERTEX
  5
288
  8
Layer_0
  10
363.90558
  20
268.4395
  0
VERTEX
  5
289
  8
Layer_0
  10
363.89804
  20
268.36963
  0
VERTEX
  5
28a
  8
Layer_0
  10
363.89935
  20
268.30769
  0
VERTEX
  5
28b
  8
Layer_0
  10
363.90927
  20
268.25401
  0
VERTEX
  5
28c
  8
Layer_0
  10
363.92734
  20
268.20894
  0
VERTEX
  5
28d
  8
Layer_0
  10
363.95328
  20
268.17276
  0
VERTEX
  5
28e
  8
Layer_0
  10
364.04773
  20
268.09711
  0
VERTEX
  5
28f
  8
Layer_0
  10
364.56277
  20
267.68327
  0
VERTEX
  5
290
  8
Layer_0
  10
365.06577
  20
267.25491
  0
VERTEX
  5
291
  8
Layer_0
  10
365.15778
  20
267.17632
  0
VERTEX
  5
292
  8
Layer_0
  10
365.19818
  20
267.15762
  0
VERTEX
  5
293
  8
Layer_0
  10
365.24585
  20
267.1483
  0
VERTEX
  5
294
  8
Layer_0
  10
365.30042
  20
267.14864
  0
VERTEX
  5
295
  8
Layer_0
  10
365.36151
  20
267.15894
  0
VERTEX
  5
296
  8
Layer_0
  10
365.42874
  20
267.17943
  0
VERTEX
  5
297
  8
Layer_0
  10
365.50168
  20
267.2104
  0
VERTEX
  5
298
  8
Layer_0
  10
365.57993
  20
267.25211
  0
VERTEX
  5
299
  8
Layer_0
  10
365.66306
  20
267.30475
  0
VERTEX
  5
29a
  8
Layer_0
  10
365.75067
  20
267.36856
  0
VERTEX
  5
29b
  8
Layer_0
  10
365.96054
  20
267.54393
  0
VERTEX
  5
29c
  8
Layer_0
  10
366.09537
  20
267.64813
  0
VERTEX
  5
29d
  8
Layer_0
  10
366.26779
  20
267.77022
  0
VERTEX
  5
29e
  8
Layer_0
  10
366.47958
  20
267.9073
  0
VERTEX
  5
29f
  8
Layer_0
  10
366.7326
  20
268.05646
  0
VERTEX
  5
2a0
  8
Layer_0
  10
367.02768
  20
268.21417
  0
VERTEX
  5
2a1
  8
Layer_0
  10
367.36584
  20
268.37715
  0
VERTEX
  5
2a2
  8
Layer_0
  10
367.75034
  20
268.54298
  0
VERTEX
  5
2a3
  8
Layer_0
  10
368.17831
  20
268.70668
  0
VERTEX
  5
2a4
  8
Layer_0
  10
368.65192
  20
268.86545
  0
VERTEX
  5
2a5
  8
Layer_0
  10
369.11649
  20
269.0007
  0
SEQEND
  0
POLYLINE
  5
2a7
  8
Layer_0
  62
7
  66
1
  10
0
  20
0
  30
0
  0
VERTEX
  5
2a7
  8
Layer_0
  10
370.10156
  20
267.95169
  42
0.013326844
  0
VERTEX
  5
2a8
  8
Layer_0
  10
369.11649
  20
269.0007
  0
SEQEND
  0
POLYLINE
  5
2aa
  8
Layer_0
  62
7
  66
1
  10
0
  20
0
  30
0
  0
VERTEX
  5
2aa
  8
Layer_0
  10
370.10156
  20
267.95169
  0
VERTEX
  5
2ab
  8
Layer_0
  10
369.93741
  20
267.49654
  0
VERTEX
  5
2ac
  8
Layer_0
  10
369.74924
  20
267.03384
  0
VERTEX
  5
2ad
  8
Layer_0
  10
369.55899
  20
266.61697
  0
VERTEX
  5
2ae
  8
Layer_0
  10
369.36932
  20
266.24367
  0
VERTEX
  5
2af
  8
Layer_0
  10
369.18546
  20
265.9164
  0
VERTEX
  5
2b0
  8
Layer_0
  10
369.00952
  20
265.63182
  0
VERTEX
  5
2b1
  8
Layer_0
  10
368.84476
  20
265.38864
  0
VERTEX
  5
2b2
  8
Layer_0
  10
368.69464
  20
265.18587
  0
VERTEX
  5
2b3
  8
Layer_0
  10
368.56198
  20
265.02147
  0
VERTEX
  5
2b4
  8
Layer_0
  10
368.44952
  20
264.89345
  0
VERTEX
  5
2b5
  8
Layer_0
  10
368.26132
  20
264.69499
  0
VERTEX
  5
2b6
  8
Layer_0
  10
368.19214
  20
264.61157
  0
VERTEX
  5
2b7
  8
Layer_0
  10
368.13437
  20
264.53191
  0
VERTEX
  5
2b8
  8
Layer_0
  10
368.08783
  20
264.45642
  0
VERTEX
  5
2b9
  8
Layer_0
  10
368.05234
  20
264.38557
  0
VERTEX
  5
2ba
  8
Layer_0
  10
368.02768
  20
264.31978
  0
VERTEX
  5
2bb
  8
Layer_0
  10
368.01355
  20
264.25945
  0
VERTEX
  5
2bc
  8
Layer_0
  10
368.0098
  20
264.20499
  0
VERTEX
  5
2bd
  8
Layer_0
  10
368.01611
  20
264.15683
  0
VERTEX
  5
2be
  8
Layer_0
  10
368.03223
  20
264.11536
  0
VERTEX
  5
2bf
  8
Layer_0
  10
368.10489
  20
264.01859
  0
VERTEX
  5
2c0
  8
Layer_0
  10
368.50082
  20
263.48967
  0
VERTEX
  5
2c1
  8
Layer_0
  10
368.8815
  20
262.94968
  0
VERTEX
  5
2c2
  8
Layer_0
  10
368.95108
  20
262.85066
  0
VERTEX
  5
2c3
  8
Layer_0
  10
368.98553
  20
262.82251
  0
VERTEX
  5
2c4
  8
Layer_0
  10
369.02939
  20
262.80162
  0
VERTEX
  5
2c5
  8
Layer_0
  10
369.08234
  20
262.78838
  0
VERTEX
  5
2c6
  8
Layer_0
  10
369.14407
  20
262.78316
  0
VERTEX
  5
2c7
  8
Layer_0
  10
369.21429
  20
262.78629
  0
VERTEX
  5
2c8
  8
Layer_0
  10
369.29263
  20
262.79816
  0
VERTEX
  5
2c9
  8
Layer_0
  10
369.37881
  20
262.81909
  0
VERTEX
  5
2ca
  8
Layer_0
  10
369.47241
  20
262.8494
  0
VERTEX
  5
2cb
  8
Layer_0
  10
369.57312
  20
262.88942
  0
VERTEX
  5
2cc
  8
Layer_0
  10
369.82004
  20
263.0071
  0
VERTEX
  5
2cd
  8
Layer_0
  10
369.97653
  20
263.07448
  0
VERTEX
  5
2ce
  8
Layer_0
  10
370.17389
  20
263.14986
  0
VERTEX
  5
2cf
  8
Layer_0
  10
370.41315
  20
263.22997
  0
VERTEX
  5
2d0
  8
Layer_0
  10
370.69531
  20
263.31151
  0
VERTEX
  5
2d1
  8
Layer_0
  10
371.02032
  20
263.39088
  0
VERTEX
  5
2d2
  8
Layer_0
  10
371.38843
  20
263.46465
  0
VERTEX
  5
2d3
  8
Layer_0
  10
371.80206
  20
263.52965
  0
VERTEX
  5
2d4
  8
Layer_0
  10
372.25729
  20
263.58177
  0
VERTEX
  5
2d5
  8
Layer_0
  10
372.75552
  20
263.61777
  0
VERTEX
  5
2d6
  8
Layer_0
  10
373.23911
  20
263.63324
  0
SEQEND
  0
POLYLINE
  5
2d8
  8
Layer_0
  62
7
  66
1
  10
0
  20
0
  30
0
  0
VERTEX
  5
2d8
  8
Layer_0
  10
373.93237
  20
262.37221
  42
0.013326804
  0
VERTEX
  5
2d9
  8
Layer_0
  10
373.23911
  20
263.63324
  0
SEQEND
  0
POLYLINE
  5
2db
  8
Layer_0
  62
7
  66
1
  10
0
  20
0
  30
0
  0
VERTEX
  5
2db
  8
Layer_0
  10
373.93237
  20
262.37221
  0
VERTEX
  5
2dc
  8
Layer_0
  10
373.66019
  20
261.97217
  0
VERTEX
  5
2dd
  8
Layer_0
  10
373.36282
  20
261.57082
  0
VERTEX
  5
2de
  8
Layer_0
  10
373.07489
  20
261.21436
  0
VERTEX
  5
2df
  8
Layer_0
  10
372.79837
  20
260.89995
  0
VERTEX
  5
2e0
  8
Layer_0
  10
372.53888
  20
260.62868
  0
VERTEX
  5
2e1
  8
Layer_0
  10
372.2977
  20
260.39679
  0
VERTEX
  5
2e2
  8
Layer_0
  10
372.07764
  20
260.20224
  0
VERTEX
  5
2e3
  8
Layer_0
  10
371.88181
  20
260.04317
  0
VERTEX
  5
2e4
  8
Layer_0
  10
371.71243
  20
259.91693
  0
VERTEX
  5
2e5
  8
Layer_0
  10
371.57166
  20
259.82089
  0
VERTEX
  5
2e6
  8
Layer_0
  10
371.34003
  20
259.67548
  0
VERTEX
  5
2e7
  8
Layer_0
  10
371.25226
  20
259.61188
  0
VERTEX
  5
2e8
  8
Layer_0
  10
371.17651
  20
259.54907
  0
VERTEX
  5
2e9
  8
Layer_0
  10
371.11267
  20
259.48753
  0
VERTEX
  5
2ea
  8
Layer_0
  10
371.06067
  20
259.42775
  0
VERTEX
  5
2eb
  8
Layer_0
  10
371.02039
  20
259.37015
  0
VERTEX
  5
2ec
  8
Layer_0
  10
370.99173
  20
259.31523
  0
VERTEX
  5
2ed
  8
Layer_0
  10
370.97455
  20
259.26343
  0
VERTEX
  5
2ee
  8
Layer_0
  10
370.96869
  20
259.21521
  0
VERTEX
  5
2ef
  8
Layer_0
  10
370.97397
  20
259.17102
  0
VERTEX
  5
2f0
  8
Layer_0
  10
371.02029
  20
259.05922
  0
VERTEX
  5
2f1
  8
Layer_0
  10
371.27225
  20
258.44846
  0
VERTEX
  5
2f2
  8
Layer_0
  10
371.50668
  20
257.83076
  0
VERTEX
  5
2f3
  8
Layer_0
  10
371.54944
  20
257.71756
  0
VERTEX
  5
2f4
  8
Layer_0
  10
371.57584
  20
257.6817
  0
VERTEX
  5
2f5
  8
Layer_0
  10
371.6131
  20
257.65057
  0
VERTEX
  5
2f6
  8
Layer_0
  10
371.6611
  20
257.62457
  0
VERTEX
  5
2f7
  8
Layer_0
  10
371.7196
  20
257.60417
  0
VERTEX
  5
2f8
  8
Layer_0
  10
371.78839
  20
257.58975
  0
VERTEX
  5
2f9
  8
Layer_0
  10
371.86722
  20
257.58176
  0
VERTEX
  5
2fa
  8
Layer_0
  10
371.95587
  20
257.5806
  0
VERTEX
  5
2fb
  8
Layer_0
  10
372.05408
  20
257.58667
  0
VERTEX
  5
2fc
  8
Layer_0
  10
372.16159
  20
257.60039
  0
VERTEX
  5
2fd
  8
Layer_0
  10
372.42999
  20
257.65297
  0
VERTEX
  5
2fe
  8
Layer_0
  10
372.59836
  20
257.67931
  0
VERTEX
  5
2ff
  8
Layer_0
  10
372.80826
  20
257.70323
  0
VERTEX
  5
300
  8
Layer_0
  10
373.05991
  20
257.72133
  0
VERTEX
  5
301
  8
Layer_0
  10
373.35349
  20
257.73015
  0
VERTEX
  5
302
  8
Layer_0
  10
373.68805
  20
257.7262
  0
VERTEX
  5
303
  8
Layer_0
  10
374.0629
  20
257.7061
  0
VERTEX
  5
304
  8
Layer_0
  10
374.47971
  20
257.6662
  0
VERTEX
  5
305
  8
Layer_0
  10
374.93362
  20
257.60345
  0
VERTEX
  5
306
  8
Layer_0
  10
375.42514
  20
257.51443
  0
VERTEX
  5
307
  8
Layer_0
  10
375.89737
  20
257.40915
  0
SEQEND
  0
POLYLINE
  5
309
  8
Layer_0
  62
7
  66
1
  10
0
  20
0
  30
0
  0
VERTEX
  5
309
  8
Layer_0
  10
376.25525
  20
256.01532
  42
0.013325367
  0
VERTEX
  5
30a
  8
Layer_0
  10
375.89737
  20
257.40915
  0
SEQEND
  0
POLYLINE
  5
30c
  8
Layer_0
  62
7
  66
1
  10
0
  20
0
  30
0
  0
VERTEX
  5
30c
  8
Layer_0
  10
376.25525
  20
256.01532
  0
VERTEX
  5
30d
  8
Layer_0
  10
375.89215
  20
255.69556
  0
VERTEX
  5
30e
  8
Layer_0
  10
375.5043
  20
255.38075
  0
VERTEX
  5
30f
  8
Layer_0
  10
375.13678
  20
255.1071
  0
VERTEX
  5
310
  8
Layer_0
  10
374.79074
  20
254.87134
  0
VERTEX
  5
311
  8
Layer_0
  10
374.47192
  20
254.67313
  0
VERTEX
  5
312
  8
Layer_0
  10
374.18066
  20
254.50851
  0
VERTEX
  5
313
  8
Layer_0
  10
373.91916
  20
254.37479
  0
VERTEX
  5
314
  8
Layer_0
  10
373.68991
  20
254.26941
  0
VERTEX
  5
315
  8
Layer_0
  10
373.49445
  20
254.18927
  0
VERTEX
  5
316
  8
Layer_0
  10
373.33423
  20
254.13124
  0
VERTEX
  5
317
  8
Layer_0
  10
373.0737
  20
254.048
  0
VERTEX
  5
318
  8
Layer_0
  10
372.97287
  20
254.00824
  0
VERTEX
  5
319
  8
Layer_0
  10
372.88388
  20
253.96625
  0
VERTEX
  5
31a
  8
Layer_0
  10
372.80676
  20
253.92252
  0
VERTEX
  5
31b
  8
Layer_0
  10
372.74152
  20
253.87753
  0
VERTEX
  5
31c
  8
Layer_0
  10
372.6882
  20
253.83177
  0
VERTEX
  5
31d
  8
Layer_0
  10
372.64676
  20
253.78571
  0
VERTEX
  5
31e
  8
Layer_0
  10
372.61722
  20
253.73979
  0
VERTEX
  5
31f
  8
Layer_0
  10
372.59955
  20
253.69455
  0
VERTEX
  5
320
  8
Layer_0
  10
372.59369
  20
253.65044
  0
VERTEX
  5
321
  8
Layer_0
  10
372.61075
  20
253.53062
  0
VERTEX
  5
322
  8
Layer_0
  10
372.70291
  20
252.8764
  0
VERTEX
  5
323
  8
Layer_0
  10
372.77637
  20
252.2198
  0
VERTEX
  5
324
  8
Layer_0
  10
372.78961
  20
252.09952
  0
VERTEX
  5
325
  8
Layer_0
  10
372.80627
  20
252.05824
  0
VERTEX
  5
326
  8
Layer_0
  10
372.83463
  20
252.01881
  0
VERTEX
  5
327
  8
Layer_0
  10
372.87466
  20
251.9817
  0
VERTEX
  5
328
  8
Layer_0
  10
372.92624
  20
251.94739
  0
VERTEX
  5
329
  8
Layer_0
  10
372.98926
  20
251.91631
  0
VERTEX
  5
32a
  8
Layer_0
  10
373.06366
  20
251.88896
  0
VERTEX
  5
32b
  8
Layer_0
  10
373.14923
  20
251.86578
  0
VERTEX
  5
32c
  8
Layer_0
  10
373.24588
  20
251.84726
  0
VERTEX
  5
32d
  8
Layer_0
  10
373.35342
  20
251.8338
  0
VERTEX
  5
32e
  8
Layer_0
  10
373.62646
  20
251.81798
  0
VERTEX
  5
32f
  8
Layer_0
  10
373.79608
  20
251.80162
  0
VERTEX
  5
330
  8
Layer_0
  10
374.00534
  20
251.7726
  0
VERTEX
  5
331
  8
Layer_0
  10
374.25357
  20
251.72755
  0
VERTEX
  5
332
  8
Layer_0
  10
374.54013
  20
251.66307
  0
VERTEX
  5
333
  8
Layer_0
  10
374.86319
  20
251.57605
  0
VERTEX
  5
334
  8
Layer_0
  10
375.22128
  20
251.46336
  0
VERTEX
  5
335
  8
Layer_0
  10
375.61505
  20
251.32104
  0
VERTEX
  5
336
  8
Layer_0
  10
376.03912
  20
251.1474
  0
VERTEX
  5
337
  8
Layer_0
  10
376.49304
  20
250.93893
  0
VERTEX
  5
338
  8
Layer_0
  10
376.92426
  20
250.71951
  0
SEQEND
  0
POLYLINE
  5
33a
  8
Layer_0
  62
7
  66
1
  10
0
  20
0
  30
0
  0
VERTEX
  5
33a
  8
Layer_0
  10
376.92426
  20
249.28049
  42
0.013327257
  0
VERTEX
  5
33b
  8
Layer_0
  10
376.92426
  20
250.71951
  0
SEQEND
  0
POLYLINE
  5
33d
  8
Layer_0
  62
7
  66
1
  10
0
  20
0
  30
0
  0
VERTEX
  5
33d
  8
Layer_0
  10
376.92426
  20
249.28049
  0
VERTEX
  5
33e
  8
Layer_0
  10
376.49304
  20
249.06107
  0
VERTEX
  5
33f
  8
Layer_0
  10
376.03912
  20
248.8526
  0
VERTEX
  5
340
  8
Layer_0
  10
375.61505
  20
248.67896
  0
VERTEX
  5
341
  8
Layer_0
  10
375.22128
  20
248.53664
  0
VERTEX
  5
342
  8
Layer_0
  10
374.86319
  20
248.42395
  0
VERTEX
  5
343
  8
Layer_0
  10
374.54013
  20
248.33693
  0
VERTEX
  5
344
  8
Layer_0
  10
374.25357
  20
248.27245
  0
VERTEX
  5
345
  8
Layer_0
  10
374.00534
  20
248.2274
  0
VERTEX
  5
346
  8
Layer_0
  10
373.79608
  20
248.19838
  0
VERTEX
  5
347
  8
Layer_0
  10
373.62646
  20
248.18202
  0
VERTEX
  5
348
  8
Layer_0
  10
373.35342
  20
248.1662
  0
VERTEX
  5
349
  8
Layer_0
  10
373.24588
  20
248.15274
  0
VERTEX
  5
34a
  8
Layer_0
  10
373.14923
  20
248.13422
  0
VERTEX
  5
34b
  8
Layer_0
  10
373.06366
  20
248.11104
  0
VERTEX
  5
34c
  8
Layer_0
  10
372.98926
  20
248.08369
  0
VERTEX
  5
34d
  8
Layer_0
  10
372.92624
  20
248.05261
  0
VERTEX
  5
34e
  8
Layer_0
  10
372.87466
  20
248.0183
  0
VERTEX
  5
34f
  8
Layer_0
  10
372.83463
  20
247.98119
  0
VERTEX
  5
350
  8
Layer_0
  10
372.80627
  20
247.94176
  0
VERTEX
  5
351
  8
Layer_0
  10
372.78961
  20
247.90048
  0
VERTEX
  5
352
  8
Layer_0
  10
372.77637
  20
247.7802
  0
VERTEX
  5
353
  8
Layer_0
  10
372.70291
  20
247.1236
  0
VERTEX
  5
354
  8
Layer_0
  10
372.61075
  20
246.46938
  0
VERTEX
  5
355
  8
Layer_0
  10
372.59369
  20
246.34956
  0
VERTEX
  5
356
  8
Layer_0
  10
372.59955
  20
246.30545
  0
VERTEX
  5
357
  8
Layer_0
  10
372.61722
  20
246.26021
  0
VERTEX
  5
358
  8
Layer_0
  10
372.64676
  20
246.21429
  0
VERTEX
  5
359
  8
Layer_0
  10
372.6882
  20
246.16823
  0
VERTEX
  5
35a
  8
Layer_0
  10
372.74152
  20
246.12247
  0
VERTEX
  5
35b
  8
Layer_0
  10
372.80676
  20
246.07748
  0
VERTEX
  5
35c
  8
Layer_0
  10
372.88388
  20
246.03375
  0
VERTEX
  5
35d
  8
Layer_0
  10
372.97287
  20
245.99176
  0
VERTEX
  5
35e
  8
Layer_0
  10
373.0737
  20
245.952
  0
VERTEX
  5
35f
  8
Layer_0
  10
373.33423
  20
245.86876
  0
VERTEX
  5
360
  8
Layer_0
  10
373.49445
  20
245.81073
  0
VERTEX
  5
361
  8
Layer_0
  10
373.68991
  20
245.73059
  0
VERTEX
  5
362
  8
Layer_0
  10
373.91916
  20
245.62521
  0
VERTEX
  5
363
  8
Layer_0
  10
374.18066
  20
245.49149
  0
VERTEX
  5
364
  8
Layer_0
  10
374.47192
  20
245.32687
  0
VERTEX
  5
365
  8
Layer_0
  10
374.79074
  20
245.12866
  0
VERTEX
  5
366
  8
Layer_0
  10
375.13678
  20
244.8929
  0
VERTEX
  5
367
  8
Layer_0
  10
375.5043
  20
244.61925
  0
VERTEX
  5
368
  8
Layer_0
  10
375.89215
  20
244.30444
  0
VERTEX
  5
369
  8
Layer_0
  10
376.25525
  20
243.98468
  0
SEQEND
  0
POLYLINE
  5
36b
  8
Layer_0
  62
7
  66
1
  10
0
  20
0
  30
0
  0
VERTEX
  5
36b
  8
Layer_0
  10
375.89737
  20
242.59085
  42
0.013327292
  0
VERTEX
  5
36c
  8
Layer_0
  10
376.25525
  20
243.98468
  0
SEQEND
  0
POLYLINE
  5
36e
  8
Layer_0
  62
7
  66
1
  10
0
  20
0
  30
0
  0
VERTEX
  5
36e
  8
Layer_0
  10
375.89737
  20
242.59085
  0
VERTEX
  5
36f
  8
Layer_0
  10
375.42514
  20
242.48557
  0
VERTEX
  5
370
  8
Layer_0
  10
374.93362
  20
242.39655
  0
VERTEX
  5
371
  8
Layer_0
  10
374.47971
  20
242.3338
  0
VERTEX
  5
372
  8
Layer_0
  10
374.0629
  20
242.29388
  0
VERTEX
  5
373
  8
Layer_0
  10
373.68805
  20
242.2738
  0
VERTEX
  5
374
  8
Layer_0
  10
373.35349
  20
242.26987
  0
VERTEX
  5
375
  8
Layer_0
  10
373.05991
  20
242.27866
  0
VERTEX
  5
376
  8
Layer_0
  10
372.80826
  20
242.29675
  0
VERTEX
  5
377
  8
Layer_0
  10
372.59836
  20
242.32068
  0
VERTEX
  5
378
  8
Layer_0
  10
372.42999
  20
242.34705
  0
VERTEX
  5
379
  8
Layer_0
  10
372.16159
  20
242.3996
  0
VERTEX
  5
37a
  8
Layer_0
  10
372.05408
  20
242.41333
  0
VERTEX
  5
37b
  8
Layer_0
  10
371.95587
  20
242.4194
  0
VERTEX
  5
37c
  8
Layer_0
  10
371.86722
  20
242.41824
  0
VERTEX
  5
37d
  8
Layer_0
  10
371.78839
  20
242.41025
  0
VERTEX
  5
37e
  8
Layer_0
  10
371.7196
  20
242.39584
  0
VERTEX
  5
37f
  8
Layer_0
  10
371.6611
  20
242.37543
  0
VERTEX
  5
380
  8
Layer_0
  10
371.6131
  20
242.34943
  0
VERTEX
  5
381
  8
Layer_0
  10
371.57584
  20
242.3183
  0
VERTEX
  5
382
  8
Layer_0
  10
371.54944
  20
242.28244
  0
VERTEX
  5
383
  8
Layer_0
  10
371.50668
  20
242.16925
  0
VERTEX
  5
384
  8
Layer_0
  10
371.27225
  20
241.55154
  0
VERTEX
  5
385
  8
Layer_0
  10
371.02029
  20
240.9408
  0
VERTEX
  5
386
  8
Layer_0
  10
370.97397
  20
240.82898
  0
VERTEX
  5
387
  8
Layer_0
  10
370.96869
  20
240.78479
  0
VERTEX
  5
388
  8
Layer_0
  10
370.97455
  20
240.73657
  0
VERTEX
  5
389
  8
Layer_0
  10
370.99173
  20
240.68478
  0
VERTEX
  5
38a
  8
Layer_0
  10
371.02039
  20
240.62985
  0
VERTEX
  5
38b
  8
Layer_0
  10
371.06067
  20
240.57227
  0
VERTEX
  5
38c
  8
Layer_0
  10
371.11267
  20
240.51245
  0
VERTEX
  5
38d
  8
Layer_0
  10
371.17651
  20
240.45093
  0
VERTEX
  5
38e
  8
Layer_0
  10
371.25226
  20
240.38812
  0
VERTEX
  5
38f
  8
Layer_0
  10
371.34003
  20
240.32452
  0
VERTEX
  5
390
  8
Layer_0
  10
371.57166
  20
240.17911
  0
VERTEX
  5
391
  8
Layer_0
  10
371.71243
  20
240.08307
  0
VERTEX
  5
392
  8
Layer_0
  10
371.88181
  20
239.95682
  0
VERTEX
  5
393
  8
Layer_0
  10
372.07764
  20
239.79776
  0
VERTEX
  5
394
  8
Layer_0
  10
372.2977
  20
239.60321
  0
VERTEX
  5
395
  8
Layer_0
  10
372.53888
  20
239.37131
  0
VERTEX
  5
396
  8
Layer_0
  10
372.79837
  20
239.10007
  0
VERTEX
  5
397
  8
Layer_0
  10
373.07489
  20
238.78564
  0
VERTEX
  5
398
  8
Layer_0
  10
373.36282
  20
238.4292
  0
VERTEX
  5
399
  8
Layer_0
  10
373.66019
  20
238.02783
  0
VERTEX
  5
39a
  8
Layer_0
  10
373.93237
  20
237.62781
  0
SEQEND
  0
POLYLINE
  5
39c
  8
Layer_0
  62
7
  66
1
  10
0
  20
0
  30
0
  0
VERTEX
  5
39c
  8
Layer_0
  10
373.23911
  20
236.36676
  42
0.013326804
  0
VERTEX
  5
39d
  8
Layer_0
  10
373.93237
  20
237.62781
  0
SEQEND
  0
POLYLINE
  5
39f
  8
Layer_0
  62
7
  66
1
  10
0
  20
0
  30
0
  0
VERTEX
  5
39f
  8
Layer_0
  10
373.23911
  20
236.36676
  0
VERTEX
  5
3a0
  8
Layer_0
  10
372.75552
  20
236.38223
  0
VERTEX
  5
3a1
  8
Layer_0
  10
372.25729
  20
236.41824
  0
VERTEX
  5
3a2
  8
Layer_0
  10
371.80206
  20
236.47034
  0
VERTEX
  5
3a3
  8
Layer_0
  10
371.38843
  20
236.53534
  0
VERTEX
  5
3a4
  8
Layer_0
  10
371.02032
  20
236.6091
  0
VERTEX
  5
3a5
  8
Layer_0
  10
370.69531
  20
236.68851
  0
VERTEX
  5
3a6
  8
Layer_0
  10
370.41315
  20
236.77005
  0
VERTEX
  5
3a7
  8
Layer_0
  10
370.17389
  20
236.85016
  0
VERTEX
  5
3a8
  8
Layer_0
  10
369.97653
  20
236.92554
  0
VERTEX
  5
3a9
  8
Layer_0
  10
369.82004
  20
236.99292
  0
VERTEX
  5
3aa
  8
Layer_0
  10
369.57312
  20
237.11057
  0
VERTEX
  5
3ab
  8
Layer_0
  10
369.47241
  20
237.1506
  0
VERTEX
  5
3ac
  8
Layer_0
  10
369.37881
  20
237.18091
  0
VERTEX
  5
3ad
  8
Layer_0
  10
369.29263
  20
237.20184
  0
VERTEX
  5
3ae
  8
Layer_0
  10
369.21429
  20
237.21371
  0
VERTEX
  5
3af
  8
Layer_0
  10
369.14407
  20
237.21683
  0
VERTEX
  5
3b0
  8
Layer_0
  10
369.08234
  20
237.21161
  0
VERTEX
  5
3b1
  8
Layer_0
  10
369.02939
  20
237.19836
  0
VERTEX
  5
3b2
  8
Layer_0
  10
368.98553
  20
237.17749
  0
VERTEX
  5
3b3
  8
Layer_0
  10
368.95108
  20
237.14935
  0
VERTEX
  5
3b4
  8
Layer_0
  10
368.8815
  20
237.05032
  0
VERTEX
  5
3b5
  8
Layer_0
  10
368.50082
  20
236.51031
  0
VERTEX
  5
3b6
  8
Layer_0
  10
368.10489
  20
235.98141
  0
VERTEX
  5
3b7
  8
Layer_0
  10
368.03223
  20
235.88464
  0
VERTEX
  5
3b8
  8
Layer_0
  10
368.01611
  20
235.84317
  0
VERTEX
  5
3b9
  8
Layer_0
  10
368.0098
  20
235.79501
  0
VERTEX
  5
3ba
  8
Layer_0
  10
368.01355
  20
235.74057
  0
VERTEX
  5
3bb
  8
Layer_0
  10
368.02768
  20
235.68024
  0
VERTEX
  5
3bc
  8
Layer_0
  10
368.05234
  20
235.61444
  0
VERTEX
  5
3bd
  8
Layer_0
  10
368.08783
  20
235.54358
  0
VERTEX
  5
3be
  8
Layer_0
  10
368.13437
  20
235.46811
  0
VERTEX
  5
3bf
  8
Layer_0
  10
368.19214
  20
235.38843
  0
VERTEX
  5
3c0
  8
Layer_0
  10
368.26132
  20
235.30502
  0
VERTEX
  5
3c1
  8
Layer_0
  10
368.44952
  20
235.10657
  0
VERTEX
  5
3c2
  8
Layer_0
  10
368.56198
  20
234.97852
  0
VERTEX
  5
3c3
  8
Layer_0
  10
368.69464
  20
234.81412
  0
VERTEX
  5
3c4
  8
Layer_0
  10
368.84476
  20
234.61136
  0
VERTEX
  5
3c5
  8
Layer_0
  10
369.00952
  20
234.36819
  0
VERTEX
  5
3c6
  8
Layer_0
  10
369.18546
  20
234.08362
  0
VERTEX
  5
3c7
  8
Layer_0
  10
369.36932
  20
233.75635
  0
VERTEX
  5
3c8
  8
Layer_0
  10
369.55899
  20
233.38303
  0
VERTEX
  5
3c9
  8
Layer_0
  10
369.74924
  20
232.96616
  0
VERTEX
  5
3ca
  8
Layer_0
  10
369.93741
  20
232.50348
  0
VERTEX
  5
3cb
  8
Layer_0
  10
370.10156
  20
232.04831
  0
SEQEND
  0
POLYLINE
  5
3cd
  8
Layer_0
  62
7
  66
1
  10
0
  20
0
  30
0
  0
VERTEX
  5
3cd
  8
Layer_0
  10
369.11649
  20
230.9993
  42
0.013326882
  0
VERTEX
  5
3ce
  8
Layer_0
  10
370.10156
  20
232.04831
  0
SEQEND
  0
POLYLINE
  5
3d0
  8
Layer_0
  62
7
  66
1
  10
0
  20
0
  30
0
  0
VERTEX
  5
3d0
  8
Layer_0
  10
369.11649
  20
230.9993
  0
VERTEX
  5
3d1
  8
Layer_0
  10
368.65192
  20
231.13455
  0
VERTEX
  5
3d2
  8
Layer_0
  10
368.17831
  20
231.29333
  0
VERTEX
  5
3d3
  8
Layer_0
  10
367.75034
  20
231.45703
  0
VERTEX
  5
3d4
  8
Layer_0
  10
367.36584
  20
231.62283
  0
VERTEX
  5
3d5
  8
Layer_0
  10
367.02768
  20
231.78583
  0
VERTEX
  5
3d6
  8
Layer_0
  10
366.7326
  20
231.94354
  0
VERTEX
  5
3d7
  8
Layer_0
  10
366.47958
  20
232.09271
  0
VERTEX
  5
3d8
  8
Layer_0
  10
366.26779
  20
232.2298
  0
VERTEX
  5
3d9
  8
Layer_0
  10
366.09537
  20
232.35187
  0
VERTEX
  5
3da
  8
Layer_0
  10
365.96054
  20
232.45605
  0
VERTEX
  5
3db
  8
Layer_0
  10
365.75067
  20
232.63144
  0
VERTEX
  5
3dc
  8
Layer_0
  10
365.66306
  20
232.69525
  0
VERTEX
  5
3dd
  8
Layer_0
  10
365.57993
  20
232.74789
  0
VERTEX
  5
3de
  8
Layer_0
  10
365.50168
  20
232.78958
  0
VERTEX
  5
3df
  8
Layer_0
  10
365.42874
  20
232.82056
  0
VERTEX
  5
3e0
  8
Layer_0
  10
365.36151
  20
232.84106
  0
VERTEX
  5
3e1
  8
Layer_0
  10
365.30042
  20
232.85138
  0
VERTEX
  5
3e2
  8
Layer_0
  10
365.24585
  20
232.85172
  0
VERTEX
  5
3e3
  8
Layer_0
  10
365.19818
  20
232.84238
  0
VERTEX
  5
3e4
  8
Layer_0
  10
365.15778
  20
232.82367
  0
VERTEX
  5
3e5
  8
Layer_0
  10
365.06577
  20
232.74509
  0
VERTEX
  5
3e6
  8
Layer_0
  10
364.56277
  20
232.31671
  0
VERTEX
  5
3e7
  8
Layer_0
  10
364.04773
  20
231.90289
  0
VERTEX
  5
3e8
  8
Layer_0
  10
363.95328
  20
231.82724
  0
VERTEX
  5
3e9
  8
Layer_0
  10
363.92734
  20
231.79108
  0
VERTEX
  5
3ea
  8
Layer_0
  10
363.90927
  20
231.746
  0
VERTEX
  5
3eb
  8
Layer_0
  10
363.89935
  20
231.69232
  0
VERTEX
  5
3ec
  8
Layer_0
  10
363.89804
  20
231.63037
  0
VERTEX
  5
3ed
  8
Layer_0
  10
363.90558
  20
231.56049
  0
VERTEX
  5
3ee
  8
Layer_0
  10
363.92233
  20
231.48306
  0
VERTEX
  5
3ef
  8
Layer_0
  10
363.94864
  20
231.39838
  0
VERTEX
  5
3f0
  8
Layer_0
  10
363.98477
  20
231.30685
  0
VERTEX
  5
3f1
  8
Layer_0
  10
364.03104
  20
231.20883
  0
VERTEX
  5
3f2
  8
Layer_0
  10
364.16397
  20
230.96982
  0
VERTEX
  5
3f3
  8
Layer_0
  10
364.24106
  20
230.81784
  0
VERTEX
  5
3f4
  8
Layer_0
  10
364.32867
  20
230.62561
  0
VERTEX
  5
3f5
  8
Layer_0
  10
364.42365
  20
230.39188
  0
VERTEX
  5
3f6
  8
Layer_0
  10
364.52274
  20
230.11536
  0
VERTEX
  5
3f7
  8
Layer_0
  10
364.62238
  20
229.79599
  0
VERTEX
  5
3f8
  8
Layer_0
  10
364.71909
  20
229.43326
  0
VERTEX
  5
3f9
  8
Layer_0
  10
364.80994
  20
229.02451
  0
VERTEX
  5
3fa
  8
Layer_0
  10
364.89053
  20
228.57343
  0
VERTEX
  5
3fb
  8
Layer_0
  10
364.95776
  20
228.07846
  0
VERTEX
  5
3fc
  8
Layer_0
  10
365.00357
  20
227.5968
  0
SEQEND
  0
POLYLINE
  5
3fe
  8
Layer_0
  62
7
  66
1
  10
0
  20
0
  30
0
  0
VERTEX
  5
3fe
  8
Layer_0
  10
363.78854
  20
226.82571
  42
0.013326426
  0
VERTEX
  5
3ff
  8
Layer_0
  10
365.00357
  20
227.5968
  0
SEQEND
  0
POLYLINE
  5
401
  8
Layer_0
  62
7
  66
1
  10
0
  20
0
  30
0
  0
VERTEX
  5
401
  8
Layer_0
  10
363.78854
  20
226.82571
  0
VERTEX
  5
402
  8
Layer_0
  10
363.37222
  20
227.07227
  0
VERTEX
  5
403
  8
Layer_0
  10
362.95297
  20
227.34381
  0
VERTEX
  5
404
  8
Layer_0
  10
362.57913
  20
227.6088
  0
VERTEX
  5
405
  8
Layer_0
  10
362.24799
  20
227.86505
  0
VERTEX
  5
406
  8
Layer_0
  10
361.96097
  20
228.10699
  0
VERTEX
  5
407
  8
Layer_0
  10
361.71439
  20
228.33313
  0
VERTEX
  5
408
  8
Layer_0
  10
361.50641
  20
228.54053
  0
VERTEX
  5
409
  8
Layer_0
  10
361.33536
  20
228.72598
  0
VERTEX
  5
40a
  8
Layer_0
  10
361.19873
  20
228.88712
  0
VERTEX
  5
40b
  8
Layer_0
  10
361.09402
  20
229.02158
  0
VERTEX
  5
40c
  8
Layer_0
  10
360.93436
  20
229.24362
  0
VERTEX
  5
40d
  8
Layer_0
  10
360.86539
  20
229.32724
  0
VERTEX
  5
40e
  8
Layer_0
  10
360.79794
  20
229.3989
  0
VERTEX
  5
40f
  8
Layer_0
  10
360.73251
  20
229.45874
  0
VERTEX
  5
410
  8
Layer_0
  10
360.66959
  20
229.50687
  0
VERTEX
  5
411
  8
Layer_0
  10
360.60959
  20
229.54346
  0
VERTEX
  5
412
  8
Layer_0
  10
360.55295
  20
229.5686
  0
VERTEX
  5
413
  8
Layer_0
  10
360.50018
  20
229.58252
  0
VERTEX
  5
414
  8
Layer_0
  10
360.45169
  20
229.58533
  0
VERTEX
  5
415
  8
Layer_0
  10
360.40793
  20
229.57727
  0
VERTEX
  5
416
  8
Layer_0
  10
360.29926
  20
229.52402
  0
VERTEX
  5
417
  8
Layer_0
  10
359.70551
  20
229.23422
  0
VERTEX
  5
418
  8
Layer_0
  10
359.10376
  20
228.96149
  0
VERTEX
  5
419
  8
Layer_0
  10
358.99347
  20
228.91168
  0
VERTEX
  5
41a
  8
Layer_0
  10
358.95935
  20
228.88309
  0
VERTEX
  5
41b
  8
Layer_0
  10
358.9306
  20
228.84393
  0
VERTEX
  5
41c
  8
Layer_0
  10
358.90768
  20
228.7944
  0
VERTEX
  5
41d
  8
Layer_0
  10
358.89099
  20
228.73474
  0
VERTEX
  5
41e
  8
Layer_0
  10
358.88092
  20
228.66519
  0
VERTEX
  5
41f
  8
Layer_0
  10
358.87787
  20
228.586
  0
VERTEX
  5
420
  8
Layer_0
  10
358.88229
  20
228.49744
  0
VERTEX
  5
421
  8
Layer_0
  10
358.89453
  20
228.39981
  0
VERTEX
  5
422
  8
Layer_0
  10
358.91498
  20
228.29337
  0
VERTEX
  5
423
  8
Layer_0
  10
358.98428
  20
228.02881
  0
VERTEX
  5
424
  8
Layer_0
  10
359.02115
  20
227.86243
  0
VERTEX
  5
425
  8
Layer_0
  10
359.05823
  20
227.65445
  0
VERTEX
  5
426
  8
Layer_0
  10
359.09207
  20
227.40445
  0
VERTEX
  5
427
  8
Layer_0
  10
359.11929
  20
227.11197
  0
VERTEX
  5
428
  8
Layer_0
  10
359.13638
  20
226.77786
  0
VERTEX
  5
429
  8
Layer_0
  10
359.13986
  20
226.40247
  0
VERTEX
  5
42a
  8
Layer_0
  10
359.12619
  20
225.98398
  0
VERTEX
  5
42b
  8
Layer_0
  10
359.09207
  20
225.52701
  0
VERTEX
  5
42c
  8
Layer_0
  10
359.03409
  20
225.03088
  0
VERTEX
  5
42d
  8
Layer_0
  10
358.95868
  20
224.55295
  0
SEQEND
  0
POLYLINE
  5
42f
  8
Layer_0
  62
7
  66
1
  10
0
  20
0
  30
0
  0
VERTEX
  5
42f
  8
Layer_0
  10
357.59006
  20
224.10828
  42
0.013324768
  0
VERTEX
  5
430
  8
Layer_0
  10
358.95868
  20
224.55295
  0
SEQEND
  0
POLYLINE
  5
432
  8
Layer_0
  62
7
  66
1
  10
0
  20
0
  30
0
  0
VERTEX
  5
432
  8
Layer_0
  10
357.59006
  20
224.10828
  0
VERTEX
  5
433
  8
Layer_0
  10
357.24814
  20
224.45059
  0
VERTEX
  5
434
  8
Layer_0
  10
356.90961
  20
224.81787
  0
VERTEX
  5
435
  8
Layer_0
  10
356.6134
  20
225.16751
  0
VERTEX
  5
436
  8
Layer_0
  10
356.35638
  20
225.49805
  0
VERTEX
  5
437
  8
Layer_0
  10
356.13855
  20
225.8038
  0
VERTEX
  5
438
  8
Layer_0
  10
355.95596
  20
226.08414
  0
VERTEX
  5
439
  8
Layer_0
  10
355.80609
  20
226.33676
  0
VERTEX
  5
43a
  8
Layer_0
  10
355.68652
  20
226.55893
  0
VERTEX
  5
43b
  8
Layer_0
  10
355.59427
  20
226.74896
  0
VERTEX
  5
43c
  8
Layer_0
  10
355.52631
  20
226.90524
  0
VERTEX
  5
43d
  8
Layer_0
  10
355.42685
  20
227.16003
  0
VERTEX
  5
43e
  8
Layer_0
  10
355.38083
  20
227.25815
  0
VERTEX
  5
43f
  8
Layer_0
  10
355.33334
  20
227.34433
  0
VERTEX
  5
440
  8
Layer_0
  10
355.28485
  20
227.41858
  0
VERTEX
  5
441
  8
Layer_0
  10
355.23587
  20
227.48083
  0
VERTEX
  5
442
  8
Layer_0
  10
355.18683
  20
227.53119
  0
VERTEX
  5
443
  8
Layer_0
  10
355.13828
  20
227.56964
  0
VERTEX
  5
444
  8
Layer_0
  10
355.09061
  20
227.59625
  0
VERTEX
  5
445
  8
Layer_0
  10
355.04434
  20
227.61102
  0
VERTEX
  5
446
  8
Layer_0
  10
354.99994
  20
227.61411
  0
VERTEX
  5
447
  8
Layer_0
  10
354.88144
  20
227.58957
  0
VERTEX
  5
448
  8
Layer_0
  10
354.23428
  20
227.45651
  0
VERTEX
  5
449
  8
Layer_0
  10
353.58359
  20
227.34198
  0
VERTEX
  5
44a
  8
Layer_0
  10
353.46439
  20
227.3212
  0
VERTEX
  5
44b
  8
Layer_0
  10
353.42422
  20
227.30197
  0
VERTEX
  5
44c
  8
Layer_0
  10
353.38666
  20
227.27121
  0
VERTEX
  5
44d
  8
Layer_0
  10
353.35214
  20
227.22894
  0
VERTEX
  5
44e
  8
Layer_0
  10
353.32114
  20
227.17529
  0
VERTEX
  5
44f
  8
Layer_0
  10
353.29407
  20
227.11041
  0
VERTEX
  5
450
  8
Layer_0
  10
353.27145
  20
227.03448
  0
VERTEX
  5
451
  8
Layer_0
  10
353.25369
  20
226.9476
  0
VERTEX
  5
452
  8
Layer_0
  10
353.24127
  20
226.85001
  0
VERTEX
  5
453
  8
Layer_0
  10
353.23459
  20
226.74182
  0
VERTEX
  5
454
  8
Layer_0
  10
353.23593
  20
226.46832
  0
VERTEX
  5
455
  8
Layer_0
  10
353.23026
  20
226.298
  0
VERTEX
  5
456
  8
Layer_0
  10
353.21445
  20
226.08734
  0
VERTEX
  5
457
  8
Layer_0
  10
353.18506
  20
225.83676
  0
VERTEX
  5
458
  8
Layer_0
  10
353.1387
  20
225.54672
  0
VERTEX
  5
459
  8
Layer_0
  10
353.07214
  20
225.21884
  0
VERTEX
  5
45a
  8
Layer_0
  10
352.98215
  20
224.8544
  0
VERTEX
  5
45b
  8
Layer_0
  10
352.86487
  20
224.45245
  0
VERTEX
  5
45c
  8
Layer_0
  10
352.71817
  20
224.01834
  0
VERTEX
  5
45d
  8
Layer_0
  10
352.53864
  20
223.55222
  0
VERTEX
  5
45e
  8
Layer_0
  10
352.34671
  20
223.10806
  0
SEQEND
  0
POLYLINE
  5
460
  8
Layer_0
  62
7
  66
1
  10
0
  20
0
  30
0
  0
VERTEX
  5
460
  8
Layer_0
  10
350.91052
  20
223.0177
  42
0.013324799
  0
VERTEX
  5
461
  8
Layer_0
  10
352.34671
  20
223.10806
  0
SEQEND
  0
POLYLINE
  5
463
  8
Layer_0
  62
7
  66
1
  10
0
  20
0
  30
0
  0
VERTEX
  5
463
  8
Layer_0
  10
350.91052
  20
223.0177
  0
VERTEX
  5
464
  8
Layer_0
  10
350.66446
  20
223.4343
  0
VERTEX
  5
465
  8
Layer_0
  10
350.42792
  20
223.87424
  0
VERTEX
  5
466
  8
Layer_0
  10
350.22797
  20
224.28656
  0
VERTEX
  5
467
  8
Layer_0
  10
350.06122
  20
224.67062
  0
VERTEX
  5
468
  8
Layer_0
  10
349.92627
  20
225.02094
  0
VERTEX
  5
469
  8
Layer_0
  10
349.81915
  20
225.33789
  0
VERTEX
  5
46a
  8
Layer_0
  10
349.73679
  20
225.61981
  0
VERTEX
  5
46b
  8
Layer_0
  10
349.67624
  20
225.86475
  0
VERTEX
  5
46c
  8
Layer_0
  10
349.63412
  20
226.07178
  0
VERTEX
  5
46d
  8
Layer_0
  10
349.60718
  20
226.24002
  0
VERTEX
  5
46e
  8
Layer_0
  10
349.57422
  20
226.51154
  0
VERTEX
  5
46f
  8
Layer_0
  10
349.55405
  20
226.61801
  0
VERTEX
  5
470
  8
Layer_0
  10
349.52948
  20
226.71329
  0
VERTEX
  5
471
  8
Layer_0
  10
349.50098
  20
226.79727
  0
VERTEX
  5
472
  8
Layer_0
  10
349.46902
  20
226.86978
  0
VERTEX
  5
473
  8
Layer_0
  10
349.43405
  20
226.93073
  0
VERTEX
  5
474
  8
Layer_0
  10
349.39655
  20
226.98007
  0
VERTEX
  5
475
  8
Layer_0
  10
349.35699
  20
227.01767
  0
VERTEX
  5
476
  8
Layer_0
  10
349.31586
  20
227.04352
  0
VERTEX
  5
477
  8
Layer_0
  10
349.27362
  20
227.05753
  0
VERTEX
  5
478
  8
Layer_0
  10
349.15274
  20
227.06323
  0
VERTEX
  5
479
  8
Layer_0
  10
348.49283
  20
227.09528
  0
VERTEX
  5
47a
  8
Layer_0
  10
347.83411
  20
227.14618
  0
VERTEX
  5
47b
  8
Layer_0
  10
347.71347
  20
227.15567
  0
VERTEX
  5
47c
  8
Layer_0
  10
347.6698
  20
227.14706
  0
VERTEX
  5
47d
  8
Layer_0
  10
347.62576
  20
227.12659
  0
VERTEX
  5
47e
  8
Layer_0
  10
347.58182
  20
227.09424
  0
VERTEX
  5
47f
  8
Layer_0
  10
347.53842
  20
227.04999
  0
VERTEX
  5
480
  8
Layer_0
  10
347.49609
  20
226.9939
  0
VERTEX
  5
481
  8
Layer_0
  10
347.45529
  20
226.92596
  0
VERTEX
  5
482
  8
Layer_0
  10
347.4165
  20
226.84625
  0
VERTEX
  5
483
  8
Layer_0
  10
347.38019
  20
226.75479
  0
VERTEX
  5
484
  8
Layer_0
  10
347.34683
  20
226.65167
  0
VERTEX
  5
485
  8
Layer_0
  10
347.28012
  20
226.38641
  0
VERTEX
  5
486
  8
Layer_0
  10
347.23227
  20
226.22287
  0
VERTEX
  5
487
  8
Layer_0
  10
347.16455
  20
226.02277
  0
VERTEX
  5
488
  8
Layer_0
  10
347.07376
  20
225.78735
  0
VERTEX
  5
489
  8
Layer_0
  10
346.95673
  20
225.51797
  0
VERTEX
  5
48a
  8
Layer_0
  10
346.81073
  20
225.21695
  0
VERTEX
  5
48b
  8
Layer_0
  10
346.63293
  20
224.88632
  0
VERTEX
  5
48c
  8
Layer_0
  10
346.41937
  20
224.52615
  0
VERTEX
  5
48d
  8
Layer_0
  10
346.16931
  20
224.14215
  0
VERTEX
  5
48e
  8
Layer_0
  10
345.87949
  20
223.73535
  0
VERTEX
  5
48f
  8
Layer_0
  10
345.58316
  20
223.35287
  0
SEQEND
  0
POLYLINE
  5
491
  8
Layer_0
  62
7
  66
1
  10
0
  20
0
  30
0
  0
VERTEX
  5
491
  8
Layer_0
  10
344.16962
  20
223.6225
  42
0.013323468
  0
VERTEX
  5
492
  8
Layer_0
  10
345.58316
  20
223.35287
  0
SEQEND
  0
POLYLINE
  5
494
  8
Layer_0
  62
7
  66
1
  10
0
  20
0
  30
0
  0
VERTEX
  5
494
  8
Layer_0
  10
344.16962
  20
223.6225
  0
VERTEX
  5
495
  8
Layer_0
  10
344.03488
  20
224.08722
  0
VERTEX
  5
496
  8
Layer_0
  10
343.91516
  20
224.57217
  0
VERTEX
  5
497
  8
Layer_0
  10
343.82407
  20
225.02124
  0
VERTEX
  5
498
  8
Layer_0
  10
343.75806
  20
225.43472
  0
VERTEX
  5
499
  8
Layer_0
  10
343.71448
  20
225.80759
  0
VERTEX
  5
49a
  8
Layer_0
  10
343.68951
  20
226.14124
  0
VERTEX
  5
49b
  8
Layer_0
  10
343.67987
  20
226.43478
  0
VERTEX
  5
49c
  8
Layer_0
  10
343.68213
  20
226.68707
  0
VERTEX
  5
49d
  8
Layer_0
  10
343.69284
  20
226.89807
  0
VERTEX
  5
49e
  8
Layer_0
  10
343.70856
  20
227.06775
  0
VERTEX
  5
49f
  8
Layer_0
  10
343.74417
  20
227.33893
  0
VERTEX
  5
4a0
  8
Layer_0
  10
343.75113
  20
227.44708
  0
VERTEX
  5
4a1
  8
Layer_0
  10
343.75101
  20
227.54547
  0
VERTEX
  5
4a2
  8
Layer_0
  10
343.74429
  20
227.63388
  0
VERTEX
  5
4a3
  8
Layer_0
  10
343.73135
  20
227.71207
  0
VERTEX
  5
4a4
  8
Layer_0
  10
343.71265
  20
227.77979
  0
VERTEX
  5
4a5
  8
Layer_0
  10
343.6886
  20
227.83691
  0
VERTEX
  5
4a6
  8
Layer_0
  10
343.65964
  20
227.88318
  0
VERTEX
  5
4a7
  8
Layer_0
  10
343.62625
  20
227.91843
  0
VERTEX
  5
4a8
  8
Layer_0
  10
343.58881
  20
227.9425
  0
VERTEX
  5
4a9
  8
Layer_0
  10
343.47314
  20
227.97809
  0
VERTEX
  5
4aa
  8
Layer_0
  10
342.84195
  20
228.17325
  0
VERTEX
  5
4ab
  8
Layer_0
  10
342.21658
  20
228.38635
  0
VERTEX
  5
4ac
  8
Layer_0
  10
342.10208
  20
228.42557
  0
VERTEX
  5
4ad
  8
Layer_0
  10
342.05765
  20
228.4281
  0
VERTEX
  5
4ae
  8
Layer_0
  10
342.00989
  20
228.41922
  0
VERTEX
  5
4af
  8
Layer_0
  10
341.95926
  20
228.3988
  0
VERTEX
  5
4b0
  8
Layer_0
  10
341.90625
  20
228.36673
  0
VERTEX
  5
4b1
  8
Layer_0
  10
341.85129
  20
228.32294
  0
VERTEX
  5
4b2
  8
Layer_0
  10
341.79489
  20
228.26727
  0
VERTEX
  5
4b3
  8
Layer_0
  10
341.73749
  20
228.19971
  0
VERTEX
  5
4b4
  8
Layer_0
  10
341.67957
  20
228.12015
  0
VERTEX
  5
4b5
  8
Layer_0
  10
341.62161
  20
228.02856
  0
VERTEX
  5
4b6
  8
Layer_0
  10
341.49103
  20
227.78827
  0
VERTEX
  5
4b7
  8
Layer_0
  10
341.40402
  20
227.64175
  0
VERTEX
  5
4b8
  8
Layer_0
  10
341.28867
  20
227.46475
  0
VERTEX
  5
4b9
  8
Layer_0
  10
341.14218
  20
227.25934
  0
VERTEX
  5
4ba
  8
Layer_0
  10
340.96182
  20
227.0275
  0
VERTEX
  5
4bb
  8
Layer_0
  10
340.74554
  20
226.77225
  0
VERTEX
  5
4bc
  8
Layer_0
  10
340.49112
  20
226.49622
  0
VERTEX
  5
4bd
  8
Layer_0
  10
340.1947
  20
226.2005
  0
VERTEX
  5
4be
  8
Layer_0
  10
339.85703
  20
225.89075
  0
VERTEX
  5
4bf
  8
Layer_0
  10
339.47513
  20
225.56879
  0
VERTEX
  5
4c0
  8
Layer_0
  10
339.09296
  20
225.272
  0
SEQEND
  0
POLYLINE
  5
4c2
  8
Layer_0
  62
7
  66
1
  10
0
  20
0
  30
0
  0
VERTEX
  5
4c2
  8
Layer_0
  10
337.79089
  20
225.88474
  42
0.013327527
  0
VERTEX
  5
4c3
  8
Layer_0
  10
339.09296
  20
225.272
  0
SEQEND
  0
POLYLINE
  5
4c5
  8
Layer_0
  62
7
  66
1
  10
0
  20
0
  30
0
  0
VERTEX
  5
4c5
  8
Layer_0
  10
337.79089
  20
225.88474
  0
VERTEX
  5
4c6
  8
Layer_0
  10
337.77597
  20
226.36835
  0
VERTEX
  5
4c7
  8
Layer_0
  10
337.78061
  20
226.86783
  0
VERTEX
  5
4c8
  8
Layer_0
  10
337.80405
  20
227.32544
  0
VERTEX
  5
4c9
  8
Layer_0
  10
337.84296
  20
227.74234
  0
VERTEX
  5
4ca
  8
Layer_0
  10
337.89346
  20
228.11435
  0
VERTEX
  5
4cb
  8
Layer_0
  10
337.95227
  20
228.4437
  0
VERTEX
  5
4cc
  8
Layer_0
  10
338.01593
  20
228.73044
  0
VERTEX
  5
4cd
  8
Layer_0
  10
338.08087
  20
228.97424
  0
VERTEX
  5
4ce
  8
Layer_0
  10
338.14371
  20
229.17593
  0
VERTEX
  5
4cf
  8
Layer_0
  10
338.20111
  20
229.33636
  0
VERTEX
  5
4d0
  8
Layer_0
  10
338.30304
  20
229.59018
  0
VERTEX
  5
4d1
  8
Layer_0
  10
338.33667
  20
229.69321
  0
VERTEX
  5
4d2
  8
Layer_0
  10
338.36105
  20
229.78854
  0
VERTEX
  5
4d3
  8
Layer_0
  10
338.37653
  20
229.87585
  0
VERTEX
  5
4d4
  8
Layer_0
  10
338.38345
  20
229.95477
  0
VERTEX
  5
4d5
  8
Layer_0
  10
338.38217
  20
230.02505
  0
VERTEX
  5
4d6
  8
Layer_0
  10
338.37308
  20
230.08633
  0
VERTEX
  5
4d7
  8
Layer_0
  10
338.35654
  20
230.13834
  0
VERTEX
  5
4d8
  8
Layer_0
  10
338.33295
  20
230.18079
  0
VERTEX
  5
4d9
  8
Layer_0
  10
338.30267
  20
230.21344
  0
VERTEX
  5
4da
  8
Layer_0
  10
338.19949
  20
230.27667
  0
VERTEX
  5
4db
  8
Layer_0
  10
337.63666
  20
230.62268
  0
VERTEX
  5
4dc
  8
Layer_0
  10
337.08392
  20
230.98462
  0
VERTEX
  5
4dd
  8
Layer_0
  10
336.98279
  20
231.05106
  0
VERTEX
  5
4de
  8
Layer_0
  10
336.94037
  20
231.06454
  0
VERTEX
  5
4df
  8
Layer_0
  10
336.89191
  20
231.06781
  0
VERTEX
  5
4e0
  8
Layer_0
  10
336.8378
  20
231.06064
  0
VERTEX
  5
4e1
  8
Layer_0
  10
336.77847
  20
231.04279
  0
VERTEX
  5
4e2
  8
Layer_0
  10
336.71436
  20
231.01401
  0
VERTEX
  5
4e3
  8
Layer_0
  10
336.64587
  20
230.97415
  0
VERTEX
  5
4e4
  8
Layer_0
  10
336.57349
  20
230.92297
  0
VERTEX
  5
4e5
  8
Layer_0
  10
336.49759
  20
230.86032
  0
VERTEX
  5
4e6
  8
Layer_0
  10
336.41867
  20
230.78604
  0
VERTEX
  5
4e7
  8
Layer_0
  10
336.23242
  20
230.58572
  0
VERTEX
  5
4e8
  8
Layer_0
  10
336.11172
  20
230.46545
  0
VERTEX
  5
4e9
  8
Layer_0
  10
335.95596
  20
230.32272
  0
VERTEX
  5
4ea
  8
Layer_0
  10
335.76303
  20
230.16019
  0
VERTEX
  5
4eb
  8
Layer_0
  10
335.53067
  20
229.98047
  0
VERTEX
  5
4ec
  8
Layer_0
  10
335.25772
  20
229.78702
  0
VERTEX
  5
4ed
  8
Layer_0
  10
334.94263
  20
229.58295
  0
VERTEX
  5
4ee
  8
Layer_0
  10
334.58197
  20
229.37024
  0
VERTEX
  5
4ef
  8
Layer_0
  10
334.17786
  20
229.15421
  0
VERTEX
  5
4f0
  8
Layer_0
  10
333.72791
  20
228.93732
  0
VERTEX
  5
4f1
  8
Layer_0
  10
333.28397
  20
228.7449
  0
SEQEND
  0
POLYLINE
  5
4f3
  8
Layer_0
  62
7
  66
1
  10
0
  20
0
  30
0
  0
VERTEX
  5
4f3
  8
Layer_0
  10
332.17517
  20
229.66217
  42
0.013327363
  0
VERTEX
  5
4f4
  8
Layer_0
  10
333.28397
  20
228.7449
  0
SEQEND
  0
POLYLINE
  5
4f6
  8
Layer_0
  62
7
  66
1
  10
0
  20
0
  30
0
  0
VERTEX
  5
4f6
  8
Layer_0
  10
332.17517
  20
229.66217
  0
VERTEX
  5
4f7
  8
Layer_0
  10
332.28098
  20
230.13431
  0
VERTEX
  5
4f8
  8
Layer_0
  10
332.4097
  20
230.61694
  0
VERTEX
  5
4f9
  8
Layer_0
  10
332.5462
  20
231.05438
  0
VERTEX
  5
4fa
  8
Layer_0
  10
332.68756
  20
231.44852
  0
VERTEX
  5
4fb
  8
Layer_0
  10
332.82898
  20
231.79626
  0
VERTEX
  5
4fc
  8
Layer_0
  10
332.96786
  20
232.10065
  0
VERTEX
  5
4fd
  8
Layer_0
  10
333.10083
  20
232.36255
  0
VERTEX
  5
4fe
  8
Layer_0
  10
333.22433
  20
232.58252
  0
VERTEX
  5
4ff
  8
Layer_0
  10
333.33536
  20
232.76227
  0
VERTEX
  5
500
  8
Layer_0
  10
333.43088
  20
232.90338
  0
VERTEX
  5
501
  8
Layer_0
  10
333.59274
  20
233.12384
  0
VERTEX
  5
502
  8
Layer_0
  10
333.65094
  20
233.21527
  0
VERTEX
  5
503
  8
Layer_0
  10
333.69824
  20
233.30157
  0
VERTEX
  5
504
  8
Layer_0
  10
333.73495
  20
233.38229
  0
VERTEX
  5
505
  8
Layer_0
  10
333.76129
  20
233.45703
  0
VERTEX
  5
506
  8
Layer_0
  10
333.77753
  20
233.52539
  0
VERTEX
  5
507
  8
Layer_0
  10
333.78397
  20
233.58701
  0
VERTEX
  5
508
  8
Layer_0
  10
333.78088
  20
233.64151
  0
VERTEX
  5
509
  8
Layer_0
  10
333.76855
  20
233.68848
  0
VERTEX
  5
50a
  8
Layer_0
  10
333.74738
  20
233.72763
  0
VERTEX
  5
50b
  8
Layer_0
  10
333.66315
  20
233.81451
  0
VERTEX
  5
50c
  8
Layer_0
  10
333.20404
  20
234.28964
  0
VERTEX
  5
50d
  8
Layer_0
  10
332.7587
  20
234.77768
  0
VERTEX
  5
50e
  8
Layer_0
  10
332.67728
  20
234.86719
  0
VERTEX
  5
50f
  8
Layer_0
  10
332.63953
  20
234.89081
  0
VERTEX
  5
510
  8
Layer_0
  10
332.59341
  20
234.90601
  0
VERTEX
  5
511
  8
Layer_0
  10
332.53922
  20
234.91254
  0
VERTEX
  5
512
  8
Layer_0
  10
332.47733
  20
234.90997
  0
VERTEX
  5
513
  8
Layer_0
  10
332.40805
  20
234.89804
  0
VERTEX
  5
514
  8
Layer_0
  10
332.33182
  20
234.87646
  0
VERTEX
  5
515
  8
Layer_0
  10
332.24896
  20
234.84491
  0
VERTEX
  5
516
  8
Layer_0
  10
332.15988
  20
234.8031
  0
VERTEX
  5
517
  8
Layer_0
  10
332.06497
  20
234.75076
  0
VERTEX
  5
518
  8
Layer_0
  10
331.83475
  20
234.60309
  0
VERTEX
  5
519
  8
Layer_0
  10
331.68793
  20
234.5166
  0
VERTEX
  5
51a
  8
Layer_0
  10
331.50159
  20
234.41708
  0
VERTEX
  5
51b
  8
Layer_0
  10
331.27426
  20
234.30762
  0
VERTEX
  5
51c
  8
Layer_0
  10
331.00452
  20
234.19138
  0
VERTEX
  5
51d
  8
Layer_0
  10
330.69202
  20
234.07187
  0
VERTEX
  5
51e
  8
Layer_0
  10
330.33609
  20
233.95258
  0
VERTEX
  5
51f
  8
Layer_0
  10
329.93387
  20
233.83621
  0
VERTEX
  5
520
  8
Layer_0
  10
329.48874
  20
233.72748
  0
VERTEX
  5
521
  8
Layer_0
  10
328.99896
  20
233.6293
  0
VERTEX
  5
522
  8
Layer_0
  10
328.52112
  20
233.55334
  0
SEQEND
  0
POLYLINE
  5
524
  8
Layer_0
  62
7
  66
1
  10
0
  20
0
  30
0
  0
VERTEX
  5
524
  8
Layer_0
  10
327.67529
  20
234.71756
  42
0.013327143
  0
VERTEX
  5
525
  8
Layer_0
  10
328.52112
  20
233.55334
  0
SEQEND
  0
POLYLINE
  5
527
  8
Layer_0
  62
7
  66
1
  10
0
  20
0
  30
0
  0
VERTEX
  5
527
  8
Layer_0
  10
327.67529
  20
234.71756
  0
VERTEX
  5
528
  8
Layer_0
  10
327.89517
  20
235.14853
  0
VERTEX
  5
529
  8
Layer_0
  10
328.13989
  20
235.58398
  0
VERTEX
  5
52a
  8
Layer_0
  10
328.38086
  20
235.97372
  0
VERTEX
  5
52b
  8
Layer_0
  10
328.61581
  20
236.32031
  0
VERTEX
  5
52c
  8
Layer_0
  10
328.83926
  20
236.62198
  0
VERTEX
  5
52d
  8
Layer_0
  10
329.04947
  20
236.88226
  0
VERTEX
  5
52e
  8
Layer_0
  10
329.24341
  20
237.10287
  0
VERTEX
  5
52f
  8
Layer_0
  10
329.41776
  20
237.28522
  0
VERTEX
  5
530
  8
Layer_0
  10
329.57001
  20
237.4317
  0
VERTEX
  5
531
  8
Layer_0
  10
329.6976
  20
237.54462
  0
VERTEX
  5
532
  8
Layer_0
  10
329.90921
  20
237.71793
  0
VERTEX
  5
533
  8
Layer_0
  10
329.98831
  20
237.79202
  0
VERTEX
  5
534
  8
Layer_0
  10
330.05557
  20
237.8638
  0
VERTEX
  5
535
  8
Layer_0
  10
330.11121
  20
237.93286
  0
VERTEX
  5
536
  8
Layer_0
  10
330.1553
  20
237.99872
  0
VERTEX
  5
537
  8
Layer_0
  10
330.18802
  20
238.06088
  0
VERTEX
  5
538
  8
Layer_0
  10
330.20959
  20
238.11899
  0
VERTEX
  5
539
  8
Layer_0
  10
330.22015
  20
238.17252
  0
VERTEX
  5
53a
  8
Layer_0
  10
330.21994
  20
238.2211
  0
VERTEX
  5
53b
  8
Layer_0
  10
330.20914
  20
238.26428
  0
VERTEX
  5
53c
  8
Layer_0
  10
330.14917
  20
238.36938
  0
VERTEX
  5
53d
  8
Layer_0
  10
329.82263
  20
238.94376
  0
VERTEX
  5
53e
  8
Layer_0
  10
329.51266
  20
239.52719
  0
VERTEX
  5
53f
  8
Layer_0
  10
329.45602
  20
239.63416
  0
VERTEX
  5
540
  8
Layer_0
  10
329.42535
  20
239.66641
  0
VERTEX
  5
541
  8
Layer_0
  10
329.38446
  20
239.69263
  0
VERTEX
  5
542
  8
Layer_0
  10
329.33362
  20
239.7124
  0
VERTEX
  5
543
  8
Layer_0
  10
329.27301
  20
239.72531
  0
VERTEX
  5
544
  8
Layer_0
  10
329.20297
  20
239.73102
  0
VERTEX
  5
545
  8
Layer_0
  10
329.12375
  20
239.72906
  0
VERTEX
  5
546
  8
Layer_0
  10
329.03564
  20
239.71909
  0
VERTEX
  5
547
  8
Layer_0
  10
328.93896
  20
239.70074
  0
VERTEX
  5
548
  8
Layer_0
  10
328.83401
  20
239.67368
  0
VERTEX
  5
549
  8
Layer_0
  10
328.57431
  20
239.58786
  0
VERTEX
  5
54a
  8
Layer_0
  10
328.41058
  20
239.54062
  0
VERTEX
  5
54b
  8
Layer_0
  10
328.20535
  20
239.49057
  0
VERTEX
  5
54c
  8
Layer_0
  10
327.95795
  20
239.4411
  0
VERTEX
  5
54d
  8
Layer_0
  10
327.66779
  20
239.39557
  0
VERTEX
  5
54e
  8
Layer_0
  10
327.33539
  20
239.35754
  0
VERTEX
  5
54f
  8
Layer_0
  10
326.96097
  20
239.33051
  0
VERTEX
  5
550
  8
Layer_0
  10
326.54242
  20
239.31784
  0
VERTEX
  5
551
  8
Layer_0
  10
326.08423
  20
239.32321
  0
VERTEX
  5
552
  8
Layer_0
  10
325.58545
  20
239.34991
  0
VERTEX
  5
553
  8
Layer_0
  10
325.10373
  20
239.39517
  0
SEQEND
  0
POLYLINE
  5
555
  8
Layer_0
  62
7
  66
1
  10
0
  20
0
  30
0
  0
VERTEX
  5
555
  8
Layer_0
  10
324.57397
  20
240.73315
  42
0.013323456
  0
VERTEX
  5
556
  8
Layer_0
  10
325.10373
  20
239.39517
  0
SEQEND
  0
POLYLINE
  5
558
  8
Layer_0
  62
7
  66
1
  10
0
  20
0
  30
0
  0
VERTEX
  5
558
  8
Layer_0
  10
324.57397
  20
240.73315
  0
VERTEX
  5
559
  8
Layer_0
  10
324.89417
  20
241.09592
  0
SEQEND
  0
POLYLINE
  5
55b
  8
Layer_0
  62
7
  66
1
  10
0
  20
0
  30
0
  0
VERTEX
  5
55b
  8
Layer_0
  10
324.89417
  20
241.09592
  0
VERTEX
  5
55c
  8
Layer_0
  10
325.23947
  20
241.45685
  0
VERTEX
  5
55d
  8
Layer_0
  10
325.56982
  20
241.77441
  0
VERTEX
  5
55e
  8
Layer_0
  10
325.88358
  20
242.0517
  0
VERTEX
  5
55f
  8
Layer_0
  10
326.17502
  20
242.28827
  0
VERTEX
  5
560
  8
Layer_0
  10
326.44336
  20
242.4881
  0
VERTEX
  5
561
  8
Layer_0
  10
326.68607
  20
242.65356
  0
VERTEX
  5
562
  8
Layer_0
  10
326.90027
  20
242.78683
  0
VERTEX
  5
563
  8
Layer_0
  10
327.08414
  20
242.89084
  0
VERTEX
  5
564
  8
Layer_0
  10
327.23584
  20
242.96848
  0
VERTEX
  5
565
  8
Layer_0
  10
327.48389
  20
243.08371
  0
VERTEX
  5
566
  8
Layer_0
  10
327.57892
  20
243.1358
  0
VERTEX
  5
567
  8
Layer_0
  10
327.66196
  20
243.18863
  0
VERTEX
  5
568
  8
Layer_0
  10
327.733
  20
243.24167
  0
VERTEX
  5
569
  8
Layer_0
  10
327.79208
  20
243.29449
  0
VERTEX
  5
56a
  8
Layer_0
  10
327.83923
  20
243.34659
  0
VERTEX
  5
56b
  8
Layer_0
  10
327.87457
  20
243.39746
  0
VERTEX
  5
56c
  8
Layer_0
  10
327.89813
  20
243.44672
  0
VERTEX
  5
56d
  8
Layer_0
  10
327.90997
  20
243.4938
  0
VERTEX
  5
56e
  8
Layer_0
  10
327.91028
  20
243.53833
  0
VERTEX
  5
56f
  8
Layer_0
  10
327.87833
  20
243.65506
  0
VERTEX
  5
570
  8
Layer_0
  10
327.7049
  20
244.29257
  0
VERTEX
  5
571
  8
Layer_0
  10
327.54974
  20
244.93478
  0
VERTEX
  5
572
  8
Layer_0
  10
327.52151
  20
245.05244
  0
VERTEX
  5
573
  8
Layer_0
  10
327.49982
  20
245.09132
  0
VERTEX
  5
574
  8
Layer_0
  10
327.46674
  20
245.12688
  0
VERTEX
  5
575
  8
Layer_0
  10
327.42236
  20
245.15869
  0
VERTEX
  5
576
  8
Layer_0
  10
327.36688
  20
245.18626
  0
VERTEX
  5
577
  8
Layer_0
  10
327.30048
  20
245.2092
  0
VERTEX
  5
578
  8
Layer_0
  10
327.22327
  20
245.22701
  0
VERTEX
  5
579
  8
Layer_0
  10
327.13544
  20
245.23927
  0
VERTEX
  5
57a
  8
Layer_0
  10
327.03723
  20
245.24554
  0
VERTEX
  5
57b
  8
Layer_0
  10
326.92886
  20
245.24541
  0
VERTEX
  5
57c
  8
Layer_0
  10
326.65598
  20
245.2269
  0
VERTEX
  5
57d
  8
Layer_0
  10
326.48566
  20
245.22186
  0
VERTEX
  5
57e
  8
Layer_0
  10
326.27441
  20
245.22443
  0
VERTEX
  5
57f
  8
Layer_0
  10
326.02249
  20
245.23801
  0
VERTEX
  5
580
  8
Layer_0
  10
325.7301
  20
245.26607
  0
VERTEX
  5
581
  8
Layer_0
  10
325.39868
  20
245.3119
  0
VERTEX
  5
582
  8
Layer_0
  10
325.0293
  20
245.37883
  0
VERTEX
  5
583
  8
Layer_0
  10
324.62079
  20
245.47066
  0
VERTEX
  5
584
  8
Layer_0
  10
324.17831
  20
245.5898
  0
VERTEX
  5
585
  8
Layer_0
  10
323.70184
  20
245.73972
  0
VERTEX
  5
586
  8
Layer_0
  10
323.24649
  20
245.90337
  0
SEQEND
  0
POLYLINE
  5
588
  8
Layer_0
  62
7
  66
1
  10
0
  20
0
  30
0
  0
VERTEX
  5
588
  8
Layer_0
  10
323.06613
  20
247.33105
  42
0.013327578
  0
VERTEX
  5
589
  8
Layer_0
  10
323.24649
  20
245.90337
  0
SEQEND
  0
POLYLINE
  5
58b
  8
Layer_0
  62
7
  66
1
  10
0
  20
0
  30
0
  0
VERTEX
  5
58b
  8
Layer_0
  10
323.06613
  20
247.33105
  0
VERTEX
  5
58c
  8
Layer_0
  10
323.46646
  20
247.60278
  0
VERTEX
  5
58d
  8
Layer_0
  10
323.89069
  20
247.8665
  0
VERTEX
  5
58e
  8
Layer_0
  10
324.28964
  20
248.09193
  0
VERTEX
  5
58f
  8
Layer_0
  10
324.66248
  20
248.28247
  0
VERTEX
  5
590
  8
Layer_0
  10
325.00363
  20
248.43915
  0
VERTEX
  5
591
  8
Layer_0
  10
325.31323
  20
248.56596
  0
VERTEX
  5
592
  8
Layer_0
  10
325.58945
  20
248.66586
  0
VERTEX
  5
593
  8
Layer_0
  10
325.83008
  20
248.74167
  0
VERTEX
  5
594
  8
Layer_0
  10
326.03406
  20
248.79669
  0
VERTEX
  5
595
  8
Layer_0
  10
326.20026
  20
248.83417
  0
VERTEX
  5
596
  8
Layer_0
  10
326.46918
  20
248.88409
  0
VERTEX
  5
597
  8
Layer_0
  10
326.57419
  20
248.91092
  0
VERTEX
  5
598
  8
Layer_0
  10
326.66776
  20
248.94142
  0
VERTEX
  5
599
  8
Layer_0
  10
326.74976
  20
248.97514
  0
VERTEX
  5
59a
  8
Layer_0
  10
326.8201
  20
249.0116
  0
VERTEX
  5
59b
  8
Layer_0
  10
326.87875
  20
249.05032
  0
VERTEX
  5
59c
  8
Layer_0
  10
326.92563
  20
249.09084
  0
VERTEX
  5
59d
  8
Layer_0
  10
326.96069
  20
249.13268
  0
VERTEX
  5
59e
  8
Layer_0
  10
326.98389
  20
249.17534
  0
VERTEX
  5
59f
  8
Layer_0
  10
326.99521
  20
249.21838
  0
VERTEX
  5
5a0
  8
Layer_0
  10
326.99332
  20
249.33939
  0
VERTEX
  5
5a1
  8
Layer_0
  10
326.98389
  20
250
  0
VERTEX
  5
5a2
  8
Layer_0
  10
326.99332
  20
250.66061
  0
VERTEX
  5
5a3
  8
Layer_0
  10
326.99521
  20
250.78162
  0
VERTEX
  5
5a4
  8
Layer_0
  10
326.98389
  20
250.82466
  0
VERTEX
  5
5a5
  8
Layer_0
  10
326.96069
  20
250.86732
  0
VERTEX
  5
5a6
  8
Layer_0
  10
326.92563
  20
250.90916
  0
VERTEX
  5
5a7
  8
Layer_0
  10
326.87875
  20
250.94968
  0
VERTEX
  5
5a8
  8
Layer_0
  10
326.8201
  20
250.9884
  0
VERTEX
  5
5a9
  8
Layer_0
  10
326.74976
  20
251.02486
  0
VERTEX
  5
5aa
  8
Layer_0
  10
326.66776
  20
251.05858
  0
VERTEX
  5
5ab
  8
Layer_0
  10
326.57419
  20
251.08908
  0
VERTEX
  5
5ac
  8
Layer_0
  10
326.46918
  20
251.11591
  0
VERTEX
  5
5ad
  8
Layer_0
  10
326.20026
  20
251.16583
  0
VERTEX
  5
5ae
  8
Layer_0
  10
326.03406
  20
251.20331
  0
VERTEX
  5
5af
  8
Layer_0
  10
325.83008
  20
251.25833
  0
VERTEX
  5
5b0
  8
Layer_0
  10
325.58945
  20
251.33414
  0
VERTEX
  5
5b1
  8
Layer_0
  10
325.31323
  20
251.43404
  0
VERTEX
  5
5b2
  8
Layer_0
  10
325.00363
  20
251.56085
  0
VERTEX
  5
5b3
  8
Layer_0
  10
324.66248
  20
251.71753
  0
VERTEX
  5
5b4
  8
Layer_0
  10
324.28964
  20
251.90807
  0
VERTEX
  5
5b5
  8
Layer_0
  10
323.89069
  20
252.1335
  0
VERTEX
  5
5b6
  8
Layer_0
  10
323.46646
  20
252.39722
  0
VERTEX
  5
5b7
  8
Layer_0
  10
323.06613
  20
252.66895
  0
SEQEND
  0
POLYLINE
  5
5b9
  8
Layer_0
  62
7
  66
1
  10
0
  20
0
  30
0
  0
VERTEX
  5
5b9
  8
Layer_0
  10
323.24649
  20
254.09663
  42
0.013327578
  0
VERTEX
  5
5ba
  8
Layer_0
  10
323.06613
  20
252.66895
  0
SEQEND
  0
POLYLINE
  5
5bc
  8
Layer_0
  62
7
  66
1
  10
0
  20
0
  30
0
  0
VERTEX
  5
5bc
  8
Layer_0
  10
323.24649
  20
254.09663
  0
VERTEX
  5
5bd
  8
Layer_0
  10
323.70184
  20
254.26028
  0
VERTEX
  5
5be
  8
Layer_0
  10
324.17831
  20
254.4102
  0
VERTEX
  5
5bf
  8
Layer_0
  10
324.62079
  20
254.52934
  0
VERTEX
  5
5c0
  8
Layer_0
  10
325.0293
  20
254.62117
  0
VERTEX
  5
5c1
  8
Layer_0
  10
325.39868
  20
254.6881
  0
VERTEX
  5
5c2
  8
Layer_0
  10
325.7301
  20
254.73393
  0
VERTEX
  5
5c3
  8
Layer_0
  10
326.02249
  20
254.76199
  0
VERTEX
  5
5c4
  8
Layer_0
  10
326.27441
  20
254.77557
  0
VERTEX
  5
5c5
  8
Layer_0
  10
326.48566
  20
254.77814
  0
VERTEX
  5
5c6
  8
Layer_0
  10
326.65598
  20
254.7731
  0
VERTEX
  5
5c7
  8
Layer_0
  10
326.92886
  20
254.75459
  0
VERTEX
  5
5c8
  8
Layer_0
  10
327.03723
  20
254.75446
  0
VERTEX
  5
5c9
  8
Layer_0
  10
327.13544
  20
254.76073
  0
VERTEX
  5
5ca
  8
Layer_0
  10
327.22327
  20
254.77299
  0
VERTEX
  5
5cb
  8
Layer_0
  10
327.30048
  20
254.7908
  0
VERTEX
  5
5cc
  8
Layer_0
  10
327.36688
  20
254.81374
  0
VERTEX
  5
5cd
  8
Layer_0
  10
327.42236
  20
254.84131
  0
VERTEX
  5
5ce
  8
Layer_0
  10
327.46674
  20
254.87312
  0
VERTEX
  5
5cf
  8
Layer_0
  10
327.49982
  20
254.90868
  0
VERTEX
  5
5d0
  8
Layer_0
  10
327.52151
  20
254.94756
  0
VERTEX
  5
5d1
  8
Layer_0
  10
327.54974
  20
255.06522
  0
VERTEX
  5
5d2
  8
Layer_0
  10
327.7049
  20
255.70743
  0
VERTEX
  5
5d3
  8
Layer_0
  10
327.87833
  20
256.34496
  0
VERTEX
  5
5d4
  8
Layer_0
  10
327.91028
  20
256.46167
  0
VERTEX
  5
5d5
  8
Layer_0
  10
327.90997
  20
256.50618
  0
VERTEX
  5
5d6
  8
Layer_0
  10
327.89813
  20
256.55328
  0
VERTEX
  5
5d7
  8
Layer_0
  10
327.87457
  20
256.60252
  0
VERTEX
  5
5d8
  8
Layer_0
  10
327.83923
  20
256.65343
  0
VERTEX
  5
5d9
  8
Layer_0
  10
327.79208
  20
256.70552
  0
VERTEX
  5
5da
  8
Layer_0
  10
327.733
  20
256.75832
  0
VERTEX
  5
5db
  8
Layer_0
  10
327.66196
  20
256.81137
  0
VERTEX
  5
5dc
  8
Layer_0
  10
327.57892
  20
256.86418
  0
VERTEX
  5
5dd
  8
Layer_0
  10
327.48389
  20
256.91628
  0
VERTEX
  5
5de
  8
Layer_0
  10
327.23584
  20
257.03151
  0
VERTEX
  5
5df
  8
Layer_0
  10
327.08414
  20
257.10916
  0
VERTEX
  5
5e0
  8
Layer_0
  10
326.90027
  20
257.21317
  0
VERTEX
  5
5e1
  8
Layer_0
  10
326.68607
  20
257.34644
  0
VERTEX
  5
5e2
  8
Layer_0
  10
326.44336
  20
257.51189
  0
VERTEX
  5
5e3
  8
Layer_0
  10
326.17502
  20
257.71172
  0
VERTEX
  5
5e4
  8
Layer_0
  10
325.88358
  20
257.94832
  0
VERTEX
  5
5e5
  8
Layer_0
  10
325.56982
  20
258.22559
  0
VERTEX
  5
5e6
  8
Layer_0
  10
325.23947
  20
258.54315
  0
VERTEX
  5
5e7
  8
Layer_0
  10
324.89417
  20
258.90407
  0
VERTEX
  5
5e8
  8
Layer_0
  10
324.57397
  20
259.26683
  0
SEQEND
  0
POLYLINE
  5
5ea
  8
Layer_0
  62
7
  66
1
  10
0
  20
0
  30
0
  0
VERTEX
  5
5ea
  8
Layer_0
  10
325.10373
  20
260.60481
  42
0.013329489
  0
VERTEX
  5
5eb
  8
Layer_0
  10
324.57397
  20
259.26683
  0
SEQEND
  0
POLYLINE
  5
5ed
  8
Layer_0
  62
7
  66
1
  10
0
  20
0
  30
0
  0
VERTEX
  5
5ed
  8
Layer_0
  10
325.10373
  20
260.60481
  0
VERTEX
  5
5ee
  8
Layer_0
  10
325.58545
  20
260.65009
  0
VERTEX
  5
5ef
  8
Layer_0
  10
326.08423
  20
260.6768
  0
VERTEX
  5
5f0
  8
Layer_0
  10
326.54242
  20
260.68216
  0
VERTEX
  5
5f1
  8
Layer_0
  10
326.96097
  20
260.66951
  0
VERTEX
  5
5f2
  8
Layer_0
  10
327.33539
  20
260.64246
  0
VERTEX
  5
5f3
  8
Layer_0
  10
327.66779
  20
260.60445
  0
VERTEX
  5
5f4
  8
Layer_0
  10
327.95795
  20
260.55891
  0
VERTEX
  5
5f5
  8
Layer_0
  10
328.20535
  20
260.50941
  0
VERTEX
  5
5f6
  8
Layer_0
  10
328.41058
  20
260.45937
  0
VERTEX
  5
5f7
  8
Layer_0
  10
328.57431
  20
260.41212
  0
VERTEX
  5
5f8
  8
Layer_0
  10
328.83401
  20
260.32634
  0
VERTEX
  5
5f9
  8
Layer_0
  10
328.93896
  20
260.29926
  0
VERTEX
  5
5fa
  8
Layer_0
  10
329.03564
  20
260.28091
  0
VERTEX
  5
5fb
  8
Layer_0
  10
329.12375
  20
260.27095
  0
VERTEX
  5
5fc
  8
Layer_0
  10
329.20297
  20
260.269
  0
VERTEX
  5
5fd
  8
Layer_0
  10
329.27301
  20
260.27469
  0
VERTEX
  5
5fe
  8
Layer_0
  10
329.33362
  20
260.2876
  0
VERTEX
  5
5ff
  8
Layer_0
  10
329.38446
  20
260.30737
  0
VERTEX
  5
600
  8
Layer_0
  10
329.42535
  20
260.33359
  0
VERTEX
  5
601
  8
Layer_0
  10
329.45602
  20
260.36584
  0
VERTEX
  5
602
  8
Layer_0
  10
329.51266
  20
260.47279
  0
VERTEX
  5
603
  8
Layer_0
  10
329.82263
  20
261.05624
  0
VERTEX
  5
604
  8
Layer_0
  10
330.14917
  20
261.63062
  0
VERTEX
  5
605
  8
Layer_0
  10
330.20914
  20
261.73572
  0
VERTEX
  5
606
  8
Layer_0
  10
330.21994
  20
261.7789
  0
VERTEX
  5
607
  8
Layer_0
  10
330.22015
  20
261.82747
  0
VERTEX
  5
608
  8
Layer_0
  10
330.20959
  20
261.88103
  0
VERTEX
  5
609
  8
Layer_0
  10
330.18802
  20
261.9391
  0
VERTEX
  5
60a
  8
Layer_0
  10
330.1553
  20
262.0013
  0
VERTEX
  5
60b
  8
Layer_0
  10
330.11121
  20
262.06714
  0
VERTEX
  5
60c
  8
Layer_0
  10
330.05557
  20
262.13618
  0
VERTEX
  5
60d
  8
Layer_0
  10
329.98831
  20
262.20798
  0
VERTEX
  5
60e
  8
Layer_0
  10
329.90921
  20
262.28207
  0
VERTEX
  5
60f
  8
Layer_0
  10
329.6976
  20
262.45538
  0
VERTEX
  5
610
  8
Layer_0
  10
329.57001
  20
262.5683
  0
VERTEX
  5
611
  8
Layer_0
  10
329.41776
  20
262.71478
  0
VERTEX
  5
612
  8
Layer_0
  10
329.24341
  20
262.89714
  0
VERTEX
  5
613
  8
Layer_0
  10
329.04947
  20
263.11774
  0
VERTEX
  5
614
  8
Layer_0
  10
328.83926
  20
263.37802
  0
VERTEX
  5
615
  8
Layer_0
  10
328.61581
  20
263.67967
  0
VERTEX
  5
616
  8
Layer_0
  10
328.38086
  20
264.02626
  0
VERTEX
  5
617
  8
Layer_0
  10
328.13989
  20
264.416
  0
VERTEX
  5
618
  8
Layer_0
  10
327.89517
  20
264.85147
  0
VERTEX
  5
619
  8
Layer_0
  10
327.67529
  20
265.28246
  0
SEQEND
  0
POLYLINE
  5
61b
  8
Layer_0
  62
7
  66
1
  10
0
  20
0
  30
0
  0
VERTEX
  5
61b
  8
Layer_0
  10
328.52112
  20
266.44666
  42
0.013327442
  0
VERTEX
  5
61c
  8
Layer_0
  10
327.67529
  20
265.28246
  0
SEQEND
  0
POLYLINE
  5
61e
  8
Layer_0
  62
7
  66
1
  10
0
  20
0
  30
0
  0
VERTEX
  5
61e
  8
Layer_0
  10
328.52112
  20
266.44666
  0
VERTEX
  5
61f
  8
Layer_0
  10
328.99896
  20
266.3707
  0
VERTEX
  5
620
  8
Layer_0
  10
329.48874
  20
266.27254
  0
VERTEX
  5
621
  8
Layer_0
  10
329.93387
  20
266.16377
  0
VERTEX
  5
622
  8
Layer_0
  10
330.33609
  20
266.04744
  0
VERTEX
  5
623
  8
Layer_0
  10
330.69202
  20
265.92813
  0
VERTEX
  5
624
  8
Layer_0
  10
331.00452
  20
265.80864
  0
VERTEX
  5
625
  8
Layer_0
  10
331.27426
  20
265.69237
  0
VERTEX
  5
626
  8
Layer_0
  10
331.50159
  20
265.58292
  0
VERTEX
  5
627
  8
Layer_0
  10
331.68793
  20
265.4834
  0
VERTEX
  5
628
  8
Layer_0
  10
331.83475
  20
265.39693
  0
VERTEX
  5
629
  8
Layer_0
  10
332.06497
  20
265.24924
  0
VERTEX
  5
62a
  8
Layer_0
  10
332.15988
  20
265.1969
  0
VERTEX
  5
62b
  8
Layer_0
  10
332.24896
  20
265.15509
  0
VERTEX
  5
62c
  8
Layer_0
  10
332.33182
  20
265.12354
  0
VERTEX
  5
62d
  8
Layer_0
  10
332.40805
  20
265.10194
  0
VERTEX
  5
62e
  8
Layer_0
  10
332.47733
  20
265.09004
  0
VERTEX
  5
62f
  8
Layer_0
  10
332.53922
  20
265.08748
  0
VERTEX
  5
630
  8
Layer_0
  10
332.59341
  20
265.09398
  0
VERTEX
  5
631
  8
Layer_0
  10
332.63953
  20
265.10921
  0
VERTEX
  5
632
  8
Layer_0
  10
332.67728
  20
265.13281
  0
VERTEX
  5
633
  8
Layer_0
  10
332.7587
  20
265.22234
  0
VERTEX
  5
634
  8
Layer_0
  10
333.20404
  20
265.71036
  0
VERTEX
  5
635
  8
Layer_0
  10
333.66315
  20
266.18547
  0
VERTEX
  5
636
  8
Layer_0
  10
333.74738
  20
266.27237
  0
VERTEX
  5
637
  8
Layer_0
  10
333.76855
  20
266.31151
  0
VERTEX
  5
638
  8
Layer_0
  10
333.78088
  20
266.35849
  0
VERTEX
  5
639
  8
Layer_0
  10
333.78397
  20
266.41299
  0
VERTEX
  5
63a
  8
Layer_0
  10
333.77753
  20
266.47461
  0
VERTEX
  5
63b
  8
Layer_0
  10
333.76129
  20
266.54298
  0
VERTEX
  5
63c
  8
Layer_0
  10
333.73495
  20
266.61772
  0
VERTEX
  5
63d
  8
Layer_0
  10
333.69824
  20
266.69844
  0
VERTEX
  5
63e
  8
Layer_0
  10
333.65094
  20
266.78471
  0
VERTEX
  5
63f
  8
Layer_0
  10
333.59274
  20
266.87614
  0
VERTEX
  5
640
  8
Layer_0
  10
333.43088
  20
267.09663
  0
VERTEX
  5
641
  8
Layer_0
  10
333.33536
  20
267.23775
  0
VERTEX
  5
642
  8
Layer_0
  10
333.22433
  20
267.41748
  0
VERTEX
  5
643
  8
Layer_0
  10
333.10083
  20
267.63747
  0
VERTEX
  5
644
  8
Layer_0
  10
332.96786
  20
267.89937
  0
VERTEX
  5
645
  8
Layer_0
  10
332.82898
  20
268.20375
  0
VERTEX
  5
646
  8
Layer_0
  10
332.68756
  20
268.55148
  0
VERTEX
  5
647
  8
Layer_0
  10
332.5462
  20
268.94562
  0
VERTEX
  5
648
  8
Layer_0
  10
332.4097
  20
269.38304
  0
VERTEX
  5
649
  8
Layer_0
  10
332.28098
  20
269.86568
  0
VERTEX
  5
64a
  8
Layer_0
  10
332.17517
  20
270.33781
  0
SEQEND
  0
POLYLINE
  5
64c
  8
Layer_0
  62
7
  66
1
  10
0
  20
0
  30
0
  0
VERTEX
  5
64c
  8
Layer_0
  10
333.28397
  20
271.2551
  42
0.013327363
  0
VERTEX
  5
64d
  8
Layer_0
  10
332.17517
  20
270.33781
  0
SEQEND
  0
POLYLINE
  5
64f
  8
Layer_0
  62
7
  66
1
  10
0
  20
0
  30
0
  0
VERTEX
  5
64f
  8
Layer_0
  10
333.28397
  20
271.2551
  0
VERTEX
  5
650
  8
Layer_0
  10
333.72791
  20
271.06268
  0
VERTEX
  5
651
  8
Layer_0
  10
334.17786
  20
270.84581
  0
VERTEX
  5
652
  8
Layer_0
  10
334.58197
  20
270.62976
  0
VERTEX
  5
653
  8
Layer_0
  10
334.94263
  20
270.41705
  0
VERTEX
  5
654
  8
Layer_0
  10
335.25772
  20
270.21297
  0
VERTEX
  5
655
  8
Layer_0
  10
335.53067
  20
270.01952
  0
VERTEX
  5
656
  8
Layer_0
  10
335.76303
  20
269.83983
  0
VERTEX
  5
657
  8
Layer_0
  10
335.95596
  20
269.67728
  0
VERTEX
  5
658
  8
Layer_0
  10
336.11172
  20
269.53453
  0
VERTEX
  5
659
  8
Layer_0
  10
336.23242
  20
269.41426
  0
VERTEX
  5
65a
  8
Layer_0
  10
336.41867
  20
269.21397
  0
VERTEX
  5
65b
  8
Layer_0
  10
336.49759
  20
269.13968
  0
VERTEX
  5
65c
  8
Layer_0
  10
336.57349
  20
269.07704
  0
VERTEX
  5
65d
  8
Layer_0
  10
336.64587
  20
269.02586
  0
VERTEX
  5
65e
  8
Layer_0
  10
336.71436
  20
268.98599
  0
VERTEX
  5
65f
  8
Layer_0
  10
336.77847
  20
268.95723
  0
VERTEX
  5
660
  8
Layer_0
  10
336.8378
  20
268.93935
  0
VERTEX
  5
661
  8
Layer_0
  10
336.89191
  20
268.93217
  0
VERTEX
  5
662
  8
Layer_0
  10
336.94037
  20
268.93546
  0
VERTEX
  5
663
  8
Layer_0
  10
336.98279
  20
268.94894
  0
VERTEX
  5
664
  8
Layer_0
  10
337.08392
  20
269.01538
  0
VERTEX
  5
665
  8
Layer_0
  10
337.63666
  20
269.37732
  0
VERTEX
  5
666
  8
Layer_0
  10
338.19949
  20
269.72334
  0
VERTEX
  5
667
  8
Layer_0
  10
338.30267
  20
269.78656
  0
VERTEX
  5
668
  8
Layer_0
  10
338.33295
  20
269.8192
  0
VERTEX
  5
669
  8
Layer_0
  10
338.35654
  20
269.86165
  0
VERTEX
  5
66a
  8
Layer_0
  10
338.37308
  20
269.91367
  0
VERTEX
  5
66b
  8
Layer_0
  10
338.38217
  20
269.97496
  0
VERTEX
  5
66c
  8
Layer_0
  10
338.38345
  20
270.04521
  0
VERTEX
  5
66d
  8
Layer_0
  10
338.37653
  20
270.12416
  0
VERTEX
  5
66e
  8
Layer_0
  10
338.36105
  20
270.21147
  0
VERTEX
  5
66f
  8
Layer_0
  10
338.33667
  20
270.30679
  0
VERTEX
  5
670
  8
Layer_0
  10
338.30304
  20
270.40984
  0
VERTEX
  5
671
  8
Layer_0
  10
338.20111
  20
270.66364
  0
VERTEX
  5
672
  8
Layer_0
  10
338.14371
  20
270.82407
  0
VERTEX
  5
673
  8
Layer_0
  10
338.08087
  20
271.02577
  0
VERTEX
  5
674
  8
Layer_0
  10
338.01593
  20
271.26956
  0
VERTEX
  5
675
  8
Layer_0
  10
337.95227
  20
271.5563
  0
VERTEX
  5
676
  8
Layer_0
  10
337.89346
  20
271.88567
  0
VERTEX
  5
677
  8
Layer_0
  10
337.84296
  20
272.25764
  0
VERTEX
  5
678
  8
Layer_0
  10
337.80405
  20
272.67455
  0
VERTEX
  5
679
  8
Layer_0
  10
337.78061
  20
273.13217
  0
VERTEX
  5
67a
  8
Layer_0
  10
337.77597
  20
273.63167
  0
VERTEX
  5
67b
  8
Layer_0
  10
337.79089
  20
274.11528
  0
SEQEND
  0
POLYLINE
  5
67d
  8
Layer_0
  62
7
  66
1
  10
0
  20
0
  30
0
  0
VERTEX
  5
67d
  8
Layer_0
  10
339.09296
  20
274.728
  42
0.013328457
  0
VERTEX
  5
67e
  8
Layer_0
  10
337.79089
  20
274.11528
  0
SEQEND
  0
POLYLINE
  5
680
  8
Layer_0
  62
7
  66
1
  10
0
  20
0
  30
0
  0
VERTEX
  5
680
  8
Layer_0
  10
339.09296
  20
274.728
  0
VERTEX
  5
681
  8
Layer_0
  10
339.47513
  20
274.43123
  0
VERTEX
  5
682
  8
Layer_0
  10
339.85703
  20
274.10925
  0
VERTEX
  5
683
  8
Layer_0
  10
340.1947
  20
273.7995
  0
VERTEX
  5
684
  8
Layer_0
  10
340.49112
  20
273.50378
  0
VERTEX
  5
685
  8
Layer_0
  10
340.74554
  20
273.22775
  0
VERTEX
  5
686
  8
Layer_0
  10
340.96182
  20
272.9725
  0
VERTEX
  5
687
  8
Layer_0
  10
341.14218
  20
272.74066
  0
VERTEX
  5
688
  8
Layer_0
  10
341.28867
  20
272.53525
  0
VERTEX
  5
689
  8
Layer_0
  10
341.40402
  20
272.35826
  0
VERTEX
  5
68a
  8
Layer_0
  10
341.49103
  20
272.21175
  0
VERTEX
  5
68b
  8
Layer_0
  10
341.62161
  20
271.97142
  0
VERTEX
  5
68c
  8
Layer_0
  10
341.67957
  20
271.87984
  0
VERTEX
  5
68d
  8
Layer_0
  10
341.73749
  20
271.80029
  0
VERTEX
  5
68e
  8
Layer_0
  10
341.79489
  20
271.73273
  0
VERTEX
  5
68f
  8
Layer_0
  10
341.85129
  20
271.67706
  0
VERTEX
  5
690
  8
Layer_0
  10
341.90625
  20
271.63327
  0
VERTEX
  5
691
  8
Layer_0
  10
341.95926
  20
271.6012
  0
VERTEX
  5
692
  8
Layer_0
  10
342.00989
  20
271.5808
  0
VERTEX
  5
693
  8
Layer_0
  10
342.05765
  20
271.57191
  0
VERTEX
  5
694
  8
Layer_0
  10
342.10208
  20
271.57443
  0
VERTEX
  5
695
  8
Layer_0
  10
342.21658
  20
271.61363
  0
VERTEX
  5
696
  8
Layer_0
  10
342.84195
  20
271.82675
  0
VERTEX
  5
697
  8
Layer_0
  10
343.47314
  20
272.02193
  0
VERTEX
  5
698
  8
Layer_0
  10
343.58881
  20
272.0575
  0
VERTEX
  5
699
  8
Layer_0
  10
343.62625
  20
272.08157
  0
VERTEX
  5
69a
  8
Layer_0
  10
343.65964
  20
272.11684
  0
VERTEX
  5
69b
  8
Layer_0
  10
343.6886
  20
272.1631
  0
VERTEX
  5
69c
  8
Layer_0
  10
343.71265
  20
272.2202
  0
VERTEX
  5
69d
  8
Layer_0
  10
343.73135
  20
272.28793
  0
VERTEX
  5
69e
  8
Layer_0
  10
343.74429
  20
272.36612
  0
VERTEX
  5
69f
  8
Layer_0
  10
343.75101
  20
272.45453
  0
VERTEX
  5
6a0
  8
Layer_0
  10
343.75113
  20
272.55293
  0
VERTEX
  5
6a1
  8
Layer_0
  10
343.74417
  20
272.66109
  0
VERTEX
  5
6a2
  8
Layer_0
  10
343.70856
  20
272.93227
  0
VERTEX
  5
6a3
  8
Layer_0
  10
343.69284
  20
273.10194
  0
VERTEX
  5
6a4
  8
Layer_0
  10
343.68213
  20
273.31293
  0
VERTEX
  5
6a5
  8
Layer_0
  10
343.67987
  20
273.56522
  0
VERTEX
  5
6a6
  8
Layer_0
  10
343.68951
  20
273.85878
  0
VERTEX
  5
6a7
  8
Layer_0
  10
343.71448
  20
274.19241
  0
VERTEX
  5
6a8
  8
Layer_0
  10
343.75806
  20
274.56528
  0
VERTEX
  5
6a9
  8
Layer_0
  10
343.82407
  20
274.97876
  0
VERTEX
  5
6aa
  8
Layer_0
  10
343.91516
  20
275.42783
  0
VERTEX
  5
6ab
  8
Layer_0
  10
344.03488
  20
275.91278
  0
VERTEX
  5
6ac
  8
Layer_0
  10
344.16962
  20
276.37749
  0
SEQEND
  0
POLYLINE
  5
6ae
  8
Layer_0
  62
7
  66
1
  10
0
  20
0
  30
0
  0
VERTEX
  5
6ae
  8
Layer_0
  10
345.58316
  20
276.64714
  42
0.013326829
  0
VERTEX
  5
6af
  8
Layer_0
  10
344.16962
  20
276.37749
  0
SEQEND
  0
POLYLINE
  5
6b1
  8
Layer_0
  62
7
  66
1
  10
0
  20
0
  30
0
  0
VERTEX
  5
6b1
  8
Layer_0
  10
345.58316
  20
276.64714
  0
VERTEX
  5
6b2
  8
Layer_0
  10
345.87949
  20
276.26466
  0
VERTEX
  5
6b3
  8
Layer_0
  10
346.16931
  20
275.85783
  0
VERTEX
  5
6b4
  8
Layer_0
  10
346.41937
  20
275.47385
  0
VERTEX
  5
6b5
  8
Layer_0
  10
346.63293
  20
275.11369
  0
VERTEX
  5
6b6
  8
Layer_0
  10
346.81073
  20
274.78307
  0
VERTEX
  5
6b7
  8
Layer_0
  10
346.95673
  20
274.48203
  0
VERTEX
  5
6b8
  8
Layer_0
  10
347.07376
  20
274.21263
  0
VERTEX
  5
6b9
  8
Layer_0
  10
347.16455
  20
273.97723
  0
VERTEX
  5
6ba
  8
Layer_0
  10
347.23227
  20
273.77713
  0
VERTEX
  5
6bb
  8
Layer_0
  10
347.28012
  20
273.61357
  0
VERTEX
  5
6bc
  8
Layer_0
  10
347.34683
  20
273.34833
  0
VERTEX
  5
6bd
  8
Layer_0
  10
347.38019
  20
273.24521
  0
VERTEX
  5
6be
  8
Layer_0
  10
347.4165
  20
273.15376
  0
VERTEX
  5
6bf
  8
Layer_0
  10
347.45529
  20
273.07404
  0
VERTEX
  5
6c0
  8
Layer_0
  10
347.49609
  20
273.0061
  0
VERTEX
  5
6c1
  8
Layer_0
  10
347.53842
  20
272.95001
  0
VERTEX
  5
6c2
  8
Layer_0
  10
347.58182
  20
272.90576
  0
VERTEX
  5
6c3
  8
Layer_0
  10
347.62576
  20
272.87341
  0
VERTEX
  5
6c4
  8
Layer_0
  10
347.6698
  20
272.85294
  0
VERTEX
  5
6c5
  8
Layer_0
  10
347.71347
  20
272.84431
  0
VERTEX
  5
6c6
  8
Layer_0
  10
347.83411
  20
272.85382
  0
VERTEX
  5
6c7
  8
Layer_0
  10
348.49283
  20
272.90471
  0
VERTEX
  5
6c8
  8
Layer_0
  10
349.15274
  20
272.93678
  0
VERTEX
  5
6c9
  8
Layer_0
  10
349.27362
  20
272.94247
  0
VERTEX
  5
6ca
  8
Layer_0
  10
349.31586
  20
272.9565
  0
VERTEX
  5
6cb
  8
Layer_0
  10
349.35699
  20
272.98233
  0
VERTEX
  5
6cc
  8
Layer_0
  10
349.39655
  20
273.01993
  0
VERTEX
  5
6cd
  8
Layer_0
  10
349.43405
  20
273.06927
  0
VERTEX
  5
6ce
  8
Layer_0
  10
349.46902
  20
273.13022
  0
VERTEX
  5
6cf
  8
Layer_0
  10
349.50098
  20
273.20273
  0
VERTEX
  5
6d0
  8
Layer_0
  10
349.52948
  20
273.2867
  0
VERTEX
  5
6d1
  8
Layer_0
  10
349.55405
  20
273.38197
  0
VERTEX
  5
6d2
  8
Layer_0
  10
349.57422
  20
273.48846
  0
VERTEX
  5
6d3
  8
Layer_0
  10
349.60718
  20
273.75998
  0
VERTEX
  5
6d4
  8
Layer_0
  10
349.63412
  20
273.92824
  0
VERTEX
  5
6d5
  8
Layer_0
  10
349.67624
  20
274.13525
  0
VERTEX
  5
6d6
  8
Layer_0
  10
349.73679
  20
274.38017
  0
VERTEX
  5
6d7
  8
Layer_0
  10
349.81915
  20
274.66212
  0
VERTEX
  5
6d8
  8
Layer_0
  10
349.92627
  20
274.97906
  0
VERTEX
  5
6d9
  8
Layer_0
  10
350.06122
  20
275.32938
  0
VERTEX
  5
6da
  8
Layer_0
  10
350.22797
  20
275.71346
  0
VERTEX
  5
6db
  8
Layer_0
  10
350.42792
  20
276.12576
  0
VERTEX
  5
6dc
  8
Layer_0
  10
350.66446
  20
276.5657
  0
VERTEX
  5
6dd
  8
Layer_0
  10
350.91052
  20
276.9823
  0
SEQEND
  0
POLYLINE
  5
6df
  8
Layer_0
  62
7
  66
1
  10
0
  20
0
  30
0
  0
VERTEX
  5
6df
  8
Layer_0
  10
352.34671
  20
276.89195
  42
0.013326729
  0
VERTEX
  5
6e0
  8
Layer_0
  10
350.91052
  20
276.9823
  0
SEQEND
  0
POLYLINE
  5
6e2
  8
Layer_0
  62
7
  66
1
  10
0
  20
0
  30
0
  0
VERTEX
  5
6e2
  8
Layer_0
  10
352.34671
  20
276.89195
  0
VERTEX
  5
6e3
  8
Layer_0
  10
352.53864
  20
276.44778
  0
VERTEX
  5
6e4
  8
Layer_0
  10
352.71817
  20
275.98167
  0
VERTEX
  5
6e5
  8
Layer_0
  10
352.86487
  20
275.54756
  0
VERTEX
  5
6e6
  8
Layer_0
  10
352.98215
  20
275.1456
  0
VERTEX
  5
6e7
  8
Layer_0
  10
353.07214
  20
274.78116
  0
VERTEX
  5
6e8
  8
Layer_0
  10
353.1387
  20
274.45328
  0
VERTEX
  5
6e9
  8
Layer_0
  10
353.18506
  20
274.16322
  0
VERTEX
  5
6ea
  8
Layer_0
  10
353.21445
  20
273.91266
  0
VERTEX
  5
6eb
  8
Layer_0
  10
353.23026
  20
273.70198
  0
VERTEX
  5
6ec
  8
Layer_0
  10
353.23593
  20
273.53168
  0
VERTEX
  5
6ed
  8
Layer_0
  10
353.23459
  20
273.25818
  0
VERTEX
  5
6ee
  8
Layer_0
  10
353.24127
  20
273.14999
  0
VERTEX
  5
6ef
  8
Layer_0
  10
353.25369
  20
273.0524
  0
VERTEX
  5
6f0
  8
Layer_0
  10
353.27145
  20
272.96552
  0
VERTEX
  5
6f1
  8
Layer_0
  10
353.29407
  20
272.88957
  0
VERTEX
  5
6f2
  8
Layer_0
  10
353.32114
  20
272.82471
  0
VERTEX
  5
6f3
  8
Layer_0
  10
353.35214
  20
272.77107
  0
VERTEX
  5
6f4
  8
Layer_0
  10
353.38666
  20
272.72881
  0
VERTEX
  5
6f5
  8
Layer_0
  10
353.42422
  20
272.69801
  0
VERTEX
  5
6f6
  8
Layer_0
  10
353.46439
  20
272.67882
  0
VERTEX
  5
6f7
  8
Layer_0
  10
353.58359
  20
272.65802
  0
VERTEX
  5
6f8
  8
Layer_0
  10
354.23428
  20
272.54349
  0
VERTEX
  5
6f9
  8
Layer_0
  10
354.88144
  20
272.41045
  0
VERTEX
  5
6fa
  8
Layer_0
  10
354.99994
  20
272.38589
  0
VERTEX
  5
6fb
  8
Layer_0
  10
355.04434
  20
272.38896
  0
VERTEX
  5
6fc
  8
Layer_0
  10
355.09061
  20
272.40376
  0
VERTEX
  5
6fd
  8
Layer_0
  10
355.13828
  20
272.43034
  0
VERTEX
  5
6fe
  8
Layer_0
  10
355.18683
  20
272.46881
  0
VERTEX
  5
6ff
  8
Layer_0
  10
355.23587
  20
272.51915
  0
VERTEX
  5
700
  8
Layer_0
  10
355.28485
  20
272.58144
  0
VERTEX
  5
701
  8
Layer_0
  10
355.33334
  20
272.65567
  0
VERTEX
  5
702
  8
Layer_0
  10
355.38083
  20
272.74185
  0
VERTEX
  5
703
  8
Layer_0
  10
355.42685
  20
272.83998
  0
VERTEX
  5
704
  8
Layer_0
  10
355.52631
  20
273.09477
  0
VERTEX
  5
705
  8
Layer_0
  10
355.59427
  20
273.25104
  0
VERTEX
  5
706
  8
Layer_0
  10
355.68652
  20
273.44107
  0
VERTEX
  5
707
  8
Layer_0
  10
355.80609
  20
273.66324
  0
VERTEX
  5
708
  8
Layer_0
  10
355.95596
  20
273.91585
  0
VERTEX
  5
709
  8
Layer_0
  10
356.13855
  20
274.1962
  0
VERTEX
  5
70a
  8
Layer_0
  10
356.35638
  20
274.50194
  0
VERTEX
  5
70b
  8
Layer_0
  10
356.6134
  20
274.83249
  0
VERTEX
  5
70c
  8
Layer_0
  10
356.90961
  20
275.18211
  0
VERTEX
  5
70d
  8
Layer_0
  10
357.24814
  20
275.54941
  0
VERTEX
  5
70e
  8
Layer_0
  10
357.59006
  20
275.89172
  0
SEQEND
  0
POLYLINE
  5
710
  8
Layer_0
  62
7
  66
1
  10
0
  20
0
  30
0
  0
VERTEX
  5
710
  8
Layer_0
  10
358.95868
  20
275.44704
  42
0.013325721
  0
VERTEX
  5
711
  8
Layer_0
  10
357.59006
  20
275.89172
  0
SEQEND
  0
POLYLINE
  5
713
  8
Layer_0
  62
7
  66
1
  10
0
  20
0
  30
0
  0
VERTEX
  5
713
  8
Layer_0
  10
358.95868
  20
275.44704
  0
VERTEX
  5
714
  8
Layer_0
  10
359.03409
  20
274.96912
  0
VERTEX
  5
715
  8
Layer_0
  10
359.09207
  20
274.47298
  0
VERTEX
  5
716
  8
Layer_0
  10
359.12619
  20
274.01602
  0
VERTEX
  5
717
  8
Layer_0
  10
359.13986
  20
273.59753
  0
VERTEX
  5
718
  8
Layer_0
  10
359.13638
  20
273.22215
  0
VERTEX
  5
719
  8
Layer_0
  10
359.11929
  20
272.88802
  0
VERTEX
  5
71a
  8
Layer_0
  10
359.09207
  20
272.59555
  0
VERTEX
  5
71b
  8
Layer_0
  10
359.05823
  20
272.34555
  0
VERTEX
  5
71c
  8
Layer_0
  10
359.02115
  20
272.13757
  0
VERTEX
  5
71d
  8
Layer_0
  10
358.98428
  20
271.97119
  0
VERTEX
  5
71e
  8
Layer_0
  10
358.91498
  20
271.70662
  0
VERTEX
  5
71f
  8
Layer_0
  10
358.89453
  20
271.60019
  0
VERTEX
  5
720
  8
Layer_0
  10
358.88229
  20
271.50255
  0
VERTEX
  5
721
  8
Layer_0
  10
358.87787
  20
271.41399
  0
VERTEX
  5
722
  8
Layer_0
  10
358.88092
  20
271.33481
  0
VERTEX
  5
723
  8
Layer_0
  10
358.89099
  20
271.26526
  0
VERTEX
  5
724
  8
Layer_0
  10
358.90768
  20
271.2056
  0
VERTEX
  5
725
  8
Layer_0
  10
358.9306
  20
271.15607
  0
VERTEX
  5
726
  8
Layer_0
  10
358.95935
  20
271.1169
  0
VERTEX
  5
727
  8
Layer_0
  10
358.99347
  20
271.08832
  0
VERTEX
  5
728
  8
Layer_0
  10
359.10376
  20
271.03853
  0
VERTEX
  5
729
  8
Layer_0
  10
359.70551
  20
270.76578
  0
VERTEX
  5
72a
  8
Layer_0
  10
360.29926
  20
270.47597
  0
VERTEX
  5
72b
  8
Layer_0
  10
360.40793
  20
270.42273
  0
VERTEX
  5
72c
  8
Layer_0
  10
360.45169
  20
270.41466
  0
VERTEX
  5
72d
  8
Layer_0
  10
360.50018
  20
270.41748
  0
VERTEX
  5
72e
  8
Layer_0
  10
360.55295
  20
270.43138
  0
VERTEX
  5
72f
  8
Layer_0
  10
360.60959
  20
270.45654
  0
VERTEX
  5
730
  8
Layer_0
  10
360.66959
  20
270.49312
  0
VERTEX
  5
731
  8
Layer_0
  10
360.73251
  20
270.54126
  0
VERTEX
  5
732
  8
Layer_0
  10
360.79794
  20
270.6011
  0
VERTEX
  5
733
  8
Layer_0
  10
360.86539
  20
270.67278
  0
VERTEX
  5
734
  8
Layer_0
  10
360.93436
  20
270.75636
  0
VERTEX
  5
735
  8
Layer_0
  10
361.09402
  20
270.97842
  0
VERTEX
  5
736
  8
Layer_0
  10
361.19873
  20
271.11288
  0
VERTEX
  5
737
  8
Layer_0
  10
361.33536
  20
271.274
  0
VERTEX
  5
738
  8
Layer_0
  10
361.50641
  20
271.45946
  0
VERTEX
  5
739
  8
Layer_0
  10
361.71439
  20
271.66685
  0
VERTEX
  5
73a
  8
Layer_0
  10
361.96097
  20
271.89299
  0
VERTEX
  5
73b
  8
Layer_0
  10
362.24799
  20
272.13496
  0
VERTEX
  5
73c
  8
Layer_0
  10
362.57913
  20
272.39119
  0
VERTEX
  5
73d
  8
Layer_0
  10
362.95297
  20
272.65619
  0
VERTEX
  5
73e
  8
Layer_0
  10
363.37222
  20
272.92775
  0
VERTEX
  5
73f
  8
Layer_0
  10
363.78854
  20
273.17427
  0
SEQEND
  0
POLYLINE
  5
741
  8
Layer_0
  62
7
  66
1
  10
0
  20
0
  30
0
  0
VERTEX
  5
741
  8
Layer_0
  10
365.00357
  20
272.4032
  42
0.013327572
  0
VERTEX
  5
742
  8
Layer_0
  10
363.78854
  20
273.17427
  0
SEQEND
  0
POLYLINE
  5
744
  8
Layer_0
  62
7
  66
1
  10
0
  20
0
  30
0
  0
VERTEX
  5
744
  8
Layer_0
  10
365.00357
  20
272.4032
  0
VERTEX
  5
745
  8
Layer_0
  10
364.95776
  20
271.92152
  0
VERTEX
  5
746
  8
Layer_0
  10
364.89053
  20
271.42657
  0
VERTEX
  5
747
  8
Layer_0
  10
364.80994
  20
270.97548
  0
VERTEX
  5
748
  8
Layer_0
  10
364.71909
  20
270.56674
  0
VERTEX
  5
749
  8
Layer_0
  10
364.62238
  20
270.20403
  0
VERTEX
  5
74a
  8
Layer_0
  10
364.52274
  20
269.88463
  0
VERTEX
  5
74b
  8
Layer_0
  10
364.42365
  20
269.60812
  0
VERTEX
  5
74c
  8
Layer_0
  10
364.32867
  20
269.37439
  0
VERTEX
  5
74d
  8
Layer_0
  10
364.24106
  20
269.18216
  0
VERTEX
  5
74e
  8
Layer_0
  10
364.16397
  20
269.03018
  0
VERTEX
  5
74f
  8
Layer_0
  10
364.03104
  20
268.79117
  0
VERTEX
  5
750
  8
Layer_0
  10
363.98477
  20
268.69316
  0
VERTEX
  5
751
  8
Layer_0
  10
363.94864
  20
268.60164
  0
VERTEX
  5
752
  8
Layer_0
  10
363.92233
  20
268.51695
  0
VERTEX
  5
753
  8
Layer_0
  10
363.90558
  20
268.4395
  0
VERTEX
  5
754
  8
Layer_0
  10
363.89804
  20
268.36963
  0
VERTEX
  5
755
  8
Layer_0
  10
363.89935
  20
268.30769
  0
VERTEX
  5
756
  8
Layer_0
  10
363.90927
  20
268.25401
  0
VERTEX
  5
757
  8
Layer_0
  10
363.92734
  20
268.20894
  0
VERTEX
  5
758
  8
Layer_0
  10
363.95328
  20
268.17276
  0
VERTEX
  5
759
  8
Layer_0
  10
364.04773
  20
268.09711
  0
VERTEX
  5
75a
  8
Layer_0
  10
364.56277
  20
267.68327
  0
VERTEX
  5
75b
  8
Layer_0
  10
365.06577
  20
267.25491
  0
VERTEX
  5
75c
  8
Layer_0
  10
365.15778
  20
267.17632
  0
VERTEX
  5
75d
  8
Layer_0
  10
365.19818
  20
267.15762
  0
VERTEX
  5
75e
  8
Layer_0
  10
365.24585
  20
267.1483
  0
VERTEX
  5
75f
  8
Layer_0
  10
365.30042
  20
267.14864
  0
VERTEX
  5
760
  8
Layer_0
  10
365.36151
  20
267.15894
  0
VERTEX
  5
761
  8
Layer_0
  10
365.42874
  20
267.17943
  0
VERTEX
  5
762
  8
Layer_0
  10
365.50168
  20
267.2104
  0
VERTEX
  5
763
  8
Layer_0
  10
365.57993
  20
267.25211
  0
VERTEX
  5
764
  8
Layer_0
  10
365.66306
  20
267.30475
  0
VERTEX
  5
765
  8
Layer_0
  10
365.75067
  20
267.36856
  0
VERTEX
  5
766
  8
Layer_0
  10
365.96054
  20
267.54393
  0
VERTEX
  5
767
  8
Layer_0
  10
366.09537
  20
267.64813
  0
VERTEX
  5
768
  8
Layer_0
  10
366.26779
  20
267.77022
  0
VERTEX
  5
769
  8
Layer_0
  10
366.47958
  20
267.9073
  0
VERTEX
  5
76a
  8
Layer_0
  10
366.7326
  20
268.05646
  0
VERTEX
  5
76b
  8
Layer_0
  10
367.02768
  20
268.21417
  0
VERTEX
  5
76c
  8
Layer_0
  10
367.36584
  20
268.37715
  0
VERTEX
  5
76d
  8
Layer_0
  10
367.75034
  20
268.54298
  0
VERTEX
  5
76e
  8
Layer_0
  10
368.17831
  20
268.70668
  0
VERTEX
  5
76f
  8
Layer_0
  10
368.65192
  20
268.86545
  0
VERTEX
  5
770
  8
Layer_0
  10
369.11649
  20
269.0007
  0
SEQEND
  0
POLYLINE
  5
772
  8
Layer_0
  62
7
  66
1
  10
0
  20
0
  30
0
  0
VERTEX
  5
772
  8
Layer_0
  10
370.10156
  20
267.95169
  42
0.013326844
  0
VERTEX
  5
773
  8
Layer_0
  10
369.11649
  20
269.0007
  0
SEQEND
  0
POLYLINE
  5
775
  8
Layer_0
  62
7
  66
1
  10
0
  20
0
  30
0
  0
VERTEX
  5
775
  8
Layer_0
  10
370.10156
  20
267.95169
  0
VERTEX
  5
776
  8
Layer_0
  10
369.93741
  20
267.49654
  0
VERTEX
  5
777
  8
Layer_0
  10
369.74924
  20
267.03384
  0
VERTEX
  5
778
  8
Layer_0
  10
369.55899
  20
266.61697
  0
VERTEX
  5
779
  8
Layer_0
  10
369.36932
  20
266.24367
  0
VERTEX
  5
77a
  8
Layer_0
  10
369.18546
  20
265.9164
  0
VERTEX
  5
77b
  8
Layer_0
  10
369.00952
  20
265.63182
  0
VERTEX
  5
77c
  8
Layer_0
  10
368.84476
  20
265.38864
  0
VERTEX
  5
77d
  8
Layer_0
  10
368.69464
  20
265.18587
  0
VERTEX
  5
77e
  8
Layer_0
  10
368.56198
  20
265.02147
  0
VERTEX
  5
77f
  8
Layer_0
  10
368.44952
  20
264.89345
  0
VERTEX
  5
780
  8
Layer_0
  10
368.26132
  20
264.69499
  0
VERTEX
  5
781
  8
Layer_0
  10
368.19214
  20
264.61157
  0
VERTEX
  5
782
  8
Layer_0
  10
368.13437
  20
264.53191
  0
VERTEX
  5
783
  8
Layer_0
  10
368.08783
  20
264.45642
  0
VERTEX
  5
784
  8
Layer_0
  10
368.05234
  20
264.38557
  0
VERTEX
  5
785
  8
Layer_0
  10
368.02768
  20
264.31978
  0
VERTEX
  5
786
  8
Layer_0
  10
368.01355
  20
264.25945
  0
VERTEX
  5
787
  8
Layer_0
  10
368.0098
  20
264.20499
  0
VERTEX
  5
788
  8
Layer_0
  10
368.01611
  20
264.15683
  0
VERTEX
  5
789
  8
Layer_0
  10
368.03223
  20
264.11536
  0
VERTEX
  5
78a
  8
Layer_0
  10
368.10489
  20
264.01859
  0
VERTEX
  5
78b
  8
Layer_0
  10
368.50082
  20
263.48967
  0
VERTEX
  5
78c
  8
Layer_0
  10
368.8815
  20
262.94968
  0
VERTEX
  5
78d
  8
Layer_0
  10
368.95108
  20
262.85066
  0
VERTEX
  5
78e
  8
Layer_0
  10
368.98553
  20
262.82251
  0
VERTEX
  5
78f
  8
Layer_0
  10
369.02939
  20
262.80162
  0
VERTEX
  5
790
  8
Layer_0
  10
369.08234
  20
262.78838
  0
VERTEX
  5
791
  8
Layer_0
  10
369.14407
  20
262.78316
  0
VERTEX
  5
792
  8
Layer_0
  10
369.21429
  20
262.78629
  0
VERTEX
  5
793
  8
Layer_0
  10
369.29263
  20
262.79816
  0
VERTEX
  5
794
  8
Layer_0
  10
369.37881
  20
262.81909
  0
VERTEX
  5
795
  8
Layer_0
  10
369.47241
  20
262.8494
  0
VERTEX
  5
796
  8
Layer_0
  10
369.57312
  20
262.88942
  0
VERTEX
  5
797
  8
Layer_0
  10
369.82004
  20
263.0071
  0
VERTEX
  5
798
  8
Layer_0
  10
369.97653
  20
263.07448
  0
VERTEX
  5
799
  8
Layer_0
  10
370.17389
  20
263.14986
  0
VERTEX
  5
79a
  8
Layer_0
  10
370.41315
  20
263.22997
  0
VERTEX
  5
79b
  8
Layer_0
  10
370.69531
  20
263.31151
  0
VERTEX
  5
79c
  8
Layer_0
  10
371.02032
  20
263.39088
  0
VERTEX
  5
79d
  8
Layer_0
  10
371.38843
  20
263.46465
  0
VERTEX
  5
79e
  8
Layer_0
  10
371.80206
  20
263.52965
  0
VERTEX
  5
79f
  8
Layer_0
  10
372.25729
  20
263.58177
  0
VERTEX
  5
7a0
  8
Layer_0
  10
372.75552
  20
263.61777
  0
VERTEX
  5
7a1
  8
Layer_0
  10
373.23911
  20
263.63324
  0
SEQEND
  0
POLYLINE
  5
7a3
  8
Layer_0
  62
7
  66
1
  10
0
  20
0
  30
0
  0
VERTEX
  5
7a3
  8
Layer_0
  10
373.93237
  20
262.37221
  42
0.013326804
  0
VERTEX
  5
7a4
  8
Layer_0
  10
373.23911
  20
263.63324
  0
SEQEND
  0
POLYLINE
  5
7a6
  8
Layer_0
  62
7
  66
1
  10
0
  20
0
  30
0
  0
VERTEX
  5
7a6
  8
Layer_0
  10
373.93237
  20
262.37221
  0
VERTEX
  5
7a7
  8
Layer_0
  10
373.66019
  20
261.97217
  0
VERTEX
  5
7a8
  8
Layer_0
  10
373.36282
  20
261.57082
  0
VERTEX
  5
7a9
  8
Layer_0
  10
373.07489
  20
261.21436
  0
VERTEX
  5
7aa
  8
Layer_0
  10
372.79837
  20
260.89995
  0
VERTEX
  5
7ab
  8
Layer_0
  10
372.53888
  20
260.62868
  0
VERTEX
  5
7ac
  8
Layer_0
  10
372.2977
  20
260.39679
  0
VERTEX
  5
7ad
  8
Layer_0
  10
372.07764
  20
260.20224
  0
VERTEX
  5
7ae
  8
Layer_0
  10
371.88181
  20
260.04317
  0
VERTEX
  5
7af
  8
Layer_0
  10
371.71243
  20
259.91693
  0
VERTEX
  5
7b0
  8
Layer_0
  10
371.57166
  20
259.82089
  0
VERTEX
  5
7b1
  8
Layer_0
  10
371.34003
  20
259.67548
  0
VERTEX
  5
7b2
  8
Layer_0
  10
371.25226
  20
259.61188
  0
VERTEX
  5
7b3
  8
Layer_0
  10
371.17651
  20
259.54907
  0
VERTEX
  5
7b4
  8
Layer_0
  10
371.11267
  20
259.48753
  0
VERTEX
  5
7b5
  8
Layer_0
  10
371.06067
  20
259.42775
  0
VERTEX
  5
7b6
  8
Layer_0
  10
371.02039
  20
259.37015
  0
VERTEX
  5
7b7
  8
Layer_0
  10
370.99173
  20
259.31523
  0
VERTEX
  5
7b8
  8
Layer_0
  10
370.97455
  20
259.26343
  0
VERTEX
  5
7b9
  8
Layer_0
  10
370.96869
  20
259.21521
  0
VERTEX
  5
7ba
  8
Layer_0
  10
370.97397
  20
259.17102
  0
VERTEX
  5
7bb
  8
Layer_0
  10
371.02029
  20
259.05922
  0
VERTEX
  5
7bc
  8
Layer_0
  10
371.27225
  20
258.44846
  0
VERTEX
  5
7bd
  8
Layer_0
  10
371.50668
  20
257.83076
  0
VERTEX
  5
7be
  8
Layer_0
  10
371.54944
  20
257.71756
  0
VERTEX
  5
7bf
  8
Layer_0
  10
371.57584
  20
257.6817
  0
VERTEX
  5
7c0
  8
Layer_0
  10
371.6131
  20
257.65057
  0
VERTEX
  5
7c1
  8
Layer_0
  10
371.6611
  20
257.62457
  0
VERTEX
  5
7c2
  8
Layer_0
  10
371.7196
  20
257.60417
  0
VERTEX
  5
7c3
  8
Layer_0
  10
371.78839
  20
257.58975
  0
VERTEX
  5
7c4
  8
Layer_0
  10
371.86722
  20
257.58176
  0
VERTEX
  5
7c5
  8
Layer_0
  10
371.95587
  20
257.5806
  0
VERTEX
  5
7c6
  8
Layer_0
  10
372.05408
  20
257.58667
  0
VERTEX
  5
7c7
  8
Layer_0
  10
372.16159
  20
257.60039
  0
VERTEX
  5
7c8
  8
Layer_0
  10
372.42999
  20
257.65297
  0
VERTEX
  5
7c9
  8
Layer_0
  10
372.59836
  20
257.67931
  0
VERTEX
  5
7ca
  8
Layer_0
  10
372.80826
  20
257.70323
  0
VERTEX
  5
7cb
  8
Layer_0
  10
373.05991
  20
257.72133
  0
VERTEX
  5
7cc
  8
Layer_0
  10
373.35349
  20
257.73015
  0
VERTEX
  5
7cd
  8
Layer_0
  10
373.68805
  20
257.7262
  0
VERTEX
  5
7ce
  8
Layer_0
  10
374.0629
  20
257.7061
  0
VERTEX
  5
7cf
  8
Layer_0
  10
374.47971
  20
257.6662
  0
VERTEX
  5
7d0
  8
Layer_0
  10
374.93362
  20
257.60345
  0
VERTEX
  5
7d1
  8
Layer_0
  10
375.42514
  20
257.51443
  0
VERTEX
  5
7d2
  8
Layer_0
  10
375.89737
  20
257.40915
  0
SEQEND
  0
POLYLINE
  5
7d4
  8
Layer_0
  62
7
  66
1
  10
0
  20
0
  30
0
  0
VERTEX
  5
7d4
  8
Layer_0
  10
376.25525
  20
256.01532
  42
0.013325367
  0
VERTEX
  5
7d5
  8
Layer_0
  10
375.89737
  20
257.40915
  0
SEQEND
  0
POLYLINE
  5
7d7
  8
Layer_0
  62
7
  66
1
  10
0
  20
0
  30
0
  0
VERTEX
  5
7d7
  8
Layer_0
  10
376.25525
  20
256.01532
  0
VERTEX
  5
7d8
  8
Layer_0
  10
375.89215
  20
255.69556
  0
VERTEX
  5
7d9
  8
Layer_0
  10
375.5043
  20
255.38075
  0
VERTEX
  5
7da
  8
Layer_0
  10
375.13678
  20
255.1071
  0
VERTEX
  5
7db
  8
Layer_0
  10
374.79074
  20
254.87134
  0
VERTEX
  5
7dc
  8
Layer_0
  10
374.47192
  20
254.67313
  0
VERTEX
  5
7dd
  8
Layer_0
  10
374.18066
  20
254.50851
  0
VERTEX
  5
7de
  8
Layer_0
  10
373.91916
  20
254.37479
  0
VERTEX
  5
7df
  8
Layer_0
  10
373.68991
  20
254.26941
  0
VERTEX
  5
7e0
  8
Layer_0
  10
373.49445
  20
254.18927
  0
VERTEX
  5
7e1
  8
Layer_0
  10
373.33423
  20
254.13124
  0
VERTEX
  5
7e2
  8
Layer_0
  10
373.0737
  20
254.048
  0
VERTEX
  5
7e3
  8
Layer_0
  10
372.97287
  20
254.00824
  0
VERTEX
  5
7e4
  8
Layer_0
  10
372.88388
  20
253.96625
  0
VERTEX
  5
7e5
  8
Layer_0
  10
372.80676
  20
253.92252
  0
VERTEX
  5
7e6
  8
Layer_0
  10
372.74152
  20
253.87753
  0
VERTEX
  5
7e7
  8
Layer_0
  10
372.6882
  20
253.83177
  0
VERTEX
  5
7e8
  8
Layer_0
  10
372.64676
  20
253.78571
  0
VERTEX
  5
7e9
  8
Layer_0
  10
372.61722
  20
253.73979
  0
VERTEX
  5
7ea
  8
Layer_0
  10
372.59955
  20
253.69455
  0
VERTEX
  5
7eb
  8
Layer_0
  10
372.59369
  20
253.65044
  0
VERTEX
  5
7ec
  8
Layer_0
  10
372.61075
  20
253.53062
  0
VERTEX
  5
7ed
  8
Layer_0
  10
372.70291
  20
252.8764
  0
VERTEX
  5
7ee
  8
Layer_0
  10
372.77637
  20
252.2198
  0
VERTEX
  5
7ef
  8
Layer_0
  10
372.78961
  20
252.09952
  0
VERTEX
  5
7f0
  8
Layer_0
  10
372.80627
  20
252.05824
  0
VERTEX
  5
7f1
  8
Layer_0
  10
372.83463
  20
252.01881
  0
VERTEX
  5
7f2
  8
Layer_0
  10
372.87466
  20
251.9817
  0
VERTEX
  5
7f3
  8
Layer_0
  10
372.92624
  20
251.94739
  0
VERTEX
  5
7f4
  8
Layer_0
  10
372.98926
  20
251.91631
  0
VERTEX
  5
7f5
  8
Layer_0
  10
373.06366
  20
251.88896
  0
VERTEX
  5
7f6
  8
Layer_0
  10
373.14923
  20
251.86578
  0
VERTEX
  5
7f7
  8
Layer_0
  10
373.24588
  20
251.84726
  0
VERTEX
  5
7f8
  8
Layer_0
  10
373.35342
  20
251.8338
  0
VERTEX
  5
7f9
  8
Layer_0
  10
373.62646
  20
251.81798
  0
VERTEX
  5
7fa
  8
Layer_0
  10
373.79608
  20
251.80162
  0
VERTEX
  5
7fb
  8
Layer_0
  10
374.00534
  20
251.7726
  0
VERTEX
  5
7fc
  8
Layer_0
  10
374.25357
  20
251.72755
  0
VERTEX
  5
7fd
  8
Layer_0
  10
374.54013
  20
251.66307
  0
VERTEX
  5
7fe
  8
Layer_0
  10
374.86319
  20
251.57605
  0
VERTEX
  5
7ff
  8
Layer_0
  10
375.22128
  20
251.46336
  0
VERTEX
  5
800
  8
Layer_0
  10
375.61505
  20
251.32104
  0
VERTEX
  5
801
  8
Layer_0
  10
376.03912
  20
251.1474
  0
VERTEX
  5
802
  8
Layer_0
  10
376.49304
  20
250.93893
  0
VERTEX
  5
803
  8
Layer_0
  10
376.92426
  20
250.71951
  0
SEQEND
  0
POLYLINE
  5
805
  8
Layer_0
  62
7
  66
1
  10
0
  20
0
  30
0
  0
VERTEX
  5
805
  8
Layer_0
  10
376.92426
  20
249.28049
  42
0.013327257
  0
VERTEX
  5
806
  8
Layer_0
  10
376.92426
  20
250.71951
  0
SEQEND
  0
POLYLINE
  5
808
  8
Layer_0
  62
7
  66
1
  10
0
  20
0
  30
0
  0
VERTEX
  5
808
  8
Layer_0
  10
376.92426
  20
249.28049
  0
VERTEX
  5
809
  8
Layer_0
  10
376.49304
  20
249.06107
  0
VERTEX
  5
80a
  8
Layer_0
  10
376.03912
  20
248.8526
  0
VERTEX
  5
80b
  8
Layer_0
  10
375.61505
  20
248.67896
  0
VERTEX
  5
80c
  8
Layer_0
  10
375.22128
  20
248.53664
  0
VERTEX
  5
80d
  8
Layer_0
  10
374.86319
  20
248.42395
  0
VERTEX
  5
80e
  8
Layer_0
  10
374.54013
  20
248.33693
  0
VERTEX
  5
80f
  8
Layer_0
  10
374.25357
  20
248.27245
  0
VERTEX
  5
810
  8
Layer_0
  10
374.00534
  20
248.2274
  0
VERTEX
  5
811
  8
Layer_0
  10
373.79608
  20
248.19838
  0
VERTEX
  5
812
  8
Layer_0
  10
373.62646
  20
248.18202
  0
VERTEX
  5
813
  8
Layer_0
  10
373.35342
  20
248.1662
  0
VERTEX
  5
814
  8
Layer_0
  10
373.24588
  20
248.15274
  0
VERTEX
  5
815
  8
Layer_0
  10
373.14923
  20
248.13422
  0
VERTEX
  5
816
  8
Layer_0
  10
373.06366
  20
248.11104
  0
VERTEX
  5
817
  8
Layer_0
  10
372.98926
  20
248.08369
  0
VERTEX
  5
818
  8
Layer_0
  10
372.92624
  20
248.05261
  0
VERTEX
  5
819
  8
Layer_0
  10
372.87466
  20
248.0183
  0
VERTEX
  5
81a
  8
Layer_0
  10
372.83463
  20
247.98119
  0
VERTEX
  5
81b
  8
Layer_0
  10
372.80627
  20
247.94176
  0
VERTEX
  5
81c
  8
Layer_0
  10
372.78961
  20
247.90048
  0
VERTEX
  5
81d
  8
Layer_0
  10
372.77637
  20
247.7802
  0
VERTEX
  5
81e
  8
Layer_0
  10
372.70291
  20
247.1236
  0
VERTEX
  5
81f
  8
Layer_0
  10
372.61075
  20
246.46938
  0
VERTEX
  5
820
  8
Layer_0
  10
372.59369
  20
246.34956
  0
VERTEX
  5
821
  8
Layer_0
  10
372.59955
  20
246.30545
  0
VERTEX
  5
822
  8
Layer_0
  10
372.61722
  20
246.26021
  0
VERTEX
  5
823
  8
Layer_0
  10
372.64676
  20
246.21429
  0
VERTEX
  5
824
  8
Layer_0
  10
372.6882
  20
246.16823
  0
VERTEX
  5
825
  8
Layer_0
  10
372.74152
  20
246.12247
  0
VERTEX
  5
826
  8
Layer_0
  10
372.80676
  20
246.07748
  0
VERTEX
  5
827
  8
Layer_0
  10
372.88388
  20
246.03375
  0
VERTEX
  5
828
  8
Layer_0
  10
372.97287
  20
245.99176
  0
VERTEX
  5
829
  8
Layer_0
  10
373.0737
  20
245.952
  0
VERTEX
  5
82a
  8
Layer_0
  10
373.33423
  20
245.86876
  0
VERTEX
  5
82b
  8
Layer_0
  10
373.49445
  20
245.81073
  0
VERTEX
  5
82c
  8
Layer_0
  10
373.68991
  20
245.73059
  0
VERTEX
  5
82d
  8
Layer_0
  10
373.91916
  20
245.62521
  0
VERTEX
  5
82e
  8
Layer_0
  10
374.18066
  20
245.49149
  0
VERTEX
  5
82f
  8
Layer_0
  10
374.47192
  20
245.32687
  0
VERTEX
  5
830
  8
Layer_0
  10
374.79074
  20
245.12866
  0
VERTEX
  5
831
  8
Layer_0
  10
375.13678
  20
244.8929
  0
VERTEX
  5
832
  8
Layer_0
  10
375.5043
  20
244.61925
  0
VERTEX
  5
833
  8
Layer_0
  10
375.89215
  20
244.30444
  0
VERTEX
  5
834
  8
Layer_0
  10
376.25525
  20
243.98468
  0
SEQEND
  0
POLYLINE
  5
836
  8
Layer_0
  62
7
  66
1
  10
0
  20
0
  30
0
  0
VERTEX
  5
836
  8
Layer_0
  10
375.89737
  20
242.59085
  42
0.013327292
  0
VERTEX
  5
837
  8
Layer_0
  10
376.25525
  20
243.98468
  0
SEQEND
  0
POLYLINE
  5
839
  8
Layer_0
  62
7
  66
1
  10
0
  20
0
  30
0
  0
VERTEX
  5
839
  8
Layer_0
  10
375.89737
  20
242.59085
  0
VERTEX
  5
83a
  8
Layer_0
  10
375.42514
  20
242.48557
  0
VERTEX
  5
83b
  8
Layer_0
  10
374.93362
  20
242.39655
  0
VERTEX
  5
83c
  8
Layer_0
  10
374.47971
  20
242.3338
  0
VERTEX
  5
83d
  8
Layer_0
  10
374.0629
  20
242.29388
  0
VERTEX
  5
83e
  8
Layer_0
  10
373.68805
  20
242.2738
  0
VERTEX
  5
83f
  8
Layer_0
  10
373.35349
  20
242.26987
  0
VERTEX
  5
840
  8
Layer_0
  10
373.05991
  20
242.27866
  0
VERTEX
  5
841
  8
Layer_0
  10
372.80826
  20
242.29675
  0
VERTEX
  5
842
  8
Layer_0
  10
372.59836
  20
242.32068
  0
VERTEX
  5
843
  8
Layer_0
  10
372.42999
  20
242.34705
  0
VERTEX
  5
844
  8
Layer_0
  10
372.16159
  20
242.3996
  0
VERTEX
  5
845
  8
Layer_0
  10
372.05408
  20
242.41333
  0
VERTEX
  5
846
  8
Layer_0
  10
371.95587
  20
242.4194
  0
VERTEX
  5
847
  8
Layer_0
  10
371.86722
  20
242.41824
  0
VERTEX
  5
848
  8
Layer_0
  10
371.78839
  20
242.41025
  0
VERTEX
  5
849
  8
Layer_0
  10
371.7196
  20
242.39584
  0
VERTEX
  5
84a
  8
Layer_0
  10
371.6611
  20
242.37543
  0
VERTEX
  5
84b
  8
Layer_0
  10
371.6131
  20
242.34943
  0
VERTEX
  5
84c
  8
Layer_0
  10
371.57584
  20
242.3183
  0
VERTEX
  5
84d
  8
Layer_0
  10
371.54944
  20
242.28244
  0
VERTEX
  5
84e
  8
Layer_0
  10
371.50668
  20
242.16925
  0
VERTEX
  5
84f
  8
Layer_0
  10
371.27225
  20
241.55154
  0
VERTEX
  5
850
  8
Layer_0
  10
371.02029
  20
240.9408
  0
VERTEX
  5
851
  8
Layer_0
  10
370.97397
  20
240.82898
  0
VERTEX
  5
852
  8
Layer_0
  10
370.96869
  20
240.78479
  0
VERTEX
  5
853
  8
Layer_0
  10
370.97455
  20
240.73657
  0
VERTEX
  5
854
  8
Layer_0
  10
370.99173
  20
240.68478
  0
VERTEX
  5
855
  8
Layer_0
  10
371.02039
  20
240.62985
  0
VERTEX
  5
856
  8
Layer_0
  10
371.06067
  20
240.57227
  0
VERTEX
  5
857
  8
Layer_0
  10
371.11267
  20
240.51245
  0
VERTEX
  5
858
  8
Layer_0
  10
371.17651
  20
240.45093
  0
VERTEX
  5
859
  8
Layer_0
  10
371.25226
  20
240.38812
  0
VERTEX
  5
85a
  8
Layer_0
  10
371.34003
  20
240.32452
  0
VERTEX
  5
85b
  8
Layer_0
  10
371.57166
  20
240.17911
  0
VERTEX
  5
85c
  8
Layer_0
  10
371.71243
  20
240.08307
  0
VERTEX
  5
85d
  8
Layer_0
  10
371.88181
  20
239.95682
  0
VERTEX
  5
85e
  8
Layer_0
  10
372.07764
  20
239.79776
  0
VERTEX
  5
85f
  8
Layer_0
  10
372.2977
  20
239.60321
  0
VERTEX
  5
860
  8
Layer_0
  10
372.53888
  20
239.37131
  0
VERTEX
  5
861
  8
Layer_0
  10
372.79837
  20
239.10007
  0
VERTEX
  5
862
  8
Layer_0
  10
373.07489
  20
238.78564
  0
VERTEX
  5
863
  8
Layer_0
  10
373.36282
  20
238.4292
  0
VERTEX
  5
864
  8
Layer_0
  10
373.66019
  20
238.02783
  0
VERTEX
  5
865
  8
Layer_0
  10
373.93237
  20
237.62781
  0
SEQEND
  0
POLYLINE
  5
867
  8
Layer_0
  62
7
  66
1
  10
0
  20
0
  30
0
  0
VERTEX
  5
867
  8
Layer_0
  10
373.23911
  20
236.36676
  42
0.013326804
  0
VERTEX
  5
868
  8
Layer_0
  10
373.93237
  20
237.62781
  0
SEQEND
  0
POLYLINE
  5
86a
  8
Layer_0
  62
7
  66
1
  10
0
  20
0
  30
0
  0
VERTEX
  5
86a
  8
Layer_0
  10
373.23911
  20
236.36676
  0
VERTEX
  5
86b
  8
Layer_0
  10
372.75552
  20
236.38223
  0
VERTEX
  5
86c
  8
Layer_0
  10
372.25729
  20
236.41824
  0
VERTEX
  5
86d
  8
Layer_0
  10
371.80206
  20
236.47034
  0
VERTEX
  5
86e
  8
Layer_0
  10
371.38843
  20
236.53534
  0
VERTEX
  5
86f
  8
Layer_0
  10
371.02032
  20
236.6091
  0
VERTEX
  5
870
  8
Layer_0
  10
370.69531
  20
236.68851
  0
VERTEX
  5
871
  8
Layer_0
  10
370.41315
  20
236.77005
  0
VERTEX
  5
872
  8
Layer_0
  10
370.17389
  20
236.85016
  0
VERTEX
  5
873
  8
Layer_0
  10
369.97653
  20
236.92554
  0
VERTEX
  5
874
  8
Layer_0
  10
369.82004
  20
236.99292
  0
VERTEX
  5
875
  8
Layer_0
  10
369.57312
  20
237.11057
  0
VERTEX
  5
876
  8
Layer_0
  10
369.47241
  20
237.1506
  0
VERTEX
  5
877
  8
Layer_0
  10
369.37881
  20
237.18091
  0
VERTEX
  5
878
  8
Layer_0
  10
369.29263
  20
237.20184
  0
VERTEX
  5
879
  8
Layer_0
  10
369.21429
  20
237.21371
  0
VERTEX
  5
87a
  8
Layer_0
  10
369.14407
  20
237.21683
  0
VERTEX
  5
87b
  8
Layer_0
  10
369.08234
  20
237.21161
  0
VERTEX
  5
87c
  8
Layer_0
  10
369.02939
  20
237.19836
  0
VERTEX
  5
87d
  8
Layer_0
  10
368.98553
  20
237.17749
  0
VERTEX
  5
87e
  8
Layer_0
  10
368.95108
  20
237.14935
  0
VERTEX
  5
87f
  8
Layer_0
  10
368.8815
  20
237.05032
  0
VERTEX
  5
880
  8
Layer_0
  10
368.50082
  20
236.51031
  0
VERTEX
  5
881
  8
Layer_0
  10
368.10489
  20
235.98141
  0
VERTEX
  5
882
  8
Layer_0
  10
368.03223
  20
235.88464
  0
VERTEX
  5
883
  8
Layer_0
  10
368.01611
  20
235.84317
  0
VERTEX
  5
884
  8
Layer_0
  10
368.0098
  20
235.79501
  0
VERTEX
  5
885
  8
Layer_0
  10
368.01355
  20
235.74057
  0
VERTEX
  5
886
  8
Layer_0
  10
368.02768
  20
235.68024
  0
VERTEX
  5
887
  8
Layer_0
  10
368.05234
  20
235.61444
  0
VERTEX
  5
888
  8
Layer_0
  10
368.08783
  20
235.54358
  0
VERTEX
  5
889
  8
Layer_0
  10
368.13437
  20
235.46811
  0
VERTEX
  5
88a
  8
Layer_0
  10
368.19214
  20
235.38843
  0
VERTEX
  5
88b
  8
Layer_0
  10
368.26132
  20
235.30502
  0
VERTEX
  5
88c
  8
Layer_0
  10
368.44952
  20
235.10657
  0
VERTEX
  5
88d
  8
Layer_0
  10
368.56198
  20
234.97852
  0
VERTEX
  5
88e
  8
Layer_0
  10
368.69464
  20
234.81412
  0
VERTEX
  5
88f
  8
Layer_0
  10
368.84476
  20
234.61136
  0
VERTEX
  5
890
  8
Layer_0
  10
369.00952
  20
234.36819
  0
VERTEX
  5
891
  8
Layer_0
  10
369.18546
  20
234.08362
  0
VERTEX
  5
892
  8
Layer_0
  10
369.36932
  20
233.75635
  0
VERTEX
  5
893
  8
Layer_0
  10
369.55899
  20
233.38303
  0
VERTEX
  5
894
  8
Layer_0
  10
369.74924
  20
232.96616
  0
VERTEX
  5
895
  8
Layer_0
  10
369.93741
  20
232.50348
  0
VERTEX
  5
896
  8
Layer_0
  10
370.10156
  20
232.04831
  0
SEQEND
  0
POLYLINE
  5
898
  8
Layer_0
  62
7
  66
1
  10
0
  20
0
  30
0
  0
VERTEX
  5
898
  8
Layer_0
  10
369.11649
  20
230.9993
  42
0.013326882
  0
VERTEX
  5
899
  8
Layer_0
  10
370.10156
  20
232.04831
  0
SEQEND
  0
POLYLINE
  5
89b
  8
Layer_0
  62
7
  66
1
  10
0
  20
0
  30
0
  0
VERTEX
  5
89b
  8
Layer_0
  10
369.11649
  20
230.9993
  0
VERTEX
  5
89c
  8
Layer_0
  10
368.65192
  20
231.13455
  0
VERTEX
  5
89d
  8
Layer_0
  10
368.17831
  20
231.29333
  0
VERTEX
  5
89e
  8
Layer_0
  10
367.75034
  20
231.45703
  0
VERTEX
  5
89f
  8
Layer_0
  10
367.36584
  20
231.62283
  0
VERTEX
  5
8a0
  8
Layer_0
  10
367.02768
  20
231.78583
  0
VERTEX
  5
8a1
  8
Layer_0
  10
366.7326
  20
231.94354
  0
VERTEX
  5
8a2
  8
Layer_0
  10
366.47958
  20
232.09271
  0
VERTEX
  5
8a3
  8
Layer_0
  10
366.26779
  20
232.2298
  0
VERTEX
  5
8a4
  8
Layer_0
  10
366.09537
  20
232.35187
  0
VERTEX
  5
8a5
  8
Layer_0
  10
365.96054
  20
232.45605
  0
VERTEX
  5
8a6
  8
Layer_0
  10
365.75067
  20
232.63144
  0
VERTEX
  5
8a7
  8
Layer_0
  10
365.66306
  20
232.69525
  0
VERTEX
  5
8a8
  8
Layer_0
  10
365.57993
  20
232.74789
  0
VERTEX
  5
8a9
  8
Layer_0
  10
365.50168
  20
232.78958
  0
VERTEX
  5
8aa
  8
Layer_0
  10
365.42874
  20
232.82056
  0
VERTEX
  5
8ab
  8
Layer_0
  10
365.36151
  20
232.84106
  0
VERTEX
  5
8ac
  8
Layer_0
  10
365.30042
  20
232.85138
  0
VERTEX
  5
8ad
  8
Layer_0
  10
365.24585
  20
232.85172
  0
VERTEX
  5
8ae
  8
Layer_0
  10
365.19818
  20
232.84238
  0
VERTEX
  5
8af
  8
Layer_0
  10
365.15778
  20
232.82367
  0
VERTEX
  5
8b0
  8
Layer_0
  10
365.06577
  20
232.74509
  0
VERTEX
  5
8b1
  8
Layer_0
  10
364.56277
  20
232.31671
  0
VERTEX
  5
8b2
  8
Layer_0
  10
364.04773
  20
231.90289
  0
VERTEX
  5
8b3
  8
Layer_0
  10
363.95328
  20
231.82724
  0
VERTEX
  5
8b4
  8
Layer_0
  10
363.92734
  20
231.79108
  0
VERTEX
  5
8b5
  8
Layer_0
  10
363.90927
  20
231.746
  0
VERTEX
  5
8b6
  8
Layer_0
  10
363.89935
  20
231.69232
  0
VERTEX
  5
8b7
  8
Layer_0
  10
363.89804
  20
231.63037
  0
VERTEX
  5
8b8
  8
Layer_0
  10
363.90558
  20
231.56049
  0
VERTEX
  5
8b9
  8
Layer_0
  10
363.92233
  20
231.48306
  0
VERTEX
  5
8ba
  8
Layer_0
  10
363.94864
  20
231.39838
  0
VERTEX
  5
8bb
  8
Layer_0
  10
363.98477
  20
231.30685
  0
VERTEX
  5
8bc
  8
Layer_0
  10
364.03104
  20
231.20883
  0
VERTEX
  5
8bd
  8
Layer_0
  10
364.16397
  20
230.96982
  0
VERTEX
  5
8be
  8
Layer_0
  10
364.24106
  20
230.81784
  0
VERTEX
  5
8bf
  8
Layer_0
  10
364.32867
  20
230.62561
  0
VERTEX
  5
8c0
  8
Layer_0
  10
364.42365
  20
230.39188
  0
VERTEX
  5
8c1
  8
Layer_0
  10
364.52274
  20
230.11536
  0
VERTEX
  5
8c2
  8
Layer_0
  10
364.62238
  20
229.79599
  0
VERTEX
  5
8c3
  8
Layer_0
  10
364.71909
  20
229.43326
  0
VERTEX
  5
8c4
  8
Layer_0
  10
364.80994
  20
229.02451
  0
VERTEX
  5
8c5
  8
Layer_0
  10
364.89053
  20
228.57343
  0
VERTEX
  5
8c6
  8
Layer_0
  10
364.95776
  20
228.07846
  0
VERTEX
  5
8c7
  8
Layer_0
  10
365.00357
  20
227.5968
  0
SEQEND
  0
POLYLINE
  5
8c9
  8
Layer_0
  62
7
  66
1
  10
0
  20
0
  30
0
  0
VERTEX
  5
8c9
  8
Layer_0
  10
363.78854
  20
226.82571
  42
0.013326426
  0
VERTEX
  5
8ca
  8
Layer_0
  10
365.00357
  20
227.5968
  0
SEQEND
  0
POLYLINE
  5
8cc
  8
Layer_0
  62
7
  66
1
  10
0
  20
0
  30
0
  0
VERTEX
  5
8cc
  8
Layer_0
  10
363.78854
  20
226.82571
  0
VERTEX
  5
8cd
  8
Layer_0
  10
363.37222
  20
227.07227
  0
VERTEX
  5
8ce
  8
Layer_0
  10
362.95297
  20
227.34381
  0
VERTEX
  5
8cf
  8
Layer_0
  10
362.57913
  20
227.6088
  0
VERTEX
  5
8d0
  8
Layer_0
  10
362.24799
  20
227.86505
  0
VERTEX
  5
8d1
  8
Layer_0
  10
361.96097
  20
228.10699
  0
VERTEX
  5
8d2
  8
Layer_0
  10
361.71439
  20
228.33313
  0
VERTEX
  5
8d3
  8
Layer_0
  10
361.50641
  20
228.54053
  0
VERTEX
  5
8d4
  8
Layer_0
  10
361.33536
  20
228.72598
  0
VERTEX
  5
8d5
  8
Layer_0
  10
361.19873
  20
228.88712
  0
VERTEX
  5
8d6
  8
Layer_0
  10
361.09402
  20
229.02158
  0
VERTEX
  5
8d7
  8
Layer_0
  10
360.93436
  20
229.24362
  0
VERTEX
  5
8d8
  8
Layer_0
  10
360.86539
  20
229.32724
  0
VERTEX
  5
8d9
  8
Layer_0
  10
360.79794
  20
229.3989
  0
VERTEX
  5
8da
  8
Layer_0
  10
360.73251
  20
229.45874
  0
VERTEX
  5
8db
  8
Layer_0
  10
360.66959
  20
229.50687
  0
VERTEX
  5
8dc
  8
Layer_0
  10
360.60959
  20
229.54346
  0
VERTEX
  5
8dd
  8
Layer_0
  10
360.55295
  20
229.5686
  0
VERTEX
  5
8de
  8
Layer_0
  10
360.50018
  20
229.58252
  0
VERTEX
  5
8df
  8
Layer_0
  10
360.45169
  20
229.58533
  0
VERTEX
  5
8e0
  8
Layer_0
  10
360.40793
  20
229.57727
  0
VERTEX
  5
8e1
  8
Layer_0
  10
360.29926
  20
229.52402
  0
VERTEX
  5
8e2
  8
Layer_0
  10
359.70551
  20
229.23422
  0
VERTEX
  5
8e3
  8
Layer_0
  10
359.10376
  20
228.96149
  0
VERTEX
  5
8e4
  8
Layer_0
  10
358.99347
  20
228.91168
  0
VERTEX
  5
8e5
  8
Layer_0
  10
358.95935
  20
228.88309
  0
VERTEX
  5
8e6
  8
Layer_0
  10
358.9306
  20
228.84393
  0
VERTEX
  5
8e7
  8
Layer_0
  10
358.90768
  20
228.7944
  0
VERTEX
  5
8e8
  8
Layer_0
  10
358.89099
  20
228.73474
  0
VERTEX
  5
8e9
  8
Layer_0
  10
358.88092
  20
228.66519
  0
VERTEX
  5
8ea
  8
Layer_0
  10
358.87787
  20
228.586
  0
VERTEX
  5
8eb
  8
Layer_0
  10
358.88229
  20
228.49744
  0
VERTEX
  5
8ec
  8
Layer_0
  10
358.89453
  20
228.39981
  0
VERTEX
  5
8ed
  8
Layer_0
  10
358.91498
  20
228.29337
  0
VERTEX
  5
8ee
  8
Layer_0
  10
358.98428
  20
228.02881
  0
VERTEX
  5
8ef
  8
Layer_0
  10
359.02115
  20
227.86243
  0
VERTEX
  5
8f0
  8
Layer_0
  10
359.05823
  20
227.65445
  0
VERTEX
  5
8f1
  8
Layer_0
  10
359.09207
  20
227.40445
  0
VERTEX
  5
8f2
  8
Layer_0
  10
359.11929
  20
227.11197
  0
VERTEX
  5
8f3
  8
Layer_0
  10
359.13638
  20
226.77786
  0
VERTEX
  5
8f4
  8
Layer_0
  10
359.13986
  20
226.40247
  0
VERTEX
  5
8f5
  8
Layer_0
  10
359.12619
  20
225.98398
  0
VERTEX
  5
8f6
  8
Layer_0
  10
359.09207
  20
225.52701
  0
VERTEX
  5
8f7
  8
Layer_0
  10
359.03409
  20
225.03088
  0
VERTEX
  5
8f8
  8
Layer_0
  10
358.95868
  20
224.55295
  0
SEQEND
  0
POLYLINE
  5
8fa
  8
Layer_0
  62
7
  66
1
  10
0
  20
0
  30
0
  0
VERTEX
  5
8fa
  8
Layer_0
  10
357.59006
  20
224.10828
  42
0.013324768
  0
VERTEX
  5
8fb
  8
Layer_0
  10
358.95868
  20
224.55295
  0
SEQEND
  0
POLYLINE
  5
8fd
  8
Layer_0
  62
7
  66
1
  10
0
  20
0
  30
0
  0
VERTEX
  5
8fd
  8
Layer_0
  10
357.59006
  20
224.10828
  0
VERTEX
  5
8fe
  8
Layer_0
  10
357.24814
  20
224.45059
  0
VERTEX
  5
8ff
  8
Layer_0
  10
356.90961
  20
224.81787
  0
VERTEX
  5
900
  8
Layer_0
  10
356.6134
  20
225.16751
  0
VERTEX
  5
901
  8
Layer_0
  10
356.35638
  20
225.49805
  0
VERTEX
  5
902
  8
Layer_0
  10
356.13855
  20
225.8038
  0
VERTEX
  5
903
  8
Layer_0
  10
355.95596
  20
226.08414
  0
VERTEX
  5
904
  8
Layer_0
  10
355.80609
  20
226.33676
  0
VERTEX
  5
905
  8
Layer_0
  10
355.68652
  20
226.55893
  0
VERTEX
  5
906
  8
Layer_0
  10
355.59427
  20
226.74896
  0
VERTEX
  5
907
  8
Layer_0
  10
355.52631
  20
226.90524
  0
VERTEX
  5
908
  8
Layer_0
  10
355.42685
  20
227.16003
  0
VERTEX
  5
909
  8
Layer_0
  10
355.38083
  20
227.25815
  0
VERTEX
  5
90a
  8
Layer_0
  10
355.33334
  20
227.34433
  0
VERTEX
  5
90b
  8
Layer_0
  10
355.28485
  20
227.41858
  0
VERTEX
  5
90c
  8
Layer_0
  10
355.23587
  20
227.48083
  0
VERTEX
  5
90d
  8
Layer_0
  10
355.18683
  20
227.53119
  0
VERTEX
  5
90e
  8
Layer_0
  10
355.13828
  20
227.56964
  0
VERTEX
  5
90f
  8
Layer_0
  10
355.09061
  20
227.59625
  0
VERTEX
  5
910
  8
Layer_0
  10
355.04434
  20
227.61102
  0
VERTEX
  5
911
  8
Layer_0
  10
354.99994
  20
227.61411
  0
VERTEX
  5
912
  8
Layer_0
  10
354.88144
  20
227.58957
  0
VERTEX
  5
913
  8
Layer_0
  10
354.23428
  20
227.45651
  0
VERTEX
  5
914
  8
Layer_0
  10
353.58359
  20
227.34198
  0
VERTEX
  5
915
  8
Layer_0
  10
353.46439
  20
227.3212
  0
VERTEX
  5
916
  8
Layer_0
  10
353.42422
  20
227.30197
  0
VERTEX
  5
917
  8
Layer_0
  10
353.38666
  20
227.27121
  0
VERTEX
  5
918
  8
Layer_0
  10
353.35214
  20
227.22894
  0
VERTEX
  5
919
  8
Layer_0
  10
353.32114
  20
227.17529
  0
VERTEX
  5
91a
  8
Layer_0
  10
353.29407
  20
227.11041
  0
VERTEX
  5
91b
  8
Layer_0
  10
353.27145
  20
227.03448
  0
VERTEX
  5
91c
  8
Layer_0
  10
353.25369
  20
226.9476
  0
VERTEX
  5
91d
  8
Layer_0
  10
353.24127
  20
226.85001
  0
VERTEX
  5
91e
  8
Layer_0
  10
353.23459
  20
226.74182
  0
VERTEX
  5
91f
  8
Layer_0
  10
353.23593
  20
226.46832
  0
VERTEX
  5
920
  8
Layer_0
  10
353.23026
  20
226.298
  0
VERTEX
  5
921
  8
Layer_0
  10
353.21445
  20
226.08734
  0
VERTEX
  5
922
  8
Layer_0
  10
353.18506
  20
225.83676
  0
VERTEX
  5
923
  8
Layer_0
  10
353.1387
  20
225.54672
  0
VERTEX
  5
924
  8
Layer_0
  10
353.07214
  20
225.21884
  0
VERTEX
  5
925
  8
Layer_0
  10
352.98215
  20
224.8544
  0
VERTEX
  5
926
  8
Layer_0
  10
352.86487
  20
224.45245
  0
VERTEX
  5
927
  8
Layer_0
  10
352.71817
  20
224.01834
  0
VERTEX
  5
928
  8
Layer_0
  10
352.53864
  20
223.55222
  0
VERTEX
  5
929
  8
Layer_0
  10
352.34671
  20
223.10806
  0
SEQEND
  0
POLYLINE
  5
92b
  8
Layer_0
  62
7
  66
1
  10
0
  20
0
  30
0
  0
VERTEX
  5
92b
  8
Layer_0
  10
350.91052
  20
223.0177
  42
0.013324799
  0
VERTEX
  5
92c
  8
Layer_0
  10
352.34671
  20
223.10806
  0
SEQEND
  0
POLYLINE
  5
92e
  8
Layer_0
  62
7
  66
1
  10
0
  20
0
  30
0
  0
VERTEX
  5
92e
  8
Layer_0
  10
350.91052
  20
223.0177
  0
VERTEX
  5
92f
  8
Layer_0
  10
350.66446
  20
223.4343
  0
VERTEX
  5
930
  8
Layer_0
  10
350.42792
  20
223.87424
  0
VERTEX
  5
931
  8
Layer_0
  10
350.22797
  20
224.28656
  0
VERTEX
  5
932
  8
Layer_0
  10
350.06122
  20
224.67062
  0
VERTEX
  5
933
  8
Layer_0
  10
349.92627
  20
225.02094
  0
VERTEX
  5
934
  8
Layer_0
  10
349.81915
  20
225.33789
  0
VERTEX
  5
935
  8
Layer_0
  10
349.73679
  20
225.61981
  0
VERTEX
  5
936
  8
Layer_0
  10
349.67624
  20
225.86475
  0
VERTEX
  5
937
  8
Layer_0
  10
349.63412
  20
226.07178
  0
VERTEX
  5
938
  8
Layer_0
  10
349.60718
  20
226.24002
  0
VERTEX
  5
939
  8
Layer_0
  10
349.57422
  20
226.51154
  0
VERTEX
  5
93a
  8
Layer_0
  10
349.55405
  20
226.61801
  0
VERTEX
  5
93b
  8
Layer_0
  10
349.52948
  20
226.71329
  0
VERTEX
  5
93c
  8
Layer_0
  10
349.50098
  20
226.79727
  0
VERTEX
  5
93d
  8
Layer_0
  10
349.46902
  20
226.86978
  0
VERTEX
  5
93e
  8
Layer_0
  10
349.43405
  20
226.93073
  0
VERTEX
  5
93f
  8
Layer_0
  10
349.39655
  20
226.98007
  0
VERTEX
  5
940
  8
Layer_0
  10
349.35699
  20
227.01767
  0
VERTEX
  5
941
  8
Layer_0
  10
349.31586
  20
227.04352
  0
VERTEX
  5
942
  8
Layer_0
  10
349.27362
  20
227.05753
  0
VERTEX
  5
943
  8
Layer_0
  10
349.15274
  20
227.06323
  0
VERTEX
  5
944
  8
Layer_0
  10
348.49283
  20
227.09528
  0
VERTEX
  5
945
  8
Layer_0
  10
347.83411
  20
227.14618
  0
VERTEX
  5
946
  8
Layer_0
  10
347.71347
  20
227.15567
  0
VERTEX
  5
947
  8
Layer_0
  10
347.6698
  20
227.14706
  0
VERTEX
  5
948
  8
Layer_0
  10
347.62576
  20
227.12659
  0
VERTEX
  5
949
  8
Layer_0
  10
347.58182
  20
227.09424
  0
VERTEX
  5
94a
  8
Layer_0
  10
347.53842
  20
227.04999
  0
VERTEX
  5
94b
  8
Layer_0
  10
347.49609
  20
226.9939
  0
VERTEX
  5
94c
  8
Layer_0
  10
347.45529
  20
226.92596
  0
VERTEX
  5
94d
  8
Layer_0
  10
347.4165
  20
226.84625
  0
VERTEX
  5
94e
  8
Layer_0
  10
347.38019
  20
226.75479
  0
VERTEX
  5
94f
  8
Layer_0
  10
347.34683
  20
226.65167
  0
VERTEX
  5
950
  8
Layer_0
  10
347.28012
  20
226.38641
  0
VERTEX
  5
951
  8
Layer_0
  10
347.23227
  20
226.22287
  0
VERTEX
  5
952
  8
Layer_0
  10
347.16455
  20
226.02277
  0
VERTEX
  5
953
  8
Layer_0
  10
347.07376
  20
225.78735
  0
VERTEX
  5
954
  8
Layer_0
  10
346.95673
  20
225.51797
  0
VERTEX
  5
955
  8
Layer_0
  10
346.81073
  20
225.21695
  0
VERTEX
  5
956
  8
Layer_0
  10
346.63293
  20
224.88632
  0
VERTEX
  5
957
  8
Layer_0
  10
346.41937
  20
224.52615
  0
VERTEX
  5
958
  8
Layer_0
  10
346.16931
  20
224.14215
  0
VERTEX
  5
959
  8
Layer_0
  10
345.87949
  20
223.73535
  0
VERTEX
  5
95a
  8
Layer_0
  10
345.58316
  20
223.35287
  0
SEQEND
  0
POLYLINE
  5
95c
  8
Layer_0
  62
7
  66
1
  10
0
  20
0
  30
0
  0
VERTEX
  5
95c
  8
Layer_0
  10
344.16962
  20
223.6225
  42
0.013323468
  0
VERTEX
  5
95d
  8
Layer_0
  10
345.58316
  20
223.35287
  0
SEQEND
  0
POLYLINE
  5
95f
  8
Layer_0
  62
7
  66
1
  10
0
  20
0
  30
0
  0
VERTEX
  5
95f
  8
Layer_0
  10
344.16962
  20
223.6225
  0
VERTEX
  5
960
  8
Layer_0
  10
344.03488
  20
224.08722
  0
VERTEX
  5
961
  8
Layer_0
  10
343.91516
  20
224.57217
  0
VERTEX
  5
962
  8
Layer_0
  10
343.82407
  20
225.02124
  0
VERTEX
  5
963
  8
Layer_0
  10
343.75806
  20
225.43472
  0
VERTEX
  5
964
  8
Layer_0
  10
343.71448
  20
225.80759
  0
VERTEX
  5
965
  8
Layer_0
  10
343.68951
  20
226.14124
  0
VERTEX
  5
966
  8
Layer_0
  10
343.67987
  20
226.43478
  0
VERTEX
  5
967
  8
Layer_0
  10
343.68213
  20
226.68707
  0
VERTEX
  5
968
  8
Layer_0
  10
343.69284
  20
226.89807
  0
VERTEX
  5
969
  8
Layer_0
  10
343.70856
  20
227.06775
  0
VERTEX
  5
96a
  8
Layer_0
  10
343.74417
  20
227.33893
  0
VERTEX
  5
96b
  8
Layer_0
  10
343.75113
  20
227.44708
  0
VERTEX
  5
96c
  8
Layer_0
  10
343.75101
  20
227.54547
  0
VERTEX
  5
96d
  8
Layer_0
  10
343.74429
  20
227.63388
  0
VERTEX
  5
96e
  8
Layer_0
  10
343.73135
  20
227.71207
  0
VERTEX
  5
96f
  8
Layer_0
  10
343.71265
  20
227.77979
  0
VERTEX
  5
970
  8
Layer_0
  10
343.6886
  20
227.83691
  0
VERTEX
  5
971
  8
Layer_0
  10
343.65964
  20
227.88318
  0
VERTEX
  5
972
  8
Layer_0
  10
343.62625
  20
227.91843
  0
VERTEX
  5
973
  8
Layer_0
  10
343.58881
  20
227.9425
  0
VERTEX
  5
974
  8
Layer_0
  10
343.47314
  20
227.97809
  0
VERTEX
  5
975
  8
Layer_0
  10
342.84195
  20
228.17325
  0
VERTEX
  5
976
  8
Layer_0
  10
342.21658
  20
228.38635
  0
VERTEX
  5
977
  8
Layer_0
  10
342.10208
  20
228.42557
  0
VERTEX
  5
978
  8
Layer_0
  10
342.05765
  20
228.4281
  0
VERTEX
  5
979
  8
Layer_0
  10
342.00989
  20
228.41922
  0
VERTEX
  5
97a
  8
Layer_0
  10
341.95926
  20
228.3988
  0
VERTEX
  5
97b
  8
Layer_0
  10
341.90625
  20
228.36673
  0
VERTEX
  5
97c
  8
Layer_0
  10
341.85129
  20
228.32294
  0
VERTEX
  5
97d
  8
Layer_0
  10
341.79489
  20
228.26727
  0
VERTEX
  5
97e
  8
Layer_0
  10
341.73749
  20
228.19971
  0
VERTEX
  5
97f
  8
Layer_0
  10
341.67957
  20
228.12015
  0
VERTEX
  5
980
  8
Layer_0
  10
341.62161
  20
228.02856
  0
VERTEX
  5
981
  8
Layer_0
  10
341.49103
  20
227.78827
  0
VERTEX
  5
982
  8
Layer_0
  10
341.40402
  20
227.64175
  0
VERTEX
  5
983
  8
Layer_0
  10
341.28867
  20
227.46475
  0
VERTEX
  5
984
  8
Layer_0
  10
341.14218
  20
227.25934
  0
VERTEX
  5
985
  8
Layer_0
  10
340.96182
  20
227.0275
  0
VERTEX
  5
986
  8
Layer_0
  10
340.74554
  20
226.77225
  0
VERTEX
  5
987
  8
Layer_0
  10
340.49112
  20
226.49622
  0
VERTEX
  5
988
  8
Layer_0
  10
340.1947
  20
226.2005
  0
VERTEX
  5
989
  8
Layer_0
  10
339.85703
  20
225.89075
  0
VERTEX
  5
98a
  8
Layer_0
  10
339.47513
  20
225.56879
  0
VERTEX
  5
98b
  8
Layer_0
  10
339.09296
  20
225.272
  0
SEQEND
  0
POLYLINE
  5
98d
  8
Layer_0
  62
7
  66
1
  10
0
  20
0
  30
0
  0
VERTEX
  5
98d
  8
Layer_0
  10
337.79089
  20
225.88474
  42
0.013327527
  0
VERTEX
  5
98e
  8
Layer_0
  10
339.09296
  20
225.272
  0
SEQEND
  0
POLYLINE
  5
990
  8
Layer_0
  62
7
  66
1
  10
0
  20
0
  30
0
  0
VERTEX
  5
990
  8
Layer_0
  10
337.79089
  20
225.88474
  0
VERTEX
  5
991
  8
Layer_0
  10
337.77597
  20
226.36835
  0
VERTEX
  5
992
  8
Layer_0
  10
337.78061
  20
226.86783
  0
VERTEX
  5
993
  8
Layer_0
  10
337.80405
  20
227.32544
  0
VERTEX
  5
994
  8
Layer_0
  10
337.84296
  20
227.74234
  0
VERTEX
  5
995
  8
Layer_0
  10
337.89346
  20
228.11435
  0
VERTEX
  5
996
  8
Layer_0
  10
337.95227
  20
228.4437
  0
VERTEX
  5
997
  8
Layer_0
  10
338.01593
  20
228.73044
  0
VERTEX
  5
998
  8
Layer_0
  10
338.08087
  20
228.97424
  0
VERTEX
  5
999
  8
Layer_0
  10
338.14371
  20
229.17593
  0
VERTEX
  5
99a
  8
Layer_0
  10
338.20111
  20
229.33636
  0
VERTEX
  5
99b
  8
Layer_0
  10
338.30304
  20
229.59018
  0
VERTEX
  5
99c
  8
Layer_0
  10
338.33667
  20
229.69321
  0
VERTEX
  5
99d
  8
Layer_0
  10
338.36105
  20
229.78854
  0
VERTEX
  5
99e
  8
Layer_0
  10
338.37653
  20
229.87585
  0
VERTEX
  5
99f
  8
Layer_0
  10
338.38345
  20
229.95477
  0
VERTEX
  5
9a0
  8
Layer_0
  10
338.38217
  20
230.02505
  0
VERTEX
  5
9a1
  8
Layer_0
  10
338.37308
  20
230.08633
  0
VERTEX
  5
9a2
  8
Layer_0
  10
338.35654
  20
230.13834
  0
VERTEX
  5
9a3
  8
Layer_0
  10
338.33295
  20
230.18079
  0
VERTEX
  5
9a4
  8
Layer_0
  10
338.30267
  20
230.21344
  0
VERTEX
  5
9a5
  8
Layer_0
  10
338.19949
  20
230.27667
  0
VERTEX
  5
9a6
  8
Layer_0
  10
337.63666
  20
230.62268
  0
VERTEX
  5
9a7
  8
Layer_0
  10
337.08392
  20
230.98462
  0
VERTEX
  5
9a8
  8
Layer_0
  10
336.98279
  20
231.05106
  0
VERTEX
  5
9a9
  8
Layer_0
  10
336.94037
  20
231.06454
  0
VERTEX
  5
9aa
  8
Layer_0
  10
336.89191
  20
231.06781
  0
VERTEX
  5
9ab
  8
Layer_0
  10
336.8378
  20
231.06064
  0
VERTEX
  5
9ac
  8
Layer_0
  10
336.77847
  20
231.04279
  0
VERTEX
  5
9ad
  8
Layer_0
  10
336.71436
  20
231.01401
  0
VERTEX
  5
9ae
  8
Layer_0
  10
336.64587
  20
230.97415
  0
VERTEX
  5
9af
  8
Layer_0
  10
336.57349
  20
230.92297
  0
VERTEX
  5
9b0
  8
Layer_0
  10
336.49759
  20
230.86032
  0
VERTEX
  5
9b1
  8
Layer_0
  10
336.41867
  20
230.78604
  0
VERTEX
  5
9b2
  8
Layer_0
  10
336.23242
  20
230.58572
  0
VERTEX
  5
9b3
  8
Layer_0
  10
336.11172
  20
230.46545
  0
VERTEX
  5
9b4
  8
Layer_0
  10
335.95596
  20
230.32272
  0
VERTEX
  5
9b5
  8
Layer_0
  10
335.76303
  20
230.16019
  0
VERTEX
  5
9b6
  8
Layer_0
  10
335.53067
  20
229.98047
  0
VERTEX
  5
9b7
  8
Layer_0
  10
335.25772
  20
229.78702
  0
VERTEX
  5
9b8
  8
Layer_0
  10
334.94263
  20
229.58295
  0
VERTEX
  5
9b9
  8
Layer_0
  10
334.58197
  20
229.37024
  0
VERTEX
  5
9ba
  8
Layer_0
  10
334.17786
  20
229.15421
  0
VERTEX
  5
9bb
  8
Layer_0
  10
333.72791
  20
228.93732
  0
VERTEX
  5
9bc
  8
Layer_0
  10
333.28397
  20
228.7449
  0
SEQEND
  0
POLYLINE
  5
9be
  8
Layer_0
  62
7
  66
1
  10
0
  20
0
  30
0
  0
VERTEX
  5
9be
  8
Layer_0
  10
332.17517
  20
229.66217
  42
0.013327363
  0
VERTEX
  5
9bf
  8
Layer_0
  10
333.28397
  20
228.7449
  0
SEQEND
  0
POLYLINE
  5
9c1
  8
Layer_0
  62
7
  66
1
  10
0
  20
0
  30
0
  0
VERTEX
  5
9c1
  8
Layer_0
  10
332.17517
  20
229.66217
  0
VERTEX
  5
9c2
  8
Layer_0
  10
332.28098
  20
230.13431
  0
VERTEX
  5
9c3
  8
Layer_0
  10
332.4097
  20
230.61694
  0
VERTEX
  5
9c4
  8
Layer_0
  10
332.5462
  20
231.05438
  0
VERTEX
  5
9c5
  8
Layer_0
  10
332.68756
  20
231.44852
  0
VERTEX
  5
9c6
  8
Layer_0
  10
332.82898
  20
231.79626
  0
VERTEX
  5
9c7
  8
Layer_0
  10
332.96786
  20
232.10065
  0
VERTEX
  5
9c8
  8
Layer_0
  10
333.10083
  20
232.36255
  0
VERTEX
  5
9c9
  8
Layer_0
  10
333.22433
  20
232.58252
  0
VERTEX
  5
9ca
  8
Layer_0
  10
333.33536
  20
232.76227
  0
VERTEX
  5
9cb
  8
Layer_0
  10
333.43088
  20
232.90338
  0
VERTEX
  5
9cc
  8
Layer_0
  10
333.59274
  20
233.12384
  0
VERTEX
  5
9cd
  8
Layer_0
  10
333.65094
  20
233.21527
  0
VERTEX
  5
9ce
  8
Layer_0
  10
333.69824
  20
233.30157
  0
VERTEX
  5
9cf
  8
Layer_0
  10
333.73495
  20
233.38229
  0
VERTEX
  5
9d0
  8
Layer_0
  10
333.76129
  20
233.45703
  0
VERTEX
  5
9d1
  8
Layer_0
  10
333.77753
  20
233.52539
  0
VERTEX
  5
9d2
  8
Layer_0
  10
333.78397
  20
233.58701
  0
VERTEX
  5
9d3
  8
Layer_0
  10
333.78088
  20
233.64151
  0
VERTEX
  5
9d4
  8
Layer_0
  10
333.76855
  20
233.68848
  0
VERTEX
  5
9d5
  8
Layer_0
  10
333.74738
  20
233.72763
  0
VERTEX
  5
9d6
  8
Layer_0
  10
333.66315
  20
233.81451
  0
VERTEX
  5
9d7
  8
Layer_0
  10
333.20404
  20
234.28964
  0
VERTEX
  5
9d8
  8
Layer_0
  10
332.7587
  20
234.77768
  0
VERTEX
  5
9d9
  8
Layer_0
  10
332.67728
  20
234.86719
  0
VERTEX
  5
9da
  8
Layer_0
  10
332.63953
  20
234.89081
  0
VERTEX
  5
9db
  8
Layer_0
  10
332.59341
  20
234.90601
  0
VERTEX
  5
9dc
  8
Layer_0
  10
332.53922
  20
234.91254
  0
VERTEX
  5
9dd
  8
Layer_0
  10
332.47733
  20
234.90997
  0
VERTEX
  5
9de
  8
Layer_0
  10
332.40805
  20
234.89804
  0
VERTEX
  5
9df
  8
Layer_0
  10
332.33182
  20
234.87646
  0
VERTEX
  5
9e0
  8
Layer_0
  10
332.24896
  20
234.84491
  0
VERTEX
  5
9e1
  8
Layer_0
  10
332.15988
  20
234.8031
  0
VERTEX
  5
9e2
  8
Layer_0
  10
332.06497
  20
234.75076
  0
VERTEX
  5
9e3
  8
Layer_0
  10
331.83475
  20
234.60309
  0
VERTEX
  5
9e4
  8
Layer_0
  10
331.68793
  20
234.5166
  0
VERTEX
  5
9e5
  8
Layer_0
  10
331.50159
  20
234.41708
  0
VERTEX
  5
9e6
  8
Layer_0
  10
331.27426
  20
234.30762
  0
VERTEX
  5
9e7
  8
Layer_0
  10
331.00452
  20
234.19138
  0
VERTEX
  5
9e8
  8
Layer_0
  10
330.69202
  20
234.07187
  0
VERTEX
  5
9e9
  8
Layer_0
  10
330.33609
  20
233.95258
  0
VERTEX
  5
9ea
  8
Layer_0
  10
329.93387
  20
233.83621
  0
VERTEX
  5
9eb
  8
Layer_0
  10
329.48874
  20
233.72748
  0
VERTEX
  5
9ec
  8
Layer_0
  10
328.99896
  20
233.6293
  0
VERTEX
  5
9ed
  8
Layer_0
  10
328.52112
  20
233.55334
  0
SEQEND
  0
POLYLINE
  5
9ef
  8
Layer_0
  62
7
  66
1
  10
0
  20
0
  30
0
  0
VERTEX
  5
9ef
  8
Layer_0
  10
327.67529
  20
234.71756
  42
0.013327143
  0
VERTEX
  5
9f0
  8
Layer_0
  10
328.52112
  20
233.55334
  0
SEQEND
  0
POLYLINE
  5
9f2
  8
Layer_0
  62
7
  66
1
  10
0
  20
0
  30
0
  0
VERTEX
  5
9f2
  8
Layer_0
  10
327.67529
  20
234.71756
  0
VERTEX
  5
9f3
  8
Layer_0
  10
327.89517
  20
235.14853
  0
VERTEX
  5
9f4
  8
Layer_0
  10
328.13989
  20
235.58398
  0
VERTEX
  5
9f5
  8
Layer_0
  10
328.38086
  20
235.97372
  0
VERTEX
  5
9f6
  8
Layer_0
  10
328.61581
  20
236.32031
  0
VERTEX
  5
9f7
  8
Layer_0
  10
328.83926
  20
236.62198
  0
VERTEX
  5
9f8
  8
Layer_0
  10
329.04947
  20
236.88226
  0
VERTEX
  5
9f9
  8
Layer_0
  10
329.24341
  20
237.10287
  0
VERTEX
  5
9fa
  8
Layer_0
  10
329.41776
  20
237.28522
  0
VERTEX
  5
9fb
  8
Layer_0
  10
329.57001
  20
237.4317
  0
VERTEX
  5
9fc
  8
Layer_0
  10
329.6976
  20
237.54462
  0
VERTEX
  5
9fd
  8
Layer_0
  10
329.90921
  20
237.71793
  0
VERTEX
  5
9fe
  8
Layer_0
  10
329.98831
  20
237.79202
  0
VERTEX
  5
9ff
  8
Layer_0
  10
330.05557
  20
237.8638
  0
VERTEX
  5
a00
  8
Layer_0
  10
330.11121
  20
237.93286
  0
VERTEX
  5
a01
  8
Layer_0
  10
330.1553
  20
237.99872
  0
VERTEX
  5
a02
  8
Layer_0
  10
330.18802
  20
238.06088
  0
VERTEX
  5
a03
  8
Layer_0
  10
330.20959
  20
238.11899
  0
VERTEX
  5
a04
  8
Layer_0
  10
330.22015
  20
238.17252
  0
VERTEX
  5
a05
  8
Layer_0
  10
330.21994
  20
238.2211
  0
VERTEX
  5
a06
  8
Layer_0
  10
330.20914
  20
238.26428
  0
VERTEX
  5
a07
  8
Layer_0
  10
330.14917
  20
238.36938
  0
VERTEX
  5
a08
  8
Layer_0
  10
329.82263
  20
238.94376
  0
VERTEX
  5
a09
  8
Layer_0
  10
329.51266
  20
239.52719
  0
VERTEX
  5
a0a
  8
Layer_0
  10
329.45602
  20
239.63416
  0
VERTEX
  5
a0b
  8
Layer_0
  10
329.42535
  20
239.66641
  0
VERTEX
  5
a0c
  8
Layer_0
  10
329.38446
  20
239.69263
  0
VERTEX
  5
a0d
  8
Layer_0
  10
329.33362
  20
239.7124
  0
VERTEX
  5
a0e
  8
Layer_0
  10
329.27301
  20
239.72531
  0
VERTEX
  5
a0f
  8
Layer_0
  10
329.20297
  20
239.73102
  0
VERTEX
  5
a10
  8
Layer_0
  10
329.12375
  20
239.72906
  0
VERTEX
  5
a11
  8
Layer_0
  10
329.03564
  20
239.71909
  0
VERTEX
  5
a12
  8
Layer_0
  10
328.93896
  20
239.70074
  0
VERTEX
  5
a13
  8
Layer_0
  10
328.83401
  20
239.67368
  0
VERTEX
  5
a14
  8
Layer_0
  10
328.57431
  20
239.58786
  0
VERTEX
  5
a15
  8
Layer_0
  10
328.41058
  20
239.54062
  0
VERTEX
  5
a16
  8
Layer_0
  10
328.20535
  20
239.49057
  0
VERTEX
  5
a17
  8
Layer_0
  10
327.95795
  20
239.4411
  0
VERTEX
  5
a18
  8
Layer_0
  10
327.66779
  20
239.39557
  0
VERTEX
  5
a19
  8
Layer_0
  10
327.33539
  20
239.35754
  0
VERTEX
  5
a1a
  8
Layer_0
  10
326.96097
  20
239.33051
  0
VERTEX
  5
a1b
  8
Layer_0
  10
326.54242
  20
239.31784
  0
VERTEX
  5
a1c
  8
Layer_0
  10
326.08423
  20
239.32321
  0
VERTEX
  5
a1d
  8
Layer_0
  10
325.58545
  20
239.34991
  0
VERTEX
  5
a1e
  8
Layer_0
  10
325.10373
  20
239.39517
  0
SEQEND
  0
POLYLINE
  5
a20
  8
Layer_0
  62
7
  66
1
  10
0
  20
0
  30
0
  0
VERTEX
  5
a20
  8
Layer_0
  10
324.57397
  20
240.73315
  42
0.013323456
  0
VERTEX
  5
a21
  8
Layer_0
  10
325.10373
  20
239.39517
  0
SEQEND
  0
POLYLINE
  5
a23
  8
Layer_0
  62
7
  66
1
  10
0
  20
0
  30
0
  0
VERTEX
  5
a23
  8
Layer_0
  10
324.57397
  20
240.73315
  0
VERTEX
  5
a24
  8
Layer_0
  10
324.89417
  20
241.09592
  0
SEQEND
  0
POLYLINE
  5
a26
  8
Layer_0
  62
7
  70
1
  66
1
  10
0
  20
0
  30
0
  0
VERTEX
  5
a26
  8
Layer_0
  10
348.5
  20
249
  42
0.41421348
  0
VERTEX
  5
a27
  8
Layer_0
  10
350
  20
247.5
  42
0.41421356
  0
VERTEX
  5
a28
  8
Layer_0
  10
351.5
  20
249
  0
VERTEX
  5
a29
  8
Layer_0
  10
351.5
  20
251
  42
0.41421356
  0
VERTEX
  5
a2a
  8
Layer_0
  10
350
  20
252.5
  42
0.41421356
  0
VERTEX
  5
a2b
  8
Layer_0
  10
348.5
  20
251
  0
SEQEND
  0
ENDSEC
  0
EOF
