  0
SECTION
  2
HEADER
  9
$ACADVER
  1
AC1014
  9
$HANDSEED
  5
FFFF
  9
$MEASUREMENT
 70
     1
  0
ENDSEC
  0
SECTION
  2
TABLES
  0
TABLE
  2
VPORT
  5
8
330
0
100
AcDbSymbolTable
 70
     4
  0
VPORT
  5
2E
330
8
100
AcDbSymbolTableRecord
100
AcDbViewportTableRecord
  2
*ACTIVE
 70
     0
 10
0.0
 20
0.0
 11
1.0
 21
1.0
 12
210.0
 22
148.5
 13
0.0
 23
0.0
 14
10.0
 24
10.0
 15
10.0
 25
10.0
 16
0.0
 26
0.0
 36
1.0
 17
0.0
 27
0.0
 37
0.0
 40
341.0
 41
1.24
 42
50.0
 43
0.0
 44
0.0
 50
0.0
 51
0.0
 71
     0
 72
   100
 73
     1
 74
     3
 75
     0
 76
     0
 77
     0
 78
     0
  0
ENDTAB
  0
TABLE
  2
LTYPE
  5
5
330
0
100
AcDbSymbolTable
 70
     1
  0
LTYPE
  5
14
330
5
100
AcDbSymbolTableRecord
100
AcDbLinetypeTableRecord
  2
BYBLOCK
 70
     0
  3

 72
    65
 73
     0
 40
0.0
  0
LTYPE
  5
15
330
5
100
AcDbSymbolTableRecord
100
AcDbLinetypeTableRecord
  2
BYLAYER
 70
     0
  3

 72
    65
 73
     0
 40
0.0
  0
LTYPE
  5
16
330
5
100
AcDbSymbolTableRecord
100
AcDbLinetypeTableRecord
  2
CONTINUOUS
 70
     0
  3
Solid line
 72
    65
 73
     0
 40
0.0
  0
ENDTAB
  0
TABLE
  2
LAYER
  5
2
100
AcDbSymbolTable
 70
2
  0
LAYER
  5
50
100
AcDbSymbolTableRecord
100
AcDbLayerTableRecord
  2
0
 70
0
  6
CONTINUOUS
  0
LAYER
  5
51
100
AcDbSymbolTableRecord
100
AcDbLayerTableRecord
  2
Layer_1
 70
0
  6
CONTINUOUS
  0
ENDTAB
  0
TABLE
  2
STYLE
  5
3
330
0
100
AcDbSymbolTable
 70
     1
  0
STYLE
  5
11
330
3
100
AcDbSymbolTableRecord
100
AcDbTextStyleTableRecord
  2
STANDARD
 70
     0
 40
0.0
 41
1.0
 50
0.0
 71
     0
 42
2.5
  3
txt
  4

  0
ENDTAB
  0
TABLE
  2
VIEW
  5
6
330
0
100
AcDbSymbolTable
 70
     0
  0
ENDTAB
  0
TABLE
  2
UCS
  5
7
330
0
100
AcDbSymbolTable
 70
     0
  0
ENDTAB
  0
TABLE
  2
APPID
  5
9
330
0
100
AcDbSymbolTable
 70
     2
  0
APPID
  5
12
330
9
100
AcDbSymbolTableRecord
100
AcDbRegAppTableRecord
  2
ACAD
 70
     0
  0
ENDTAB
  0
TABLE
  2
DIMSTYLE
  5
A
330
0
100
AcDbSymbolTable
 70
     1
  0
DIMSTYLE
105
27
330
A
100
AcDbSymbolTableRecord
100
AcDbDimStyleTableRecord
  2
ISO-25
 70
     0
  3

  4

  5

  6

  7

 40
1.0
 41
2.5
 42
0.625
 43
3.75
 44
1.25
 45
0.0
 46
0.0
 47
0.0
 48
0.0
140
2.5
141
2.5
142
0.0
143
0.03937007874016
144
1.0
145
0.0
146
1.0
147
0.625
 71
     0
 72
     0
 73
     0
 74
     0
 75
     0
 76
     0
 77
     1
 78
     8
170
     0
171
     3
172
     1
173
     0
174
     0
175
     0
176
     0
177
     0
178
     0
270
     2
271
     2
272
     2
273
     2
274
     3
340
11
275
     0
280
     0
281
     0
282
     0
283
     0
284
     8
285
     0
286
     0
287
     3
288
     0
  0
ENDTAB
  0
TABLE
  2
BLOCK_RECORD
  5
1
330
0
100
AcDbSymbolTable
 70
     1
  0
BLOCK_RECORD
  5
1F
330
1
100
AcDbSymbolTableRecord
100
AcDbBlockTableRecord
  2
*MODEL_SPACE
  0
BLOCK_RECORD
  5
1B
330
1
100
AcDbSymbolTableRecord
100
AcDbBlockTableRecord
  2
*PAPER_SPACE
  0
ENDTAB
  0
ENDSEC
  0
SECTION
  2
BLOCKS
  0
BLOCK
  5
20
330
1F
100
AcDbEntity
  8
0
100
AcDbBlockBegin
  2
*MODEL_SPACE
 70
     0
 10
0.0
 20
0.0
 30
0.0
  3
*MODEL_SPACE
  1

  0
ENDBLK
  5
21
330
1F
100
AcDbEntity
  8
0
100
AcDbBlockEnd
  0
BLOCK
  5
1C
330
1B
100
AcDbEntity
 67
     1
  8
0
100
AcDbBlockBegin
  2
*PAPER_SPACE
  1

  0
ENDBLK
  5
1D
330
1B
100
AcDbEntity
 67
     1
  8
0
100
AcDbBlockEnd
  0
ENDSEC
  0
SECTION
  2
ENTITIES
  0
LINE
  5
100
100
AcDbEntity
  8
Layer_1
 62
1
100
AcDbLine
 10
32.243045
 20
303.852034
 30
0.0
 11
79.781713
 21
303.852034
 31
0.0
  0
LINE
  5
101
100
AcDbEntity
  8
Layer_1
 62
1
100
AcDbLine
 10
79.781713
 20
303.852034
 30
0.0
 11
79.781713
 21
331.374415
 31
0.0
  0
LINE
  5
102
100
AcDbEntity
  8
Layer_1
 62
1
100
AcDbLine
 10
79.781713
 20
331.374415
 30
0.0
 11
32.243045
 21
331.374415
 31
0.0
  0
LINE
  5
103
100
AcDbEntity
  8
Layer_1
 62
1
100
AcDbLine
 10
32.243045
 20
331.374415
 30
0.0
 11
32.243045
 21
303.852034
 31
0.0
  0
SPLINE
  5
104
100
AcDbEntity
  8
Layer_1
 62
1
100
AcDbSpline
 70
8
 71
3
 72
8
 73
4
 74
0
 40
0
 40
0
 40
0
 40
0
 40
1
 40
1
 40
1
 40
1
 10
29.741004
 20
317.613229
 30
0.0
 10
29.743544
 20
318.582228
 30
0.0
 10
28.958577
 20
319.369041
 30
0.0
 10
27.989575
 20
319.369041
 30
0.0
  0
SPLINE
  5
105
100
AcDbEntity
  8
Layer_1
 62
1
100
AcDbSpline
 70
8
 71
3
 72
8
 73
4
 74
0
 40
0
 40
0
 40
0
 40
0
 40
1
 40
1
 40
1
 40
1
 10
27.989575
 20
319.369041
 30
0.0
 10
27.020574
 20
319.369041
 30
0.0
 10
26.235722
 20
318.582228
 30
0.0
 10
26.238146
 20
317.613229
 30
0.0
  0
SPLINE
  5
106
100
AcDbEntity
  8
Layer_1
 62
1
100
AcDbSpline
 70
8
 71
3
 72
8
 73
4
 74
0
 40
0
 40
0
 40
0
 40
0
 40
1
 40
1
 40
1
 40
1
 10
26.238146
 20
317.613229
 30
0.0
 10
26.240686
 20
316.647651
 30
0.0
 10
27.023994
 20
315.866175
 30
0.0
 10
27.989575
 20
315.866175
 30
0.0
  0
SPLINE
  5
107
100
AcDbEntity
  8
Layer_1
 62
1
100
AcDbSpline
 70
8
 71
3
 72
8
 73
4
 74
0
 40
0
 40
0
 40
0
 40
0
 40
1
 40
1
 40
1
 40
1
 10
27.989575
 20
315.866175
 30
0.0
 10
28.955156
 20
315.866175
 30
0.0
 10
29.738591
 20
316.647651
 30
0.0
 10
29.741004
 20
317.613229
 30
0.0
  0
LINE
  5
108
100
AcDbEntity
  8
Layer_1
 62
1
100
AcDbLine
 10
29.741004
 20
317.613229
 30
0.0
 11
29.741004
 21
317.613229
 31
0.0
  0
SPLINE
  5
109
100
AcDbEntity
  8
Layer_1
 62
1
100
AcDbSpline
 70
8
 71
3
 72
8
 73
4
 74
0
 40
0
 40
0
 40
0
 40
0
 40
1
 40
1
 40
1
 40
1
 10
85.786584
 20
317.613229
 30
0.0
 10
85.787995
 20
318.581604
 30
0.0
 10
85.003516
 20
319.367432
 30
0.0
 10
84.035141
 20
319.367432
 30
0.0
  0
SPLINE
  5
10a
100
AcDbEntity
  8
Layer_1
 62
1
100
AcDbSpline
 70
8
 71
3
 72
8
 73
4
 74
0
 40
0
 40
0
 40
0
 40
0
 40
1
 40
1
 40
1
 40
1
 10
84.035141
 20
319.367432
 30
0.0
 10
83.066766
 20
319.367432
 30
0.0
 10
82.282171
 20
318.581604
 30
0.0
 10
82.283698
 20
317.613229
 30
0.0
  0
SPLINE
  5
10b
100
AcDbEntity
  8
Layer_1
 62
1
100
AcDbSpline
 70
8
 71
3
 72
8
 73
4
 74
0
 40
0
 40
0
 40
0
 40
0
 40
1
 40
1
 40
1
 40
1
 10
82.283698
 20
317.613229
 30
0.0
 10
82.285109
 20
316.647010
 30
0.0
 10
83.068922
 20
315.864544
 30
0.0
 10
84.035141
 20
315.864544
 30
0.0
  0
SPLINE
  5
10c
100
AcDbEntity
  8
Layer_1
 62
1
100
AcDbSpline
 70
8
 71
3
 72
8
 73
4
 74
0
 40
0
 40
0
 40
0
 40
0
 40
1
 40
1
 40
1
 40
1
 10
84.035141
 20
315.864544
 30
0.0
 10
85.001360
 20
315.864544
 30
0.0
 10
85.785063
 20
316.647010
 30
0.0
 10
85.786584
 20
317.613229
 30
0.0
  0
LINE
  5
10d
100
AcDbEntity
  8
Layer_1
 62
1
100
AcDbLine
 10
85.786584
 20
317.613229
 30
0.0
 11
85.786584
 21
317.613229
 31
0.0
  0
LINE
  5
10e
100
AcDbEntity
  8
Layer_1
 62
1
100
AcDbLine
 10
11.515288
 20
351.398570
 30
0.0
 11
7.515315
 21
351.398570
 31
0.0
  0
LINE
  5
10f
100
AcDbEntity
  8
Layer_1
 62
1
100
AcDbLine
 10
7.515315
 20
351.398570
 30
0.0
 11
7.515315
 21
347.398564
 31
0.0
  0
LINE
  5
110
100
AcDbEntity
  8
Layer_1
 62
1
100
AcDbLine
 10
7.515315
 20
347.398564
 30
0.0
 11
7.515315
 21
336.687452
 31
0.0
  0
LINE
  5
111
100
AcDbEntity
  8
Layer_1
 62
1
100
AcDbLine
 10
7.515315
 20
336.687452
 30
0.0
 11
11.515288
 21
336.687452
 31
0.0
  0
LINE
  5
112
100
AcDbEntity
  8
Layer_1
 62
1
100
AcDbLine
 10
11.515288
 20
336.687452
 30
0.0
 11
11.515288
 21
326.176334
 31
0.0
  0
LINE
  5
113
100
AcDbEntity
  8
Layer_1
 62
1
100
AcDbLine
 10
11.515288
 20
326.176334
 30
0.0
 11
7.515315
 21
326.176334
 31
0.0
  0
LINE
  5
114
100
AcDbEntity
  8
Layer_1
 62
1
100
AcDbLine
 10
7.515315
 20
326.176334
 30
0.0
 11
7.515315
 21
315.465222
 31
0.0
  0
LINE
  5
115
100
AcDbEntity
  8
Layer_1
 62
1
100
AcDbLine
 10
7.515315
 20
315.465222
 30
0.0
 11
11.515288
 21
315.465222
 31
0.0
  0
LINE
  5
116
100
AcDbEntity
  8
Layer_1
 62
1
100
AcDbLine
 10
11.515288
 20
315.465222
 30
0.0
 11
11.515288
 21
304.954103
 31
0.0
  0
LINE
  5
117
100
AcDbEntity
  8
Layer_1
 62
1
100
AcDbLine
 10
11.515288
 20
304.954103
 30
0.0
 11
7.515315
 21
304.954103
 31
0.0
  0
LINE
  5
118
100
AcDbEntity
  8
Layer_1
 62
1
100
AcDbLine
 10
7.515315
 20
304.954103
 30
0.0
 11
7.515315
 21
294.242991
 31
0.0
  0
LINE
  5
119
100
AcDbEntity
  8
Layer_1
 62
1
100
AcDbLine
 10
7.515315
 20
294.242991
 30
0.0
 11
11.515288
 21
294.242991
 31
0.0
  0
LINE
  5
11a
100
AcDbEntity
  8
Layer_1
 62
1
100
AcDbLine
 10
11.515288
 20
294.242991
 30
0.0
 11
11.515288
 21
283.731870
 31
0.0
  0
LINE
  5
11b
100
AcDbEntity
  8
Layer_1
 62
1
100
AcDbLine
 10
11.515288
 20
283.731870
 30
0.0
 11
7.515315
 21
283.731870
 31
0.0
  0
LINE
  5
11c
100
AcDbEntity
  8
Layer_1
 62
1
100
AcDbLine
 10
7.515315
 20
283.731870
 30
0.0
 11
7.515315
 21
273.020760
 31
0.0
  0
LINE
  5
11d
100
AcDbEntity
  8
Layer_1
 62
1
100
AcDbLine
 10
7.515315
 20
273.020760
 30
0.0
 11
11.515288
 21
273.020760
 31
0.0
  0
LINE
  5
11e
100
AcDbEntity
  8
Layer_1
 62
1
100
AcDbLine
 10
11.515288
 20
273.020760
 30
0.0
 11
11.515288
 21
262.509676
 31
0.0
  0
LINE
  5
11f
100
AcDbEntity
  8
Layer_1
 62
1
100
AcDbLine
 10
11.515288
 20
262.509676
 30
0.0
 11
7.515315
 21
262.509676
 31
0.0
  0
LINE
  5
120
100
AcDbEntity
  8
Layer_1
 62
1
100
AcDbLine
 10
7.515315
 20
262.509676
 30
0.0
 11
7.515315
 21
251.798530
 31
0.0
  0
LINE
  5
121
100
AcDbEntity
  8
Layer_1
 62
1
100
AcDbLine
 10
7.515315
 20
251.798530
 30
0.0
 11
7.515315
 21
247.798557
 31
0.0
  0
LINE
  5
122
100
AcDbEntity
  8
Layer_1
 62
1
100
AcDbLine
 10
7.515315
 20
247.798557
 30
0.0
 11
11.515288
 21
247.798557
 31
0.0
  0
LINE
  5
123
100
AcDbEntity
  8
Layer_1
 62
1
100
AcDbLine
 10
11.515288
 20
247.798557
 30
0.0
 11
22.043870
 21
247.798557
 31
0.0
  0
LINE
  5
124
100
AcDbEntity
  8
Layer_1
 62
1
100
AcDbLine
 10
22.043870
 20
247.798557
 30
0.0
 11
22.043870
 21
251.798530
 31
0.0
  0
LINE
  5
125
100
AcDbEntity
  8
Layer_1
 62
1
100
AcDbLine
 10
22.043870
 20
251.798530
 30
0.0
 11
32.372464
 21
251.798530
 31
0.0
  0
LINE
  5
126
100
AcDbEntity
  8
Layer_1
 62
1
100
AcDbLine
 10
32.372464
 20
251.798530
 30
0.0
 11
32.372464
 21
247.798557
 31
0.0
  0
LINE
  5
127
100
AcDbEntity
  8
Layer_1
 62
1
100
AcDbLine
 10
32.372464
 20
247.798557
 30
0.0
 11
42.901012
 21
247.798557
 31
0.0
  0
LINE
  5
128
100
AcDbEntity
  8
Layer_1
 62
1
100
AcDbLine
 10
42.901012
 20
247.798557
 30
0.0
 11
42.901012
 21
251.798530
 31
0.0
  0
LINE
  5
129
100
AcDbEntity
  8
Layer_1
 62
1
100
AcDbLine
 10
42.901012
 20
251.798530
 30
0.0
 11
53.229606
 21
251.798530
 31
0.0
  0
LINE
  5
12a
100
AcDbEntity
  8
Layer_1
 62
1
100
AcDbLine
 10
53.229606
 20
251.798530
 30
0.0
 11
53.229606
 21
247.798557
 31
0.0
  0
LINE
  5
12b
100
AcDbEntity
  8
Layer_1
 62
1
100
AcDbLine
 10
53.229606
 20
247.798557
 30
0.0
 11
63.758154
 21
247.798557
 31
0.0
  0
LINE
  5
12c
100
AcDbEntity
  8
Layer_1
 62
1
100
AcDbLine
 10
63.758154
 20
247.798557
 30
0.0
 11
63.758154
 21
251.798530
 31
0.0
  0
LINE
  5
12d
100
AcDbEntity
  8
Layer_1
 62
1
100
AcDbLine
 10
63.758154
 20
251.798530
 30
0.0
 11
74.086745
 21
251.798530
 31
0.0
  0
LINE
  5
12e
100
AcDbEntity
  8
Layer_1
 62
1
100
AcDbLine
 10
74.086745
 20
251.798530
 30
0.0
 11
74.086745
 21
247.798557
 31
0.0
  0
LINE
  5
12f
100
AcDbEntity
  8
Layer_1
 62
1
100
AcDbLine
 10
74.086745
 20
247.798557
 30
0.0
 11
84.615294
 21
247.798557
 31
0.0
  0
LINE
  5
130
100
AcDbEntity
  8
Layer_1
 62
1
100
AcDbLine
 10
84.615294
 20
247.798557
 30
0.0
 11
84.615294
 21
251.798530
 31
0.0
  0
LINE
  5
131
100
AcDbEntity
  8
Layer_1
 62
1
100
AcDbLine
 10
84.615294
 20
251.798530
 30
0.0
 11
94.943888
 21
251.798530
 31
0.0
  0
LINE
  5
132
100
AcDbEntity
  8
Layer_1
 62
1
100
AcDbLine
 10
94.943888
 20
251.798530
 30
0.0
 11
94.943888
 21
247.798557
 31
0.0
  0
LINE
  5
133
100
AcDbEntity
  8
Layer_1
 62
1
100
AcDbLine
 10
94.943888
 20
247.798557
 30
0.0
 11
105.472459
 21
247.798557
 31
0.0
  0
LINE
  5
134
100
AcDbEntity
  8
Layer_1
 62
1
100
AcDbLine
 10
105.472459
 20
247.798557
 30
0.0
 11
105.472459
 21
251.798530
 31
0.0
  0
LINE
  5
135
100
AcDbEntity
  8
Layer_1
 62
1
100
AcDbLine
 10
105.472459
 20
251.798530
 30
0.0
 11
115.801030
 21
251.798530
 31
0.0
  0
LINE
  5
136
100
AcDbEntity
  8
Layer_1
 62
1
100
AcDbLine
 10
115.801030
 20
251.798530
 30
0.0
 11
115.801030
 21
247.798557
 31
0.0
  0
LINE
  5
137
100
AcDbEntity
  8
Layer_1
 62
1
100
AcDbLine
 10
115.801030
 20
247.798557
 30
0.0
 11
126.329612
 21
247.798557
 31
0.0
  0
LINE
  5
138
100
AcDbEntity
  8
Layer_1
 62
1
100
AcDbLine
 10
126.329612
 20
247.798557
 30
0.0
 11
126.329612
 21
251.798530
 31
0.0
  0
LINE
  5
139
100
AcDbEntity
  8
Layer_1
 62
1
100
AcDbLine
 10
126.329612
 20
251.798530
 30
0.0
 11
136.658183
 21
251.798530
 31
0.0
  0
LINE
  5
13a
100
AcDbEntity
  8
Layer_1
 62
1
100
AcDbLine
 10
136.658183
 20
251.798530
 30
0.0
 11
136.658183
 21
247.798557
 31
0.0
  0
LINE
  5
13b
100
AcDbEntity
  8
Layer_1
 62
1
100
AcDbLine
 10
136.658183
 20
247.798557
 30
0.0
 11
147.186766
 21
247.798557
 31
0.0
  0
LINE
  5
13c
100
AcDbEntity
  8
Layer_1
 62
1
100
AcDbLine
 10
147.186766
 20
247.798557
 30
0.0
 11
147.186766
 21
251.798530
 31
0.0
  0
LINE
  5
13d
100
AcDbEntity
  8
Layer_1
 62
1
100
AcDbLine
 10
147.186766
 20
251.798530
 30
0.0
 11
157.515309
 21
251.798530
 31
0.0
  0
LINE
  5
13e
100
AcDbEntity
  8
Layer_1
 62
1
100
AcDbLine
 10
157.515309
 20
251.798530
 30
0.0
 11
157.515309
 21
247.798557
 31
0.0
  0
LINE
  5
13f
100
AcDbEntity
  8
Layer_1
 62
1
100
AcDbLine
 10
157.515309
 20
247.798557
 30
0.0
 11
168.043891
 21
247.798557
 31
0.0
  0
LINE
  5
140
100
AcDbEntity
  8
Layer_1
 62
1
100
AcDbLine
 10
168.043891
 20
247.798557
 30
0.0
 11
168.043891
 21
251.798530
 31
0.0
  0
LINE
  5
141
100
AcDbEntity
  8
Layer_1
 62
1
100
AcDbLine
 10
168.043891
 20
251.798530
 30
0.0
 11
178.372462
 21
251.798530
 31
0.0
  0
LINE
  5
142
100
AcDbEntity
  8
Layer_1
 62
1
100
AcDbLine
 10
178.372462
 20
251.798530
 30
0.0
 11
178.372462
 21
247.798557
 31
0.0
  0
LINE
  5
143
100
AcDbEntity
  8
Layer_1
 62
1
100
AcDbLine
 10
178.372462
 20
247.798557
 30
0.0
 11
188.901045
 21
247.798557
 31
0.0
  0
LINE
  5
144
100
AcDbEntity
  8
Layer_1
 62
1
100
AcDbLine
 10
188.901045
 20
247.798557
 30
0.0
 11
188.901045
 21
251.798530
 31
0.0
  0
LINE
  5
145
100
AcDbEntity
  8
Layer_1
 62
1
100
AcDbLine
 10
188.901045
 20
251.798530
 30
0.0
 11
199.229588
 21
251.798530
 31
0.0
  0
LINE
  5
146
100
AcDbEntity
  8
Layer_1
 62
1
100
AcDbLine
 10
199.229588
 20
251.798530
 30
0.0
 11
199.229588
 21
247.798557
 31
0.0
  0
LINE
  5
147
100
AcDbEntity
  8
Layer_1
 62
1
100
AcDbLine
 10
199.229588
 20
247.798557
 30
0.0
 11
209.758170
 21
247.798557
 31
0.0
  0
LINE
  5
148
100
AcDbEntity
  8
Layer_1
 62
1
100
AcDbLine
 10
209.758170
 20
247.798557
 30
0.0
 11
209.758170
 21
251.798530
 31
0.0
  0
LINE
  5
149
100
AcDbEntity
  8
Layer_1
 62
1
100
AcDbLine
 10
209.758170
 20
251.798530
 30
0.0
 11
220.086741
 21
251.798530
 31
0.0
  0
LINE
  5
14a
100
AcDbEntity
  8
Layer_1
 62
1
100
AcDbLine
 10
220.086741
 20
251.798530
 30
0.0
 11
220.086741
 21
247.798557
 31
0.0
  0
LINE
  5
14b
100
AcDbEntity
  8
Layer_1
 62
1
100
AcDbLine
 10
220.086741
 20
247.798557
 30
0.0
 11
230.615323
 21
247.798557
 31
0.0
  0
LINE
  5
14c
100
AcDbEntity
  8
Layer_1
 62
1
100
AcDbLine
 10
230.615323
 20
247.798557
 30
0.0
 11
234.615315
 21
247.798557
 31
0.0
  0
LINE
  5
14d
100
AcDbEntity
  8
Layer_1
 62
1
100
AcDbLine
 10
234.615315
 20
247.798557
 30
0.0
 11
234.615315
 21
251.798530
 31
0.0
  0
LINE
  5
14e
100
AcDbEntity
  8
Layer_1
 62
1
100
AcDbLine
 10
234.615315
 20
251.798530
 30
0.0
 11
234.615315
 21
262.509676
 31
0.0
  0
LINE
  5
14f
100
AcDbEntity
  8
Layer_1
 62
1
100
AcDbLine
 10
234.615315
 20
262.509676
 30
0.0
 11
230.615323
 21
262.509676
 31
0.0
  0
LINE
  5
150
100
AcDbEntity
  8
Layer_1
 62
1
100
AcDbLine
 10
230.615323
 20
262.509676
 30
0.0
 11
230.615323
 21
273.020760
 31
0.0
  0
LINE
  5
151
100
AcDbEntity
  8
Layer_1
 62
1
100
AcDbLine
 10
230.615323
 20
273.020760
 30
0.0
 11
234.615315
 21
273.020760
 31
0.0
  0
LINE
  5
152
100
AcDbEntity
  8
Layer_1
 62
1
100
AcDbLine
 10
234.615315
 20
273.020760
 30
0.0
 11
234.615315
 21
283.731870
 31
0.0
  0
LINE
  5
153
100
AcDbEntity
  8
Layer_1
 62
1
100
AcDbLine
 10
234.615315
 20
283.731870
 30
0.0
 11
230.615323
 21
283.731870
 31
0.0
  0
LINE
  5
154
100
AcDbEntity
  8
Layer_1
 62
1
100
AcDbLine
 10
230.615323
 20
283.731870
 30
0.0
 11
230.615323
 21
294.242991
 31
0.0
  0
LINE
  5
155
100
AcDbEntity
  8
Layer_1
 62
1
100
AcDbLine
 10
230.615323
 20
294.242991
 30
0.0
 11
234.615315
 21
294.242991
 31
0.0
  0
LINE
  5
156
100
AcDbEntity
  8
Layer_1
 62
1
100
AcDbLine
 10
234.615315
 20
294.242991
 30
0.0
 11
234.615315
 21
304.954103
 31
0.0
  0
LINE
  5
157
100
AcDbEntity
  8
Layer_1
 62
1
100
AcDbLine
 10
234.615315
 20
304.954103
 30
0.0
 11
230.615323
 21
304.954103
 31
0.0
  0
LINE
  5
158
100
AcDbEntity
  8
Layer_1
 62
1
100
AcDbLine
 10
230.615323
 20
304.954103
 30
0.0
 11
230.615323
 21
315.465222
 31
0.0
  0
LINE
  5
159
100
AcDbEntity
  8
Layer_1
 62
1
100
AcDbLine
 10
230.615323
 20
315.465222
 30
0.0
 11
234.615315
 21
315.465222
 31
0.0
  0
LINE
  5
15a
100
AcDbEntity
  8
Layer_1
 62
1
100
AcDbLine
 10
234.615315
 20
315.465222
 30
0.0
 11
234.615315
 21
326.176334
 31
0.0
  0
LINE
  5
15b
100
AcDbEntity
  8
Layer_1
 62
1
100
AcDbLine
 10
234.615315
 20
326.176334
 30
0.0
 11
230.615323
 21
326.176334
 31
0.0
  0
LINE
  5
15c
100
AcDbEntity
  8
Layer_1
 62
1
100
AcDbLine
 10
230.615323
 20
326.176334
 30
0.0
 11
230.615323
 21
336.687452
 31
0.0
  0
LINE
  5
15d
100
AcDbEntity
  8
Layer_1
 62
1
100
AcDbLine
 10
230.615323
 20
336.687452
 30
0.0
 11
234.615315
 21
336.687452
 31
0.0
  0
LINE
  5
15e
100
AcDbEntity
  8
Layer_1
 62
1
100
AcDbLine
 10
234.615315
 20
336.687452
 30
0.0
 11
234.615315
 21
347.398564
 31
0.0
  0
LINE
  5
15f
100
AcDbEntity
  8
Layer_1
 62
1
100
AcDbLine
 10
234.615315
 20
347.398564
 30
0.0
 11
234.615315
 21
351.398570
 31
0.0
  0
LINE
  5
160
100
AcDbEntity
  8
Layer_1
 62
1
100
AcDbLine
 10
234.615315
 20
351.398570
 30
0.0
 11
230.615323
 21
351.398570
 31
0.0
  0
LINE
  5
161
100
AcDbEntity
  8
Layer_1
 62
1
100
AcDbLine
 10
230.615323
 20
351.398570
 30
0.0
 11
11.515288
 21
351.398570
 31
0.0
  0
LINE
  5
162
100
AcDbEntity
  8
Layer_1
 62
1
100
AcDbLine
 10
20.531723
 20
340.862337
 30
0.0
 11
23.532740
 21
340.862337
 31
0.0
  0
LINE
  5
163
100
AcDbEntity
  8
Layer_1
 62
1
100
AcDbLine
 10
23.532740
 20
340.862337
 30
0.0
 11
23.532740
 21
343.863347
 31
0.0
  0
LINE
  5
164
100
AcDbEntity
  8
Layer_1
 62
1
100
AcDbLine
 10
23.532740
 20
343.863347
 30
0.0
 11
20.531723
 21
343.863347
 31
0.0
  0
LINE
  5
165
100
AcDbEntity
  8
Layer_1
 62
1
100
AcDbLine
 10
20.531723
 20
343.863347
 30
0.0
 11
20.531723
 21
340.862337
 31
0.0
  0
LINE
  5
166
100
AcDbEntity
  8
Layer_1
 62
1
100
AcDbLine
 10
20.531723
 20
331.859335
 30
0.0
 11
23.532740
 21
331.859335
 31
0.0
  0
LINE
  5
167
100
AcDbEntity
  8
Layer_1
 62
1
100
AcDbLine
 10
23.532740
 20
331.859335
 30
0.0
 11
23.532740
 21
334.860345
 31
0.0
  0
LINE
  5
168
100
AcDbEntity
  8
Layer_1
 62
1
100
AcDbLine
 10
23.532740
 20
334.860345
 30
0.0
 11
20.531723
 21
334.860345
 31
0.0
  0
LINE
  5
169
100
AcDbEntity
  8
Layer_1
 62
1
100
AcDbLine
 10
20.531723
 20
334.860345
 30
0.0
 11
20.531723
 21
331.859335
 31
0.0
  0
LINE
  5
16a
100
AcDbEntity
  8
Layer_1
 62
1
100
AcDbLine
 10
218.597892
 20
331.859335
 30
0.0
 11
221.598902
 21
331.859335
 31
0.0
  0
LINE
  5
16b
100
AcDbEntity
  8
Layer_1
 62
1
100
AcDbLine
 10
221.598902
 20
331.859335
 30
0.0
 11
221.598902
 21
334.860345
 31
0.0
  0
LINE
  5
16c
100
AcDbEntity
  8
Layer_1
 62
1
100
AcDbLine
 10
221.598902
 20
334.860345
 30
0.0
 11
218.597892
 21
334.860345
 31
0.0
  0
LINE
  5
16d
100
AcDbEntity
  8
Layer_1
 62
1
100
AcDbLine
 10
218.597892
 20
334.860345
 30
0.0
 11
218.597892
 21
331.859335
 31
0.0
  0
LINE
  5
16e
100
AcDbEntity
  8
Layer_1
 62
1
100
AcDbLine
 10
221.598902
 20
343.863347
 30
0.0
 11
218.597892
 21
343.863347
 31
0.0
  0
LINE
  5
16f
100
AcDbEntity
  8
Layer_1
 62
1
100
AcDbLine
 10
218.597892
 20
343.863347
 30
0.0
 11
218.597892
 21
340.862337
 31
0.0
  0
LINE
  5
170
100
AcDbEntity
  8
Layer_1
 62
1
100
AcDbLine
 10
218.597892
 20
340.862337
 30
0.0
 11
221.598902
 21
340.862337
 31
0.0
  0
LINE
  5
171
100
AcDbEntity
  8
Layer_1
 62
1
100
AcDbLine
 10
221.598902
 20
340.862337
 30
0.0
 11
221.598902
 21
343.863347
 31
0.0
  0
LINE
  5
172
100
AcDbEntity
  8
Layer_1
 62
1
100
AcDbLine
 10
382.304488
 20
317.404622
 30
0.0
 11
382.304488
 21
303.643444
 31
0.0
  0
LINE
  5
173
100
AcDbEntity
  8
Layer_1
 62
1
100
AcDbLine
 10
382.304488
 20
303.643444
 30
0.0
 11
454.363130
 21
303.643444
 31
0.0
  0
LINE
  5
174
100
AcDbEntity
  8
Layer_1
 62
1
100
AcDbLine
 10
454.363130
 20
303.643444
 30
0.0
 11
454.363130
 21
317.404622
 31
0.0
  0
LINE
  5
175
100
AcDbEntity
  8
Layer_1
 62
1
100
AcDbLine
 10
454.363130
 20
317.404622
 30
0.0
 11
456.364763
 21
317.404622
 31
0.0
  0
LINE
  5
176
100
AcDbEntity
  8
Layer_1
 62
1
100
AcDbLine
 10
456.364763
 20
317.404622
 30
0.0
 11
456.364763
 21
329.414402
 31
0.0
  0
LINE
  5
177
100
AcDbEntity
  8
Layer_1
 62
1
100
AcDbLine
 10
456.364763
 20
329.414402
 30
0.0
 11
454.363130
 21
329.414402
 31
0.0
  0
LINE
  5
178
100
AcDbEntity
  8
Layer_1
 62
1
100
AcDbLine
 10
454.363130
 20
329.414402
 30
0.0
 11
454.363130
 21
343.175594
 31
0.0
  0
LINE
  5
179
100
AcDbEntity
  8
Layer_1
 62
1
100
AcDbLine
 10
454.363130
 20
343.175594
 30
0.0
 11
382.304488
 21
343.175594
 31
0.0
  0
LINE
  5
17a
100
AcDbEntity
  8
Layer_1
 62
1
100
AcDbLine
 10
382.304488
 20
343.175594
 30
0.0
 11
382.304488
 21
329.414402
 31
0.0
  0
LINE
  5
17b
100
AcDbEntity
  8
Layer_1
 62
1
100
AcDbLine
 10
382.304488
 20
329.414402
 30
0.0
 11
380.302855
 21
329.414402
 31
0.0
  0
LINE
  5
17c
100
AcDbEntity
  8
Layer_1
 62
1
100
AcDbLine
 10
380.302855
 20
329.414402
 30
0.0
 11
380.302855
 21
317.404622
 31
0.0
  0
LINE
  5
17d
100
AcDbEntity
  8
Layer_1
 62
1
100
AcDbLine
 10
380.302855
 20
317.404622
 30
0.0
 11
382.304488
 21
317.404622
 31
0.0
  0
LINE
  5
17e
100
AcDbEntity
  8
Layer_1
 62
1
100
AcDbLine
 10
496.397336
 20
317.404622
 30
0.0
 11
496.397336
 21
303.643444
 31
0.0
  0
LINE
  5
17f
100
AcDbEntity
  8
Layer_1
 62
1
100
AcDbLine
 10
496.397336
 20
303.643444
 30
0.0
 11
568.455979
 21
303.643444
 31
0.0
  0
LINE
  5
180
100
AcDbEntity
  8
Layer_1
 62
1
100
AcDbLine
 10
568.455979
 20
303.643444
 30
0.0
 11
568.455979
 21
317.404622
 31
0.0
  0
LINE
  5
181
100
AcDbEntity
  8
Layer_1
 62
1
100
AcDbLine
 10
568.455979
 20
317.404622
 30
0.0
 11
570.457556
 21
317.404622
 31
0.0
  0
LINE
  5
182
100
AcDbEntity
  8
Layer_1
 62
1
100
AcDbLine
 10
570.457556
 20
317.404622
 30
0.0
 11
570.457556
 21
329.414402
 31
0.0
  0
LINE
  5
183
100
AcDbEntity
  8
Layer_1
 62
1
100
AcDbLine
 10
570.457556
 20
329.414402
 30
0.0
 11
568.455979
 21
329.414402
 31
0.0
  0
LINE
  5
184
100
AcDbEntity
  8
Layer_1
 62
1
100
AcDbLine
 10
568.455979
 20
329.414402
 30
0.0
 11
568.455979
 21
343.175594
 31
0.0
  0
LINE
  5
185
100
AcDbEntity
  8
Layer_1
 62
1
100
AcDbLine
 10
568.455979
 20
343.175594
 30
0.0
 11
496.397336
 21
343.175594
 31
0.0
  0
LINE
  5
186
100
AcDbEntity
  8
Layer_1
 62
1
100
AcDbLine
 10
496.397336
 20
343.175594
 30
0.0
 11
496.397336
 21
329.414402
 31
0.0
  0
LINE
  5
187
100
AcDbEntity
  8
Layer_1
 62
1
100
AcDbLine
 10
496.397336
 20
329.414402
 30
0.0
 11
494.395675
 21
329.414402
 31
0.0
  0
LINE
  5
188
100
AcDbEntity
  8
Layer_1
 62
1
100
AcDbLine
 10
494.395675
 20
329.414402
 30
0.0
 11
494.395675
 21
317.404622
 31
0.0
  0
LINE
  5
189
100
AcDbEntity
  8
Layer_1
 62
1
100
AcDbLine
 10
494.395675
 20
317.404622
 30
0.0
 11
496.397336
 21
317.404622
 31
0.0
  0
SPLINE
  5
18a
100
AcDbEntity
  8
Layer_1
 62
1
100
AcDbSpline
 70
8
 71
3
 72
8
 73
4
 74
0
 40
0
 40
0
 40
0
 40
0
 40
1
 40
1
 40
1
 40
1
 10
448.358260
 20
278.623083
 30
0.0
 10
448.367009
 20
281.945728
 30
0.0
 10
445.675992
 20
284.643944
 30
0.0
 10
442.353361
 20
284.643944
 30
0.0
  0
SPLINE
  5
18b
100
AcDbEntity
  8
Layer_1
 62
1
100
AcDbSpline
 70
8
 71
3
 72
8
 73
4
 74
0
 40
0
 40
0
 40
0
 40
0
 40
1
 40
1
 40
1
 40
1
 10
442.353361
 20
284.643944
 30
0.0
 10
439.030703
 20
284.643944
 30
0.0
 10
436.339629
 20
281.945728
 30
0.0
 10
436.348463
 20
278.623083
 30
0.0
  0
SPLINE
  5
18c
100
AcDbEntity
  8
Layer_1
 62
1
100
AcDbSpline
 70
8
 71
3
 72
8
 73
4
 74
0
 40
0
 40
0
 40
0
 40
0
 40
1
 40
1
 40
1
 40
1
 10
436.348463
 20
278.623083
 30
0.0
 10
436.357212
 20
275.312893
 30
0.0
 10
439.043149
 20
272.634110
 30
0.0
 10
442.353361
 20
272.634110
 30
0.0
  0
SPLINE
  5
18d
100
AcDbEntity
  8
Layer_1
 62
1
100
AcDbSpline
 70
8
 71
3
 72
8
 73
4
 74
0
 40
0
 40
0
 40
0
 40
0
 40
1
 40
1
 40
1
 40
1
 10
442.353361
 20
272.634110
 30
0.0
 10
445.663546
 20
272.634110
 30
0.0
 10
448.349455
 20
275.312893
 30
0.0
 10
448.358260
 20
278.623083
 30
0.0
  0
LINE
  5
18e
100
AcDbEntity
  8
Layer_1
 62
1
100
AcDbLine
 10
448.358260
 20
278.623083
 30
0.0
 11
448.358260
 21
278.623083
 31
0.0
  0
SPLINE
  5
18f
100
AcDbEntity
  8
Layer_1
 62
1
100
AcDbSpline
 70
8
 71
3
 72
8
 73
4
 74
0
 40
0
 40
0
 40
0
 40
0
 40
1
 40
1
 40
1
 40
1
 10
428.341931
 20
278.623083
 30
0.0
 10
428.351527
 20
281.946190
 30
0.0
 10
425.660171
 20
284.645146
 30
0.0
 10
422.337061
 20
284.645146
 30
0.0
  0
SPLINE
  5
190
100
AcDbEntity
  8
Layer_1
 62
1
100
AcDbSpline
 70
8
 71
3
 72
8
 73
4
 74
0
 40
0
 40
0
 40
0
 40
0
 40
1
 40
1
 40
1
 40
1
 10
422.337061
 20
284.645146
 30
0.0
 10
419.013922
 20
284.645146
 30
0.0
 10
416.322679
 20
281.946190
 30
0.0
 10
416.332190
 20
278.623083
 30
0.0
  0
SPLINE
  5
191
100
AcDbEntity
  8
Layer_1
 62
1
100
AcDbSpline
 70
8
 71
3
 72
8
 73
4
 74
0
 40
0
 40
0
 40
0
 40
0
 40
1
 40
1
 40
1
 40
1
 10
416.332190
 20
278.623083
 30
0.0
 10
416.341786
 20
275.313387
 30
0.0
 10
419.027356
 20
272.635363
 30
0.0
 10
422.337061
 20
272.635363
 30
0.0
  0
SPLINE
  5
192
100
AcDbEntity
  8
Layer_1
 62
1
100
AcDbSpline
 70
8
 71
3
 72
8
 73
4
 74
0
 40
0
 40
0
 40
0
 40
0
 40
1
 40
1
 40
1
 40
1
 10
422.337061
 20
272.635363
 30
0.0
 10
425.646765
 20
272.635363
 30
0.0
 10
428.332448
 20
275.313387
 30
0.0
 10
428.341931
 20
278.623083
 30
0.0
  0
LINE
  5
193
100
AcDbEntity
  8
Layer_1
 62
1
100
AcDbLine
 10
428.341931
 20
278.623083
 30
0.0
 11
428.341931
 21
278.623083
 31
0.0
  0
SPLINE
  5
194
100
AcDbEntity
  8
Layer_1
 62
1
100
AcDbSpline
 70
8
 71
3
 72
8
 73
4
 74
0
 40
0
 40
0
 40
0
 40
0
 40
1
 40
1
 40
1
 40
1
 10
542.434752
 20
278.623083
 30
0.0
 10
542.437856
 20
281.941655
 30
0.0
 10
539.748448
 20
284.633505
 30
0.0
 10
536.429853
 20
284.633505
 30
0.0
  0
SPLINE
  5
195
100
AcDbEntity
  8
Layer_1
 62
1
100
AcDbSpline
 70
8
 71
3
 72
8
 73
4
 74
0
 40
0
 40
0
 40
0
 40
0
 40
1
 40
1
 40
1
 40
1
 10
536.429853
 20
284.633505
 30
0.0
 10
533.111315
 20
284.633505
 30
0.0
 10
530.421906
 20
281.941655
 30
0.0
 10
530.424954
 20
278.623083
 30
0.0
  0
SPLINE
  5
196
100
AcDbEntity
  8
Layer_1
 62
1
100
AcDbSpline
 70
8
 71
3
 72
8
 73
4
 74
0
 40
0
 40
0
 40
0
 40
0
 40
1
 40
1
 40
1
 40
1
 10
530.424954
 20
278.623083
 30
0.0
 10
530.428059
 20
275.308823
 30
0.0
 10
533.115633
 20
272.623707
 30
0.0
 10
536.429853
 20
272.623707
 30
0.0
  0
SPLINE
  5
197
100
AcDbEntity
  8
Layer_1
 62
1
100
AcDbSpline
 70
8
 71
3
 72
8
 73
4
 74
0
 40
0
 40
0
 40
0
 40
0
 40
1
 40
1
 40
1
 40
1
 10
536.429853
 20
272.623707
 30
0.0
 10
539.744130
 20
272.623707
 30
0.0
 10
542.431704
 20
275.308823
 30
0.0
 10
542.434752
 20
278.623083
 30
0.0
  0
LINE
  5
198
100
AcDbEntity
  8
Layer_1
 62
1
100
AcDbLine
 10
542.434752
 20
278.623083
 30
0.0
 11
542.434752
 21
278.623083
 31
0.0
  0
SPLINE
  5
199
100
AcDbEntity
  8
Layer_1
 62
1
100
AcDbSpline
 70
8
 71
3
 72
8
 73
4
 74
0
 40
0
 40
0
 40
0
 40
0
 40
1
 40
1
 40
1
 40
1
 10
562.451024
 20
278.623083
 30
0.0
 10
562.454129
 20
281.941649
 30
0.0
 10
559.764720
 20
284.633491
 30
0.0
 10
556.446182
 20
284.633491
 30
0.0
  0
SPLINE
  5
19a
100
AcDbEntity
  8
Layer_1
 62
1
100
AcDbSpline
 70
8
 71
3
 72
8
 73
4
 74
0
 40
0
 40
0
 40
0
 40
0
 40
1
 40
1
 40
1
 40
1
 10
556.446182
 20
284.633491
 30
0.0
 10
553.127587
 20
284.633491
 30
0.0
 10
550.438235
 20
281.941649
 30
0.0
 10
550.441283
 20
278.623083
 30
0.0
  0
SPLINE
  5
19b
100
AcDbEntity
  8
Layer_1
 62
1
100
AcDbSpline
 70
8
 71
3
 72
8
 73
4
 74
0
 40
0
 40
0
 40
0
 40
0
 40
1
 40
1
 40
1
 40
1
 10
550.441283
 20
278.623083
 30
0.0
 10
550.444388
 20
275.308832
 30
0.0
 10
553.131905
 20
272.623722
 30
0.0
 10
556.446182
 20
272.623722
 30
0.0
  0
SPLINE
  5
19c
100
AcDbEntity
  8
Layer_1
 62
1
100
AcDbSpline
 70
8
 71
3
 72
8
 73
4
 74
0
 40
0
 40
0
 40
0
 40
0
 40
1
 40
1
 40
1
 40
1
 10
556.446182
 20
272.623722
 30
0.0
 10
559.760402
 20
272.623722
 30
0.0
 10
562.447976
 20
275.308832
 30
0.0
 10
562.451024
 20
278.623083
 30
0.0
  0
LINE
  5
19d
100
AcDbEntity
  8
Layer_1
 62
1
100
AcDbLine
 10
562.451024
 20
278.623083
 30
0.0
 11
562.451024
 21
278.623083
 31
0.0
  0
LINE
  5
19e
100
AcDbEntity
  8
Layer_1
 62
1
100
AcDbLine
 10
405.823646
 20
272.117787
 30
0.0
 11
405.823646
 21
278.623083
 31
0.0
  0
LINE
  5
19f
100
AcDbEntity
  8
Layer_1
 62
1
100
AcDbLine
 10
405.823646
 20
278.623083
 30
0.0
 11
401.319972
 21
278.623083
 31
0.0
  0
LINE
  5
1a0
100
AcDbEntity
  8
Layer_1
 62
1
100
AcDbLine
 10
401.319972
 20
278.623083
 30
0.0
 11
401.319972
 21
280.124296
 31
0.0
  0
LINE
  5
1a1
100
AcDbEntity
  8
Layer_1
 62
1
100
AcDbLine
 10
401.319972
 20
280.124296
 30
0.0
 11
392.312624
 21
280.124296
 31
0.0
  0
LINE
  5
1a2
100
AcDbEntity
  8
Layer_1
 62
1
100
AcDbLine
 10
392.312624
 20
280.124296
 30
0.0
 11
392.312624
 21
278.623083
 31
0.0
  0
LINE
  5
1a3
100
AcDbEntity
  8
Layer_1
 62
1
100
AcDbLine
 10
392.312624
 20
278.623083
 30
0.0
 11
387.808978
 21
278.623083
 31
0.0
  0
LINE
  5
1a4
100
AcDbEntity
  8
Layer_1
 62
1
100
AcDbLine
 10
387.808978
 20
278.623083
 30
0.0
 11
387.808978
 21
272.117787
 31
0.0
  0
LINE
  5
1a5
100
AcDbEntity
  8
Layer_1
 62
1
100
AcDbLine
 10
387.808978
 20
272.117787
 30
0.0
 11
405.823646
 21
272.117787
 31
0.0
  0
LINE
  5
1a6
100
AcDbEntity
  8
Layer_1
 62
1
100
AcDbLine
 10
515.412792
 20
278.623083
 30
0.0
 11
515.412792
 21
280.124296
 31
0.0
  0
LINE
  5
1a7
100
AcDbEntity
  8
Layer_1
 62
1
100
AcDbLine
 10
515.412792
 20
280.124296
 30
0.0
 11
506.405529
 21
280.124296
 31
0.0
  0
LINE
  5
1a8
100
AcDbEntity
  8
Layer_1
 62
1
100
AcDbLine
 10
506.405529
 20
280.124296
 30
0.0
 11
506.405529
 21
278.623083
 31
0.0
  0
LINE
  5
1a9
100
AcDbEntity
  8
Layer_1
 62
1
100
AcDbLine
 10
506.405529
 20
278.623083
 30
0.0
 11
501.901770
 21
278.623083
 31
0.0
  0
LINE
  5
1aa
100
AcDbEntity
  8
Layer_1
 62
1
100
AcDbLine
 10
501.901770
 20
278.623083
 30
0.0
 11
501.901770
 21
272.117787
 31
0.0
  0
LINE
  5
1ab
100
AcDbEntity
  8
Layer_1
 62
1
100
AcDbLine
 10
501.901770
 20
272.117787
 30
0.0
 11
519.916466
 21
272.117787
 31
0.0
  0
LINE
  5
1ac
100
AcDbEntity
  8
Layer_1
 62
1
100
AcDbLine
 10
519.916466
 20
272.117787
 30
0.0
 11
519.916466
 21
278.623083
 31
0.0
  0
LINE
  5
1ad
100
AcDbEntity
  8
Layer_1
 62
1
100
AcDbLine
 10
519.916466
 20
278.623083
 30
0.0
 11
515.412792
 21
278.623083
 31
0.0
  0
SPLINE
  5
1ae
100
AcDbEntity
  8
Layer_1
 62
1
100
AcDbSpline
 70
8
 71
3
 72
8
 73
4
 74
0
 40
0
 40
0
 40
0
 40
0
 40
1
 40
1
 40
1
 40
1
 10
391.061617
 20
283.126746
 30
0.0
 10
391.067262
 20
284.466740
 30
0.0
 10
389.054396
 20
284.466740
 30
0.0
 10
389.059984
 20
283.126746
 30
0.0
  0
SPLINE
  5
1af
100
AcDbEntity
  8
Layer_1
 62
1
100
AcDbSpline
 70
8
 71
3
 72
8
 73
4
 74
0
 40
0
 40
0
 40
0
 40
0
 40
1
 40
1
 40
1
 40
1
 10
389.059984
 20
283.126746
 30
0.0
 10
389.065629
 20
281.797874
 30
0.0
 10
391.056058
 20
281.797874
 30
0.0
 10
391.061617
 20
283.126746
 30
0.0
  0
LINE
  5
1b0
100
AcDbEntity
  8
Layer_1
 62
1
100
AcDbLine
 10
391.061617
 20
283.126746
 30
0.0
 11
391.061617
 21
283.126746
 31
0.0
  0
SPLINE
  5
1b1
100
AcDbEntity
  8
Layer_1
 62
1
100
AcDbSpline
 70
8
 71
3
 72
8
 73
4
 74
0
 40
0
 40
0
 40
0
 40
0
 40
1
 40
1
 40
1
 40
1
 10
404.572611
 20
283.126746
 30
0.0
 10
404.579102
 20
284.467527
 30
0.0
 10
402.564600
 20
284.467527
 30
0.0
 10
402.570978
 20
283.126746
 30
0.0
  0
SPLINE
  5
1b2
100
AcDbEntity
  8
Layer_1
 62
1
100
AcDbSpline
 70
8
 71
3
 72
8
 73
4
 74
0
 40
0
 40
0
 40
0
 40
0
 40
1
 40
1
 40
1
 40
1
 10
402.570978
 20
283.126746
 30
0.0
 10
402.564487
 20
281.785964
 30
0.0
 10
404.578989
 20
281.785964
 30
0.0
 10
404.572611
 20
283.126746
 30
0.0
  0
LINE
  5
1b3
100
AcDbEntity
  8
Layer_1
 62
1
100
AcDbLine
 10
404.572611
 20
283.126746
 30
0.0
 11
404.572611
 21
283.126746
 31
0.0
  0
SPLINE
  5
1b4
100
AcDbEntity
  8
Layer_1
 62
1
100
AcDbSpline
 70
8
 71
3
 72
8
 73
4
 74
0
 40
0
 40
0
 40
0
 40
0
 40
1
 40
1
 40
1
 40
1
 10
505.154494
 20
283.126746
 30
0.0
 10
505.154494
 20
284.461205
 30
0.0
 10
503.152805
 20
284.461205
 30
0.0
 10
503.152805
 20
283.126746
 30
0.0
  0
SPLINE
  5
1b5
100
AcDbEntity
  8
Layer_1
 62
1
100
AcDbSpline
 70
8
 71
3
 72
8
 73
4
 74
0
 40
0
 40
0
 40
0
 40
0
 40
1
 40
1
 40
1
 40
1
 10
503.152805
 20
283.126746
 30
0.0
 10
503.152805
 20
281.792286
 30
0.0
 10
505.154494
 20
281.792286
 30
0.0
 10
505.154494
 20
283.126746
 30
0.0
  0
LINE
  5
1b6
100
AcDbEntity
  8
Layer_1
 62
1
100
AcDbLine
 10
505.154494
 20
283.126746
 30
0.0
 11
505.154494
 21
283.126746
 31
0.0
  0
SPLINE
  5
1b7
100
AcDbEntity
  8
Layer_1
 62
1
100
AcDbSpline
 70
8
 71
3
 72
8
 73
4
 74
0
 40
0
 40
0
 40
0
 40
0
 40
1
 40
1
 40
1
 40
1
 10
518.665404
 20
283.126746
 30
0.0
 10
518.675281
 20
284.470866
 30
0.0
 10
516.654062
 20
284.470866
 30
0.0
 10
516.663827
 20
283.126746
 30
0.0
  0
SPLINE
  5
1b8
100
AcDbEntity
  8
Layer_1
 62
1
100
AcDbSpline
 70
8
 71
3
 72
8
 73
4
 74
0
 40
0
 40
0
 40
0
 40
0
 40
1
 40
1
 40
1
 40
1
 10
516.663827
 20
283.126746
 30
0.0
 10
516.653949
 20
281.782626
 30
0.0
 10
518.675168
 20
281.782626
 30
0.0
 10
518.665404
 20
283.126746
 30
0.0
  0
LINE
  5
1b9
100
AcDbEntity
  8
Layer_1
 62
1
100
AcDbLine
 10
518.665404
 20
283.126746
 30
0.0
 11
518.665404
 21
283.126746
 31
0.0
  0
LINE
  5
1ba
100
AcDbEntity
  8
Layer_1
 62
1
100
AcDbLine
 10
553.544458
 20
247.589970
 30
0.0
 11
564.073040
 21
247.589970
 31
0.0
  0
LINE
  5
1bb
100
AcDbEntity
  8
Layer_1
 62
1
100
AcDbLine
 10
564.073040
 20
247.589970
 30
0.0
 11
564.073040
 21
251.589976
 31
0.0
  0
LINE
  5
1bc
100
AcDbEntity
  8
Layer_1
 62
1
100
AcDbLine
 10
564.073040
 20
251.589976
 30
0.0
 11
574.401611
 21
251.589976
 31
0.0
  0
LINE
  5
1bd
100
AcDbEntity
  8
Layer_1
 62
1
100
AcDbLine
 10
574.401611
 20
251.589976
 30
0.0
 11
574.401611
 21
247.589970
 31
0.0
  0
LINE
  5
1be
100
AcDbEntity
  8
Layer_1
 62
1
100
AcDbLine
 10
574.401611
 20
247.589970
 30
0.0
 11
584.930194
 21
247.589970
 31
0.0
  0
LINE
  5
1bf
100
AcDbEntity
  8
Layer_1
 62
1
100
AcDbLine
 10
584.930194
 20
247.589970
 30
0.0
 11
588.930214
 21
247.589970
 31
0.0
  0
LINE
  5
1c0
100
AcDbEntity
  8
Layer_1
 62
1
100
AcDbLine
 10
588.930214
 20
247.589970
 30
0.0
 11
588.930214
 21
251.589976
 31
0.0
  0
LINE
  5
1c1
100
AcDbEntity
  8
Layer_1
 62
1
100
AcDbLine
 10
588.930214
 20
251.589976
 30
0.0
 11
588.930214
 21
262.301088
 31
0.0
  0
LINE
  5
1c2
100
AcDbEntity
  8
Layer_1
 62
1
100
AcDbLine
 10
588.930214
 20
262.301088
 30
0.0
 11
584.930194
 21
262.301088
 31
0.0
  0
LINE
  5
1c3
100
AcDbEntity
  8
Layer_1
 62
1
100
AcDbLine
 10
584.930194
 20
262.301088
 30
0.0
 11
584.930194
 21
272.812173
 31
0.0
  0
LINE
  5
1c4
100
AcDbEntity
  8
Layer_1
 62
1
100
AcDbLine
 10
584.930194
 20
272.812173
 30
0.0
 11
588.930214
 21
272.812173
 31
0.0
  0
LINE
  5
1c5
100
AcDbEntity
  8
Layer_1
 62
1
100
AcDbLine
 10
588.930214
 20
272.812173
 30
0.0
 11
588.930214
 21
283.523319
 31
0.0
  0
LINE
  5
1c6
100
AcDbEntity
  8
Layer_1
 62
1
100
AcDbLine
 10
588.930214
 20
283.523319
 30
0.0
 11
584.930194
 21
283.523319
 31
0.0
  0
LINE
  5
1c7
100
AcDbEntity
  8
Layer_1
 62
1
100
AcDbLine
 10
584.930194
 20
283.523319
 30
0.0
 11
584.930194
 21
294.034403
 31
0.0
  0
LINE
  5
1c8
100
AcDbEntity
  8
Layer_1
 62
1
100
AcDbLine
 10
584.930194
 20
294.034403
 30
0.0
 11
588.930214
 21
294.034403
 31
0.0
  0
LINE
  5
1c9
100
AcDbEntity
  8
Layer_1
 62
1
100
AcDbLine
 10
588.930214
 20
294.034403
 30
0.0
 11
588.930214
 21
304.745513
 31
0.0
  0
LINE
  5
1ca
100
AcDbEntity
  8
Layer_1
 62
1
100
AcDbLine
 10
588.930214
 20
304.745513
 30
0.0
 11
584.930194
 21
304.745513
 31
0.0
  0
LINE
  5
1cb
100
AcDbEntity
  8
Layer_1
 62
1
100
AcDbLine
 10
584.930194
 20
304.745513
 30
0.0
 11
584.930194
 21
315.256634
 31
0.0
  0
LINE
  5
1cc
100
AcDbEntity
  8
Layer_1
 62
1
100
AcDbLine
 10
584.930194
 20
315.256634
 30
0.0
 11
588.930214
 21
315.256634
 31
0.0
  0
LINE
  5
1cd
100
AcDbEntity
  8
Layer_1
 62
1
100
AcDbLine
 10
588.930214
 20
315.256634
 30
0.0
 11
588.930214
 21
325.967746
 31
0.0
  0
LINE
  5
1ce
100
AcDbEntity
  8
Layer_1
 62
1
100
AcDbLine
 10
588.930214
 20
325.967746
 30
0.0
 11
584.930194
 21
325.967746
 31
0.0
  0
LINE
  5
1cf
100
AcDbEntity
  8
Layer_1
 62
1
100
AcDbLine
 10
584.930194
 20
325.967746
 30
0.0
 11
584.930194
 21
336.478856
 31
0.0
  0
LINE
  5
1d0
100
AcDbEntity
  8
Layer_1
 62
1
100
AcDbLine
 10
584.930194
 20
336.478856
 30
0.0
 11
588.930214
 21
336.478856
 31
0.0
  0
LINE
  5
1d1
100
AcDbEntity
  8
Layer_1
 62
1
100
AcDbLine
 10
588.930214
 20
336.478856
 30
0.0
 11
588.930214
 21
347.189979
 31
0.0
  0
LINE
  5
1d2
100
AcDbEntity
  8
Layer_1
 62
1
100
AcDbLine
 10
588.930214
 20
347.189979
 30
0.0
 11
588.930214
 21
351.189971
 31
0.0
  0
LINE
  5
1d3
100
AcDbEntity
  8
Layer_1
 62
1
100
AcDbLine
 10
588.930214
 20
351.189971
 30
0.0
 11
361.830225
 21
351.189971
 31
0.0
  0
LINE
  5
1d4
100
AcDbEntity
  8
Layer_1
 62
1
100
AcDbLine
 10
361.830225
 20
351.189971
 30
0.0
 11
361.830225
 21
347.189979
 31
0.0
  0
LINE
  5
1d5
100
AcDbEntity
  8
Layer_1
 62
1
100
AcDbLine
 10
361.830225
 20
347.189979
 30
0.0
 11
361.830225
 21
336.478856
 31
0.0
  0
LINE
  5
1d6
100
AcDbEntity
  8
Layer_1
 62
1
100
AcDbLine
 10
361.830225
 20
336.478856
 30
0.0
 11
365.830189
 21
336.478856
 31
0.0
  0
LINE
  5
1d7
100
AcDbEntity
  8
Layer_1
 62
1
100
AcDbLine
 10
365.830189
 20
336.478856
 30
0.0
 11
365.830189
 21
325.967746
 31
0.0
  0
LINE
  5
1d8
100
AcDbEntity
  8
Layer_1
 62
1
100
AcDbLine
 10
365.830189
 20
325.967746
 30
0.0
 11
361.830225
 21
325.967746
 31
0.0
  0
LINE
  5
1d9
100
AcDbEntity
  8
Layer_1
 62
1
100
AcDbLine
 10
361.830225
 20
325.967746
 30
0.0
 11
361.830225
 21
315.256634
 31
0.0
  0
LINE
  5
1da
100
AcDbEntity
  8
Layer_1
 62
1
100
AcDbLine
 10
361.830225
 20
315.256634
 30
0.0
 11
365.830189
 21
315.256634
 31
0.0
  0
LINE
  5
1db
100
AcDbEntity
  8
Layer_1
 62
1
100
AcDbLine
 10
365.830189
 20
315.256634
 30
0.0
 11
365.830189
 21
304.745513
 31
0.0
  0
LINE
  5
1dc
100
AcDbEntity
  8
Layer_1
 62
1
100
AcDbLine
 10
365.830189
 20
304.745513
 30
0.0
 11
361.830225
 21
304.745513
 31
0.0
  0
LINE
  5
1dd
100
AcDbEntity
  8
Layer_1
 62
1
100
AcDbLine
 10
361.830225
 20
304.745513
 30
0.0
 11
361.830225
 21
294.034403
 31
0.0
  0
LINE
  5
1de
100
AcDbEntity
  8
Layer_1
 62
1
100
AcDbLine
 10
361.830225
 20
294.034403
 30
0.0
 11
365.830189
 21
294.034403
 31
0.0
  0
LINE
  5
1df
100
AcDbEntity
  8
Layer_1
 62
1
100
AcDbLine
 10
365.830189
 20
294.034403
 30
0.0
 11
365.830189
 21
283.523319
 31
0.0
  0
LINE
  5
1e0
100
AcDbEntity
  8
Layer_1
 62
1
100
AcDbLine
 10
365.830189
 20
283.523319
 30
0.0
 11
361.830225
 21
283.523319
 31
0.0
  0
LINE
  5
1e1
100
AcDbEntity
  8
Layer_1
 62
1
100
AcDbLine
 10
361.830225
 20
283.523319
 30
0.0
 11
361.830225
 21
272.812173
 31
0.0
  0
LINE
  5
1e2
100
AcDbEntity
  8
Layer_1
 62
1
100
AcDbLine
 10
361.830225
 20
272.812173
 30
0.0
 11
365.830189
 21
272.812173
 31
0.0
  0
LINE
  5
1e3
100
AcDbEntity
  8
Layer_1
 62
1
100
AcDbLine
 10
365.830189
 20
272.812173
 30
0.0
 11
365.830189
 21
262.301088
 31
0.0
  0
LINE
  5
1e4
100
AcDbEntity
  8
Layer_1
 62
1
100
AcDbLine
 10
365.830189
 20
262.301088
 30
0.0
 11
361.830225
 21
262.301088
 31
0.0
  0
LINE
  5
1e5
100
AcDbEntity
  8
Layer_1
 62
1
100
AcDbLine
 10
361.830225
 20
262.301088
 30
0.0
 11
361.830225
 21
251.589976
 31
0.0
  0
LINE
  5
1e6
100
AcDbEntity
  8
Layer_1
 62
1
100
AcDbLine
 10
361.830225
 20
251.589976
 30
0.0
 11
361.830225
 21
247.589970
 31
0.0
  0
LINE
  5
1e7
100
AcDbEntity
  8
Layer_1
 62
1
100
AcDbLine
 10
361.830225
 20
247.589970
 30
0.0
 11
365.830189
 21
247.589970
 31
0.0
  0
LINE
  5
1e8
100
AcDbEntity
  8
Layer_1
 62
1
100
AcDbLine
 10
365.830189
 20
247.589970
 30
0.0
 11
376.358771
 21
247.589970
 31
0.0
  0
LINE
  5
1e9
100
AcDbEntity
  8
Layer_1
 62
1
100
AcDbLine
 10
376.358771
 20
247.589970
 30
0.0
 11
376.358771
 21
251.589976
 31
0.0
  0
LINE
  5
1ea
100
AcDbEntity
  8
Layer_1
 62
1
100
AcDbLine
 10
376.358771
 20
251.589976
 30
0.0
 11
386.687370
 21
251.589976
 31
0.0
  0
LINE
  5
1eb
100
AcDbEntity
  8
Layer_1
 62
1
100
AcDbLine
 10
386.687370
 20
251.589976
 30
0.0
 11
386.687370
 21
247.589970
 31
0.0
  0
LINE
  5
1ec
100
AcDbEntity
  8
Layer_1
 62
1
100
AcDbLine
 10
386.687370
 20
247.589970
 30
0.0
 11
397.215924
 21
247.589970
 31
0.0
  0
LINE
  5
1ed
100
AcDbEntity
  8
Layer_1
 62
1
100
AcDbLine
 10
397.215924
 20
247.589970
 30
0.0
 11
397.215924
 21
251.589976
 31
0.0
  0
LINE
  5
1ee
100
AcDbEntity
  8
Layer_1
 62
1
100
AcDbLine
 10
397.215924
 20
251.589976
 30
0.0
 11
407.544496
 21
251.589976
 31
0.0
  0
LINE
  5
1ef
100
AcDbEntity
  8
Layer_1
 62
1
100
AcDbLine
 10
407.544496
 20
251.589976
 30
0.0
 11
407.544496
 21
247.589970
 31
0.0
  0
LINE
  5
1f0
100
AcDbEntity
  8
Layer_1
 62
1
100
AcDbLine
 10
407.544496
 20
247.589970
 30
0.0
 11
418.073050
 21
247.589970
 31
0.0
  0
LINE
  5
1f1
100
AcDbEntity
  8
Layer_1
 62
1
100
AcDbLine
 10
418.073050
 20
247.589970
 30
0.0
 11
418.073050
 21
251.589976
 31
0.0
  0
LINE
  5
1f2
100
AcDbEntity
  8
Layer_1
 62
1
100
AcDbLine
 10
418.073050
 20
251.589976
 30
0.0
 11
428.401649
 21
251.589976
 31
0.0
  0
LINE
  5
1f3
100
AcDbEntity
  8
Layer_1
 62
1
100
AcDbLine
 10
428.401649
 20
251.589976
 30
0.0
 11
428.401649
 21
247.589970
 31
0.0
  0
LINE
  5
1f4
100
AcDbEntity
  8
Layer_1
 62
1
100
AcDbLine
 10
428.401649
 20
247.589970
 30
0.0
 11
438.930203
 21
247.589970
 31
0.0
  0
LINE
  5
1f5
100
AcDbEntity
  8
Layer_1
 62
1
100
AcDbLine
 10
438.930203
 20
247.589970
 30
0.0
 11
438.930203
 21
251.589976
 31
0.0
  0
LINE
  5
1f6
100
AcDbEntity
  8
Layer_1
 62
1
100
AcDbLine
 10
438.930203
 20
251.589976
 30
0.0
 11
449.258775
 21
251.589976
 31
0.0
  0
LINE
  5
1f7
100
AcDbEntity
  8
Layer_1
 62
1
100
AcDbLine
 10
449.258775
 20
251.589976
 30
0.0
 11
449.258775
 21
247.589970
 31
0.0
  0
LINE
  5
1f8
100
AcDbEntity
  8
Layer_1
 62
1
100
AcDbLine
 10
449.258775
 20
247.589970
 30
0.0
 11
459.787357
 21
247.589970
 31
0.0
  0
LINE
  5
1f9
100
AcDbEntity
  8
Layer_1
 62
1
100
AcDbLine
 10
459.787357
 20
247.589970
 30
0.0
 11
459.787357
 21
251.589976
 31
0.0
  0
LINE
  5
1fa
100
AcDbEntity
  8
Layer_1
 62
1
100
AcDbLine
 10
459.787357
 20
251.589976
 30
0.0
 11
470.115928
 21
251.589976
 31
0.0
  0
LINE
  5
1fb
100
AcDbEntity
  8
Layer_1
 62
1
100
AcDbLine
 10
470.115928
 20
251.589976
 30
0.0
 11
470.115928
 21
247.589970
 31
0.0
  0
LINE
  5
1fc
100
AcDbEntity
  8
Layer_1
 62
1
100
AcDbLine
 10
470.115928
 20
247.589970
 30
0.0
 11
480.644510
 21
247.589970
 31
0.0
  0
LINE
  5
1fd
100
AcDbEntity
  8
Layer_1
 62
1
100
AcDbLine
 10
480.644510
 20
247.589970
 30
0.0
 11
480.644510
 21
251.589976
 31
0.0
  0
LINE
  5
1fe
100
AcDbEntity
  8
Layer_1
 62
1
100
AcDbLine
 10
480.644510
 20
251.589976
 30
0.0
 11
490.973082
 21
251.589976
 31
0.0
  0
LINE
  5
1ff
100
AcDbEntity
  8
Layer_1
 62
1
100
AcDbLine
 10
490.973082
 20
251.589976
 30
0.0
 11
490.973082
 21
247.589970
 31
0.0
  0
LINE
  5
200
100
AcDbEntity
  8
Layer_1
 62
1
100
AcDbLine
 10
490.973082
 20
247.589970
 30
0.0
 11
501.501664
 21
247.589970
 31
0.0
  0
LINE
  5
201
100
AcDbEntity
  8
Layer_1
 62
1
100
AcDbLine
 10
501.501664
 20
247.589970
 30
0.0
 11
501.501664
 21
251.589976
 31
0.0
  0
LINE
  5
202
100
AcDbEntity
  8
Layer_1
 62
1
100
AcDbLine
 10
501.501664
 20
251.589976
 30
0.0
 11
511.830207
 21
251.589976
 31
0.0
  0
LINE
  5
203
100
AcDbEntity
  8
Layer_1
 62
1
100
AcDbLine
 10
511.830207
 20
251.589976
 30
0.0
 11
511.830207
 21
247.589970
 31
0.0
  0
LINE
  5
204
100
AcDbEntity
  8
Layer_1
 62
1
100
AcDbLine
 10
511.830207
 20
247.589970
 30
0.0
 11
522.358789
 21
247.589970
 31
0.0
  0
LINE
  5
205
100
AcDbEntity
  8
Layer_1
 62
1
100
AcDbLine
 10
522.358789
 20
247.589970
 30
0.0
 11
522.358789
 21
251.589976
 31
0.0
  0
LINE
  5
206
100
AcDbEntity
  8
Layer_1
 62
1
100
AcDbLine
 10
522.358789
 20
251.589976
 30
0.0
 11
532.687361
 21
251.589976
 31
0.0
  0
LINE
  5
207
100
AcDbEntity
  8
Layer_1
 62
1
100
AcDbLine
 10
532.687361
 20
251.589976
 30
0.0
 11
532.687361
 21
247.589970
 31
0.0
  0
LINE
  5
208
100
AcDbEntity
  8
Layer_1
 62
1
100
AcDbLine
 10
532.687361
 20
247.589970
 30
0.0
 11
543.215943
 21
247.589970
 31
0.0
  0
LINE
  5
209
100
AcDbEntity
  8
Layer_1
 62
1
100
AcDbLine
 10
543.215943
 20
247.589970
 30
0.0
 11
543.215943
 21
251.589976
 31
0.0
  0
LINE
  5
20a
100
AcDbEntity
  8
Layer_1
 62
1
100
AcDbLine
 10
543.215943
 20
251.589976
 30
0.0
 11
553.544458
 21
251.589976
 31
0.0
  0
LINE
  5
20b
100
AcDbEntity
  8
Layer_1
 62
1
100
AcDbLine
 10
553.544458
 20
251.589976
 30
0.0
 11
553.544458
 21
247.589970
 31
0.0
  0
LINE
  5
20c
100
AcDbEntity
  8
Layer_1
 62
1
100
AcDbLine
 10
377.847634
 20
340.653747
 30
0.0
 11
374.846624
 21
340.653747
 31
0.0
  0
LINE
  5
20d
100
AcDbEntity
  8
Layer_1
 62
1
100
AcDbLine
 10
374.846624
 20
340.653747
 30
0.0
 11
374.846624
 21
343.654757
 31
0.0
  0
LINE
  5
20e
100
AcDbEntity
  8
Layer_1
 62
1
100
AcDbLine
 10
374.846624
 20
343.654757
 30
0.0
 11
377.847634
 21
343.654757
 31
0.0
  0
LINE
  5
20f
100
AcDbEntity
  8
Layer_1
 62
1
100
AcDbLine
 10
377.847634
 20
343.654757
 30
0.0
 11
377.847634
 21
340.653747
 31
0.0
  0
LINE
  5
210
100
AcDbEntity
  8
Layer_1
 62
1
100
AcDbLine
 10
377.847634
 20
331.650745
 30
0.0
 11
374.846624
 21
331.650745
 31
0.0
  0
LINE
  5
211
100
AcDbEntity
  8
Layer_1
 62
1
100
AcDbLine
 10
374.846624
 20
331.650745
 30
0.0
 11
374.846624
 21
334.651755
 31
0.0
  0
LINE
  5
212
100
AcDbEntity
  8
Layer_1
 62
1
100
AcDbLine
 10
374.846624
 20
334.651755
 30
0.0
 11
377.847634
 21
334.651755
 31
0.0
  0
LINE
  5
213
100
AcDbEntity
  8
Layer_1
 62
1
100
AcDbLine
 10
377.847634
 20
334.651755
 30
0.0
 11
377.847634
 21
331.650745
 31
0.0
  0
LINE
  5
214
100
AcDbEntity
  8
Layer_1
 62
1
100
AcDbLine
 10
575.913786
 20
334.651755
 30
0.0
 11
575.913786
 21
331.650745
 31
0.0
  0
LINE
  5
215
100
AcDbEntity
  8
Layer_1
 62
1
100
AcDbLine
 10
575.913786
 20
331.650745
 30
0.0
 11
572.912776
 21
331.650745
 31
0.0
  0
LINE
  5
216
100
AcDbEntity
  8
Layer_1
 62
1
100
AcDbLine
 10
572.912776
 20
331.650745
 30
0.0
 11
572.912776
 21
334.651755
 31
0.0
  0
LINE
  5
217
100
AcDbEntity
  8
Layer_1
 62
1
100
AcDbLine
 10
572.912776
 20
334.651755
 30
0.0
 11
575.913786
 21
334.651755
 31
0.0
  0
LINE
  5
218
100
AcDbEntity
  8
Layer_1
 62
1
100
AcDbLine
 10
575.913786
 20
343.654757
 30
0.0
 11
575.913786
 21
340.653747
 31
0.0
  0
LINE
  5
219
100
AcDbEntity
  8
Layer_1
 62
1
100
AcDbLine
 10
575.913786
 20
340.653747
 30
0.0
 11
572.912776
 21
340.653747
 31
0.0
  0
LINE
  5
21a
100
AcDbEntity
  8
Layer_1
 62
1
100
AcDbLine
 10
572.912776
 20
340.653747
 30
0.0
 11
572.912776
 21
343.654757
 31
0.0
  0
LINE
  5
21b
100
AcDbEntity
  8
Layer_1
 62
1
100
AcDbLine
 10
572.912776
 20
343.654757
 30
0.0
 11
575.913786
 21
343.654757
 31
0.0
  0
SPLINE
  5
21c
100
AcDbEntity
  8
Layer_1
 62
1
100
AcDbSpline
 70
8
 71
3
 72
8
 73
4
 74
0
 40
0
 40
0
 40
0
 40
0
 40
1
 40
1
 40
1
 40
1
 10
308.330233
 20
291.252866
 30
0.0
 10
321.600858
 20
291.245811
 30
0.0
 10
332.362528
 20
302.001796
 30
0.0
 10
332.362528
 20
315.272402
 30
0.0
  0
SPLINE
  5
21d
100
AcDbEntity
  8
Layer_1
 62
1
100
AcDbSpline
 70
8
 71
3
 72
8
 73
4
 74
0
 40
0
 40
0
 40
0
 40
0
 40
1
 40
1
 40
1
 40
1
 10
332.362528
 20
315.272402
 30
0.0
 10
332.362528
 20
328.543010
 30
0.0
 10
321.600858
 20
339.298987
 30
0.0
 10
308.330233
 20
339.291940
 30
0.0
  0
SPLINE
  5
21e
100
AcDbEntity
  8
Layer_1
 62
1
100
AcDbSpline
 70
8
 71
3
 72
8
 73
4
 74
0
 40
0
 40
0
 40
0
 40
0
 40
1
 40
1
 40
1
 40
1
 10
308.330233
 20
339.291940
 30
0.0
 10
295.059608
 20
339.298995
 30
0.0
 10
284.297938
 20
328.543010
 30
0.0
 10
284.297938
 20
315.272402
 30
0.0
  0
SPLINE
  5
21f
100
AcDbEntity
  8
Layer_1
 62
1
100
AcDbSpline
 70
8
 71
3
 72
8
 73
4
 74
0
 40
0
 40
0
 40
0
 40
0
 40
1
 40
1
 40
1
 40
1
 10
284.297938
 20
315.272402
 30
0.0
 10
284.297938
 20
302.001796
 30
0.0
 10
295.059608
 20
291.245819
 30
0.0
 10
308.330233
 20
291.252866
 30
0.0
  0
LINE
  5
220
100
AcDbEntity
  8
Layer_1
 62
1
100
AcDbLine
 10
308.330233
 20
291.252866
 30
0.0
 11
308.330233
 21
291.252866
 31
0.0
  0
SPLINE
  5
221
100
AcDbEntity
  8
Layer_1
 62
1
100
AcDbSpline
 70
8
 71
3
 72
8
 73
4
 74
0
 40
0
 40
0
 40
0
 40
0
 40
1
 40
1
 40
1
 40
1
 10
328.846914
 20
334.187782
 30
0.0
 10
329.734531
 20
334.183181
 30
0.0
 10
330.456512
 20
334.901454
 30
0.0
 10
330.456512
 20
335.789068
 30
0.0
  0
SPLINE
  5
222
100
AcDbEntity
  8
Layer_1
 62
1
100
AcDbSpline
 70
8
 71
3
 72
8
 73
4
 74
0
 40
0
 40
0
 40
0
 40
0
 40
1
 40
1
 40
1
 40
1
 10
330.456512
 20
335.789068
 30
0.0
 10
330.456512
 20
336.676682
 30
0.0
 10
329.734531
 20
337.394946
 30
0.0
 10
328.846914
 20
337.390355
 30
0.0
  0
SPLINE
  5
223
100
AcDbEntity
  8
Layer_1
 62
1
100
AcDbSpline
 70
8
 71
3
 72
8
 73
4
 74
0
 40
0
 40
0
 40
0
 40
0
 40
1
 40
1
 40
1
 40
1
 10
328.846914
 20
337.390355
 30
0.0
 10
327.965788
 20
337.385783
 30
0.0
 10
327.253882
 20
336.670214
 30
0.0
 10
327.253882
 20
335.789068
 30
0.0
  0
SPLINE
  5
224
100
AcDbEntity
  8
Layer_1
 62
1
100
AcDbSpline
 70
8
 71
3
 72
8
 73
4
 74
0
 40
0
 40
0
 40
0
 40
0
 40
1
 40
1
 40
1
 40
1
 10
327.253882
 20
335.789068
 30
0.0
 10
327.253882
 20
334.907922
 30
0.0
 10
327.965788
 20
334.192339
 30
0.0
 10
328.846914
 20
334.187782
 30
0.0
  0
LINE
  5
225
100
AcDbEntity
  8
Layer_1
 62
1
100
AcDbLine
 10
328.846914
 20
334.187782
 30
0.0
 11
328.846914
 21
334.187782
 31
0.0
  0
SPLINE
  5
226
100
AcDbEntity
  8
Layer_1
 62
1
100
AcDbSpline
 70
8
 71
3
 72
8
 73
4
 74
0
 40
0
 40
0
 40
0
 40
0
 40
1
 40
1
 40
1
 40
1
 10
328.846914
 20
293.154395
 30
0.0
 10
329.732019
 20
293.153266
 30
0.0
 10
330.450105
 20
293.870593
 30
0.0
 10
330.450105
 20
294.755710
 30
0.0
  0
SPLINE
  5
227
100
AcDbEntity
  8
Layer_1
 62
1
100
AcDbSpline
 70
8
 71
3
 72
8
 73
4
 74
0
 40
0
 40
0
 40
0
 40
0
 40
1
 40
1
 40
1
 40
1
 10
330.450105
 20
294.755710
 30
0.0
 10
330.450105
 20
295.640826
 30
0.0
 10
329.732019
 20
296.358063
 30
0.0
 10
328.846914
 20
296.357024
 30
0.0
  0
SPLINE
  5
228
100
AcDbEntity
  8
Layer_1
 62
1
100
AcDbSpline
 70
8
 71
3
 72
8
 73
4
 74
0
 40
0
 40
0
 40
0
 40
0
 40
1
 40
1
 40
1
 40
1
 10
328.846914
 20
296.357024
 30
0.0
 10
327.963276
 20
296.355896
 30
0.0
 10
327.247476
 20
295.639359
 30
0.0
 10
327.247476
 20
294.755710
 30
0.0
  0
SPLINE
  5
229
100
AcDbEntity
  8
Layer_1
 62
1
100
AcDbSpline
 70
8
 71
3
 72
8
 73
4
 74
0
 40
0
 40
0
 40
0
 40
0
 40
1
 40
1
 40
1
 40
1
 10
327.247476
 20
294.755710
 30
0.0
 10
327.247476
 20
293.872061
 30
0.0
 10
327.963276
 20
293.155431
 30
0.0
 10
328.846914
 20
293.154395
 30
0.0
  0
LINE
  5
22a
100
AcDbEntity
  8
Layer_1
 62
1
100
AcDbLine
 10
328.846914
 20
293.154395
 30
0.0
 11
328.846914
 21
293.154395
 31
0.0
  0
SPLINE
  5
22b
100
AcDbEntity
  8
Layer_1
 62
1
100
AcDbSpline
 70
8
 71
3
 72
8
 73
4
 74
0
 40
0
 40
0
 40
0
 40
0
 40
1
 40
1
 40
1
 40
1
 10
287.813552
 20
293.154395
 30
0.0
 10
288.698658
 20
293.153266
 30
0.0
 10
289.416744
 20
293.870593
 30
0.0
 10
289.416744
 20
294.755710
 30
0.0
  0
SPLINE
  5
22c
100
AcDbEntity
  8
Layer_1
 62
1
100
AcDbSpline
 70
8
 71
3
 72
8
 73
4
 74
0
 40
0
 40
0
 40
0
 40
0
 40
1
 40
1
 40
1
 40
1
 10
289.416744
 20
294.755710
 30
0.0
 10
289.416744
 20
295.640826
 30
0.0
 10
288.698658
 20
296.358063
 30
0.0
 10
287.813552
 20
296.357024
 30
0.0
  0
SPLINE
  5
22d
100
AcDbEntity
  8
Layer_1
 62
1
100
AcDbSpline
 70
8
 71
3
 72
8
 73
4
 74
0
 40
0
 40
0
 40
0
 40
0
 40
1
 40
1
 40
1
 40
1
 10
287.813552
 20
296.357024
 30
0.0
 10
286.929915
 20
296.355896
 30
0.0
 10
286.214114
 20
295.639359
 30
0.0
 10
286.214114
 20
294.755710
 30
0.0
  0
SPLINE
  5
22e
100
AcDbEntity
  8
Layer_1
 62
1
100
AcDbSpline
 70
8
 71
3
 72
8
 73
4
 74
0
 40
0
 40
0
 40
0
 40
0
 40
1
 40
1
 40
1
 40
1
 10
286.214114
 20
294.755710
 30
0.0
 10
286.214114
 20
293.872061
 30
0.0
 10
286.929915
 20
293.155431
 30
0.0
 10
287.813552
 20
293.154395
 30
0.0
  0
LINE
  5
22f
100
AcDbEntity
  8
Layer_1
 62
1
100
AcDbLine
 10
287.813552
 20
293.154395
 30
0.0
 11
287.813552
 21
293.154395
 31
0.0
  0
SPLINE
  5
230
100
AcDbEntity
  8
Layer_1
 62
1
100
AcDbSpline
 70
8
 71
3
 72
8
 73
4
 74
0
 40
0
 40
0
 40
0
 40
0
 40
1
 40
1
 40
1
 40
1
 10
287.813552
 20
334.187782
 30
0.0
 10
288.701170
 20
334.183181
 30
0.0
 10
289.423150
 20
334.901454
 30
0.0
 10
289.423150
 20
335.789068
 30
0.0
  0
SPLINE
  5
231
100
AcDbEntity
  8
Layer_1
 62
1
100
AcDbSpline
 70
8
 71
3
 72
8
 73
4
 74
0
 40
0
 40
0
 40
0
 40
0
 40
1
 40
1
 40
1
 40
1
 10
289.423150
 20
335.789068
 30
0.0
 10
289.423150
 20
336.676682
 30
0.0
 10
288.701170
 20
337.394946
 30
0.0
 10
287.813552
 20
337.390355
 30
0.0
  0
SPLINE
  5
232
100
AcDbEntity
  8
Layer_1
 62
1
100
AcDbSpline
 70
8
 71
3
 72
8
 73
4
 74
0
 40
0
 40
0
 40
0
 40
0
 40
1
 40
1
 40
1
 40
1
 10
287.813552
 20
337.390355
 30
0.0
 10
286.932426
 20
337.385783
 30
0.0
 10
286.220521
 20
336.670214
 30
0.0
 10
286.220521
 20
335.789068
 30
0.0
  0
SPLINE
  5
233
100
AcDbEntity
  8
Layer_1
 62
1
100
AcDbSpline
 70
8
 71
3
 72
8
 73
4
 74
0
 40
0
 40
0
 40
0
 40
0
 40
1
 40
1
 40
1
 40
1
 10
286.220521
 20
335.789068
 30
0.0
 10
286.220521
 20
334.907922
 30
0.0
 10
286.932426
 20
334.192339
 30
0.0
 10
287.813552
 20
334.187782
 30
0.0
  0
LINE
  5
234
100
AcDbEntity
  8
Layer_1
 62
1
100
AcDbLine
 10
287.813552
 20
334.187782
 30
0.0
 11
287.813552
 21
334.187782
 31
0.0
  0
LINE
  5
235
100
AcDbEntity
  8
Layer_1
 62
1
100
AcDbLine
 10
244.270245
 20
355.824010
 30
0.0
 11
244.270245
 21
344.723984
 31
0.0
  0
LINE
  5
236
100
AcDbEntity
  8
Layer_1
 62
1
100
AcDbLine
 10
244.270245
 20
344.723984
 30
0.0
 11
248.270217
 21
344.723984
 31
0.0
  0
LINE
  5
237
100
AcDbEntity
  8
Layer_1
 62
1
100
AcDbLine
 10
248.270217
 20
344.723984
 30
0.0
 11
248.270217
 21
333.823997
 31
0.0
  0
LINE
  5
238
100
AcDbEntity
  8
Layer_1
 62
1
100
AcDbLine
 10
248.270217
 20
333.823997
 30
0.0
 11
244.270245
 21
333.823997
 31
0.0
  0
LINE
  5
239
100
AcDbEntity
  8
Layer_1
 62
1
100
AcDbLine
 10
244.270245
 20
333.823997
 30
0.0
 11
244.270245
 21
322.724000
 31
0.0
  0
LINE
  5
23a
100
AcDbEntity
  8
Layer_1
 62
1
100
AcDbLine
 10
244.270245
 20
322.724000
 30
0.0
 11
248.270217
 21
322.724000
 31
0.0
  0
LINE
  5
23b
100
AcDbEntity
  8
Layer_1
 62
1
100
AcDbLine
 10
248.270217
 20
322.724000
 30
0.0
 11
248.270217
 21
311.823988
 31
0.0
  0
LINE
  5
23c
100
AcDbEntity
  8
Layer_1
 62
1
100
AcDbLine
 10
248.270217
 20
311.823988
 30
0.0
 11
244.270245
 21
311.823988
 31
0.0
  0
LINE
  5
23d
100
AcDbEntity
  8
Layer_1
 62
1
100
AcDbLine
 10
244.270245
 20
311.823988
 30
0.0
 11
244.270245
 21
300.723990
 31
0.0
  0
LINE
  5
23e
100
AcDbEntity
  8
Layer_1
 62
1
100
AcDbLine
 10
244.270245
 20
300.723990
 30
0.0
 11
248.270217
 21
300.723990
 31
0.0
  0
LINE
  5
23f
100
AcDbEntity
  8
Layer_1
 62
1
100
AcDbLine
 10
248.270217
 20
300.723990
 30
0.0
 11
248.270217
 21
289.824003
 31
0.0
  0
LINE
  5
240
100
AcDbEntity
  8
Layer_1
 62
1
100
AcDbLine
 10
248.270217
 20
289.824003
 30
0.0
 11
244.270245
 21
289.824003
 31
0.0
  0
LINE
  5
241
100
AcDbEntity
  8
Layer_1
 62
1
100
AcDbLine
 10
244.270245
 20
289.824003
 30
0.0
 11
244.270245
 21
278.723977
 31
0.0
  0
LINE
  5
242
100
AcDbEntity
  8
Layer_1
 62
1
100
AcDbLine
 10
244.270245
 20
278.723977
 30
0.0
 11
248.270217
 21
278.723977
 31
0.0
  0
LINE
  5
243
100
AcDbEntity
  8
Layer_1
 62
1
100
AcDbLine
 10
248.270217
 20
278.723977
 30
0.0
 11
248.270217
 21
267.823994
 31
0.0
  0
LINE
  5
244
100
AcDbEntity
  8
Layer_1
 62
1
100
AcDbLine
 10
248.270217
 20
267.823994
 30
0.0
 11
244.270245
 21
267.823994
 31
0.0
  0
LINE
  5
245
100
AcDbEntity
  8
Layer_1
 62
1
100
AcDbLine
 10
244.270245
 20
267.823994
 30
0.0
 11
244.270245
 21
256.723996
 31
0.0
  0
LINE
  5
246
100
AcDbEntity
  8
Layer_1
 62
1
100
AcDbLine
 10
244.270245
 20
256.723996
 30
0.0
 11
248.270217
 21
256.723996
 31
0.0
  0
LINE
  5
247
100
AcDbEntity
  8
Layer_1
 62
1
100
AcDbLine
 10
248.270217
 20
256.723996
 30
0.0
 11
248.270217
 21
245.723990
 31
0.0
  0
LINE
  5
248
100
AcDbEntity
  8
Layer_1
 62
1
100
AcDbLine
 10
248.270217
 20
245.723990
 30
0.0
 11
258.881349
 21
245.723990
 31
0.0
  0
LINE
  5
249
100
AcDbEntity
  8
Layer_1
 62
1
100
AcDbLine
 10
258.881349
 20
245.723990
 30
0.0
 11
258.881349
 21
241.723998
 31
0.0
  0
LINE
  5
24a
100
AcDbEntity
  8
Layer_1
 62
1
100
AcDbLine
 10
258.881349
 20
241.723998
 30
0.0
 11
269.592465
 21
241.723998
 31
0.0
  0
LINE
  5
24b
100
AcDbEntity
  8
Layer_1
 62
1
100
AcDbLine
 10
269.592465
 20
241.723998
 30
0.0
 11
269.592465
 21
245.723990
 31
0.0
  0
LINE
  5
24c
100
AcDbEntity
  8
Layer_1
 62
1
100
AcDbLine
 10
269.592465
 20
245.723990
 30
0.0
 11
280.103583
 21
245.723990
 31
0.0
  0
LINE
  5
24d
100
AcDbEntity
  8
Layer_1
 62
1
100
AcDbLine
 10
280.103583
 20
245.723990
 30
0.0
 11
280.103583
 21
241.723998
 31
0.0
  0
LINE
  5
24e
100
AcDbEntity
  8
Layer_1
 62
1
100
AcDbLine
 10
280.103583
 20
241.723998
 30
0.0
 11
290.814704
 21
241.723998
 31
0.0
  0
LINE
  5
24f
100
AcDbEntity
  8
Layer_1
 62
1
100
AcDbLine
 10
290.814704
 20
241.723998
 30
0.0
 11
290.814704
 21
245.723990
 31
0.0
  0
LINE
  5
250
100
AcDbEntity
  8
Layer_1
 62
1
100
AcDbLine
 10
290.814704
 20
245.723990
 30
0.0
 11
301.325788
 21
245.723990
 31
0.0
  0
LINE
  5
251
100
AcDbEntity
  8
Layer_1
 62
1
100
AcDbLine
 10
301.325788
 20
245.723990
 30
0.0
 11
301.325788
 21
241.723998
 31
0.0
  0
LINE
  5
252
100
AcDbEntity
  8
Layer_1
 62
1
100
AcDbLine
 10
301.325788
 20
241.723998
 30
0.0
 11
312.036940
 21
241.723998
 31
0.0
  0
LINE
  5
253
100
AcDbEntity
  8
Layer_1
 62
1
100
AcDbLine
 10
312.036940
 20
241.723998
 30
0.0
 11
312.036940
 21
245.723990
 31
0.0
  0
LINE
  5
254
100
AcDbEntity
  8
Layer_1
 62
1
100
AcDbLine
 10
312.036940
 20
245.723990
 30
0.0
 11
322.548024
 21
245.723990
 31
0.0
  0
LINE
  5
255
100
AcDbEntity
  8
Layer_1
 62
1
100
AcDbLine
 10
322.548024
 20
245.723990
 30
0.0
 11
322.548024
 21
241.723998
 31
0.0
  0
LINE
  5
256
100
AcDbEntity
  8
Layer_1
 62
1
100
AcDbLine
 10
322.548024
 20
241.723998
 30
0.0
 11
333.259120
 21
241.723998
 31
0.0
  0
LINE
  5
257
100
AcDbEntity
  8
Layer_1
 62
1
100
AcDbLine
 10
333.259120
 20
241.723998
 30
0.0
 11
333.259120
 21
245.723990
 31
0.0
  0
LINE
  5
258
100
AcDbEntity
  8
Layer_1
 62
1
100
AcDbLine
 10
333.259120
 20
245.723990
 30
0.0
 11
347.821363
 21
245.723990
 31
0.0
  0
LINE
  5
259
100
AcDbEntity
  8
Layer_1
 62
1
100
AcDbLine
 10
347.821363
 20
245.723990
 30
0.0
 11
347.821363
 21
388.823997
 31
0.0
  0
LINE
  5
25a
100
AcDbEntity
  8
Layer_1
 62
1
100
AcDbLine
 10
347.821363
 20
388.823997
 30
0.0
 11
333.259120
 21
388.823997
 31
0.0
  0
LINE
  5
25b
100
AcDbEntity
  8
Layer_1
 62
1
100
AcDbLine
 10
333.259120
 20
388.823997
 30
0.0
 11
333.259120
 21
392.823989
 31
0.0
  0
LINE
  5
25c
100
AcDbEntity
  8
Layer_1
 62
1
100
AcDbLine
 10
333.259120
 20
392.823989
 30
0.0
 11
322.548024
 21
392.823989
 31
0.0
  0
LINE
  5
25d
100
AcDbEntity
  8
Layer_1
 62
1
100
AcDbLine
 10
322.548024
 20
392.823989
 30
0.0
 11
322.548024
 21
388.823997
 31
0.0
  0
LINE
  5
25e
100
AcDbEntity
  8
Layer_1
 62
1
100
AcDbLine
 10
322.548024
 20
388.823997
 30
0.0
 11
312.036940
 21
388.823997
 31
0.0
  0
LINE
  5
25f
100
AcDbEntity
  8
Layer_1
 62
1
100
AcDbLine
 10
312.036940
 20
388.823997
 30
0.0
 11
312.036940
 21
392.823989
 31
0.0
  0
LINE
  5
260
100
AcDbEntity
  8
Layer_1
 62
1
100
AcDbLine
 10
312.036940
 20
392.823989
 30
0.0
 11
301.325788
 21
392.823989
 31
0.0
  0
LINE
  5
261
100
AcDbEntity
  8
Layer_1
 62
1
100
AcDbLine
 10
301.325788
 20
392.823989
 30
0.0
 11
301.325788
 21
388.823997
 31
0.0
  0
LINE
  5
262
100
AcDbEntity
  8
Layer_1
 62
1
100
AcDbLine
 10
301.325788
 20
388.823997
 30
0.0
 11
290.814704
 21
388.823997
 31
0.0
  0
LINE
  5
263
100
AcDbEntity
  8
Layer_1
 62
1
100
AcDbLine
 10
290.814704
 20
388.823997
 30
0.0
 11
290.814704
 21
392.823989
 31
0.0
  0
LINE
  5
264
100
AcDbEntity
  8
Layer_1
 62
1
100
AcDbLine
 10
290.814704
 20
392.823989
 30
0.0
 11
280.103583
 21
392.823989
 31
0.0
  0
LINE
  5
265
100
AcDbEntity
  8
Layer_1
 62
1
100
AcDbLine
 10
280.103583
 20
392.823989
 30
0.0
 11
280.103583
 21
388.823997
 31
0.0
  0
LINE
  5
266
100
AcDbEntity
  8
Layer_1
 62
1
100
AcDbLine
 10
280.103583
 20
388.823997
 30
0.0
 11
269.592465
 21
388.823997
 31
0.0
  0
LINE
  5
267
100
AcDbEntity
  8
Layer_1
 62
1
100
AcDbLine
 10
269.592465
 20
388.823997
 30
0.0
 11
269.592465
 21
392.823989
 31
0.0
  0
LINE
  5
268
100
AcDbEntity
  8
Layer_1
 62
1
100
AcDbLine
 10
269.592465
 20
392.823989
 30
0.0
 11
258.881349
 21
392.823989
 31
0.0
  0
LINE
  5
269
100
AcDbEntity
  8
Layer_1
 62
1
100
AcDbLine
 10
258.881349
 20
392.823989
 30
0.0
 11
258.881349
 21
388.823997
 31
0.0
  0
LINE
  5
26a
100
AcDbEntity
  8
Layer_1
 62
1
100
AcDbLine
 10
258.881349
 20
388.823997
 30
0.0
 11
248.270217
 21
388.823997
 31
0.0
  0
LINE
  5
26b
100
AcDbEntity
  8
Layer_1
 62
1
100
AcDbLine
 10
248.270217
 20
388.823997
 30
0.0
 11
248.270217
 21
377.823991
 31
0.0
  0
LINE
  5
26c
100
AcDbEntity
  8
Layer_1
 62
1
100
AcDbLine
 10
248.270217
 20
377.823991
 30
0.0
 11
244.270245
 21
377.823991
 31
0.0
  0
LINE
  5
26d
100
AcDbEntity
  8
Layer_1
 62
1
100
AcDbLine
 10
244.270245
 20
377.823991
 30
0.0
 11
244.270245
 21
366.723996
 31
0.0
  0
LINE
  5
26e
100
AcDbEntity
  8
Layer_1
 62
1
100
AcDbLine
 10
244.270245
 20
366.723996
 30
0.0
 11
248.270217
 21
366.723996
 31
0.0
  0
LINE
  5
26f
100
AcDbEntity
  8
Layer_1
 62
1
100
AcDbLine
 10
248.270217
 20
366.723996
 30
0.0
 11
248.270217
 21
355.824010
 31
0.0
  0
LINE
  5
270
100
AcDbEntity
  8
Layer_1
 62
1
100
AcDbLine
 10
248.270217
 20
355.824010
 30
0.0
 11
244.270245
 21
355.824010
 31
0.0
  0
LINE
  5
271
100
AcDbEntity
  8
Layer_1
 62
1
100
AcDbLine
 10
340.335023
 20
379.794893
 30
0.0
 11
340.335023
 21
376.793911
 31
0.0
  0
LINE
  5
272
100
AcDbEntity
  8
Layer_1
 62
1
100
AcDbLine
 10
340.335023
 20
376.793911
 30
0.0
 11
337.334013
 21
376.793911
 31
0.0
  0
LINE
  5
273
100
AcDbEntity
  8
Layer_1
 62
1
100
AcDbLine
 10
337.334013
 20
376.793911
 30
0.0
 11
337.334013
 21
379.794893
 31
0.0
  0
LINE
  5
274
100
AcDbEntity
  8
Layer_1
 62
1
100
AcDbLine
 10
337.334013
 20
379.794893
 30
0.0
 11
340.335023
 21
379.794893
 31
0.0
  0
LINE
  5
275
100
AcDbEntity
  8
Layer_1
 62
1
100
AcDbLine
 10
328.331012
 20
376.793911
 30
0.0
 11
328.331012
 21
379.794893
 31
0.0
  0
LINE
  5
276
100
AcDbEntity
  8
Layer_1
 62
1
100
AcDbLine
 10
328.331012
 20
379.794893
 30
0.0
 11
331.332022
 21
379.794893
 31
0.0
  0
LINE
  5
277
100
AcDbEntity
  8
Layer_1
 62
1
100
AcDbLine
 10
331.332022
 20
379.794893
 30
0.0
 11
331.332022
 21
376.793911
 31
0.0
  0
LINE
  5
278
100
AcDbEntity
  8
Layer_1
 62
1
100
AcDbLine
 10
331.332022
 20
376.793911
 30
0.0
 11
328.331012
 21
376.793911
 31
0.0
  0
LINE
  5
279
100
AcDbEntity
  8
Layer_1
 62
1
100
AcDbLine
 10
331.332022
 20
257.754130
 30
0.0
 11
331.332022
 21
254.753120
 31
0.0
  0
LINE
  5
27a
100
AcDbEntity
  8
Layer_1
 62
1
100
AcDbLine
 10
331.332022
 20
254.753120
 30
0.0
 11
328.331012
 21
254.753120
 31
0.0
  0
LINE
  5
27b
100
AcDbEntity
  8
Layer_1
 62
1
100
AcDbLine
 10
328.331012
 20
254.753120
 30
0.0
 11
328.331012
 21
257.754130
 31
0.0
  0
LINE
  5
27c
100
AcDbEntity
  8
Layer_1
 62
1
100
AcDbLine
 10
328.331012
 20
257.754130
 30
0.0
 11
331.332022
 21
257.754130
 31
0.0
  0
LINE
  5
27d
100
AcDbEntity
  8
Layer_1
 62
1
100
AcDbLine
 10
337.334013
 20
254.753120
 30
0.0
 11
337.334013
 21
257.754130
 31
0.0
  0
LINE
  5
27e
100
AcDbEntity
  8
Layer_1
 62
1
100
AcDbLine
 10
337.334013
 20
257.754130
 30
0.0
 11
340.335023
 21
257.754130
 31
0.0
  0
LINE
  5
27f
100
AcDbEntity
  8
Layer_1
 62
1
100
AcDbLine
 10
340.335023
 20
257.754130
 30
0.0
 11
340.335023
 21
254.753120
 31
0.0
  0
LINE
  5
280
100
AcDbEntity
  8
Layer_1
 62
1
100
AcDbLine
 10
340.335023
 20
254.753120
 30
0.0
 11
337.334013
 21
254.753120
 31
0.0
  0
SPLINE
  5
281
100
AcDbEntity
  8
Layer_1
 62
1
100
AcDbSpline
 70
8
 71
3
 72
8
 73
4
 74
0
 40
0
 40
0
 40
0
 40
0
 40
1
 40
1
 40
1
 40
1
 10
257.575617
 20
222.469954
 30
0.0
 10
255.573967
 20
222.469954
 30
0.0
 10
255.573967
 20
219.467476
 30
0.0
 10
257.575617
 20
219.467476
 30
0.0
  0
LINE
  5
282
100
AcDbEntity
  8
Layer_1
 62
1
100
AcDbLine
 10
257.575617
 20
219.467476
 30
0.0
 11
265.582129
 21
219.467476
 31
0.0
  0
SPLINE
  5
283
100
AcDbEntity
  8
Layer_1
 62
1
100
AcDbSpline
 70
8
 71
3
 72
8
 73
4
 74
0
 40
0
 40
0
 40
0
 40
0
 40
1
 40
1
 40
1
 40
1
 10
265.582129
 20
219.467476
 30
0.0
 10
267.583779
 20
219.467476
 30
0.0
 10
267.583779
 20
222.469954
 30
0.0
 10
265.582129
 20
222.469954
 30
0.0
  0
LINE
  5
284
100
AcDbEntity
  8
Layer_1
 62
1
100
AcDbLine
 10
265.582129
 20
222.469954
 30
0.0
 11
257.575617
 21
222.469954
 31
0.0
  0
SPLINE
  5
285
100
AcDbEntity
  8
Layer_1
 62
1
100
AcDbSpline
 70
8
 71
3
 72
8
 73
4
 74
0
 40
0
 40
0
 40
0
 40
0
 40
1
 40
1
 40
1
 40
1
 10
265.582129
 20
207.457707
 30
0.0
 10
267.576170
 20
207.465271
 30
0.0
 10
267.576170
 20
210.452571
 30
0.0
 10
265.582129
 20
210.460128
 30
0.0
  0
LINE
  5
286
100
AcDbEntity
  8
Layer_1
 62
1
100
AcDbLine
 10
265.582129
 20
210.460128
 30
0.0
 11
257.575617
 21
210.460128
 31
0.0
  0
SPLINE
  5
287
100
AcDbEntity
  8
Layer_1
 62
1
100
AcDbSpline
 70
8
 71
3
 72
8
 73
4
 74
0
 40
0
 40
0
 40
0
 40
0
 40
1
 40
1
 40
1
 40
1
 10
257.575617
 20
210.460128
 30
0.0
 10
255.581576
 20
210.452565
 30
0.0
 10
255.581576
 20
207.465265
 30
0.0
 10
257.575617
 20
207.457707
 30
0.0
  0
LINE
  5
288
100
AcDbEntity
  8
Layer_1
 62
1
100
AcDbLine
 10
257.575617
 20
207.457707
 30
0.0
 11
265.582129
 21
207.457707
 31
0.0
  0
SPLINE
  5
289
100
AcDbEntity
  8
Layer_1
 62
1
100
AcDbSpline
 70
8
 71
3
 72
8
 73
4
 74
0
 40
0
 40
0
 40
0
 40
0
 40
1
 40
1
 40
1
 40
1
 10
265.582129
 20
201.452837
 30
0.0
 10
267.592948
 20
201.443608
 30
0.0
 10
267.592948
 20
204.464484
 30
0.0
 10
265.582129
 20
204.455258
 30
0.0
  0
LINE
  5
28a
100
AcDbEntity
  8
Layer_1
 62
1
100
AcDbLine
 10
265.582129
 20
204.455258
 30
0.0
 11
257.575617
 21
204.455258
 31
0.0
  0
SPLINE
  5
28b
100
AcDbEntity
  8
Layer_1
 62
1
100
AcDbSpline
 70
8
 71
3
 72
8
 73
4
 74
0
 40
0
 40
0
 40
0
 40
0
 40
1
 40
1
 40
1
 40
1
 10
257.575617
 20
204.455258
 30
0.0
 10
255.583168
 20
204.446114
 30
0.0
 10
255.583168
 20
201.461981
 30
0.0
 10
257.575617
 20
201.452837
 30
0.0
  0
LINE
  5
28c
100
AcDbEntity
  8
Layer_1
 62
1
100
AcDbLine
 10
257.575617
 20
201.452837
 30
0.0
 11
265.582129
 21
201.452837
 31
0.0
  0
SPLINE
  5
28d
100
AcDbEntity
  8
Layer_1
 62
1
100
AcDbSpline
 70
8
 71
3
 72
8
 73
4
 74
0
 40
0
 40
0
 40
0
 40
0
 40
1
 40
1
 40
1
 40
1
 10
265.582129
 20
195.447938
 30
0.0
 10
267.576170
 20
195.455502
 30
0.0
 10
267.576170
 20
198.442801
 30
0.0
 10
265.582129
 20
198.450359
 30
0.0
  0
LINE
  5
28e
100
AcDbEntity
  8
Layer_1
 62
1
100
AcDbLine
 10
265.582129
 20
198.450359
 30
0.0
 11
257.575617
 21
198.450359
 31
0.0
  0
SPLINE
  5
28f
100
AcDbEntity
  8
Layer_1
 62
1
100
AcDbSpline
 70
8
 71
3
 72
8
 73
4
 74
0
 40
0
 40
0
 40
0
 40
0
 40
1
 40
1
 40
1
 40
1
 10
257.575617
 20
198.450359
 30
0.0
 10
255.581576
 20
198.442796
 30
0.0
 10
255.581576
 20
195.455496
 30
0.0
 10
257.575617
 20
195.447938
 30
0.0
  0
LINE
  5
290
100
AcDbEntity
  8
Layer_1
 62
1
100
AcDbLine
 10
257.575617
 20
195.447938
 30
0.0
 11
265.582129
 21
195.447938
 31
0.0
  0
SPLINE
  5
291
100
AcDbEntity
  8
Layer_1
 62
1
100
AcDbSpline
 70
8
 71
3
 72
8
 73
4
 74
0
 40
0
 40
0
 40
0
 40
0
 40
1
 40
1
 40
1
 40
1
 10
265.582129
 20
189.443040
 30
0.0
 10
267.583779
 20
189.443040
 30
0.0
 10
267.583779
 20
192.445517
 30
0.0
 10
265.582129
 20
192.445517
 30
0.0
  0
LINE
  5
292
100
AcDbEntity
  8
Layer_1
 62
1
100
AcDbLine
 10
265.582129
 20
192.445517
 30
0.0
 11
257.575617
 21
192.445517
 31
0.0
  0
SPLINE
  5
293
100
AcDbEntity
  8
Layer_1
 62
1
100
AcDbSpline
 70
8
 71
3
 72
8
 73
4
 74
0
 40
0
 40
0
 40
0
 40
0
 40
1
 40
1
 40
1
 40
1
 10
257.575617
 20
192.445517
 30
0.0
 10
255.573967
 20
192.445517
 30
0.0
 10
255.573967
 20
189.443040
 30
0.0
 10
257.575617
 20
189.443040
 30
0.0
  0
LINE
  5
294
100
AcDbEntity
  8
Layer_1
 62
1
100
AcDbLine
 10
257.575617
 20
189.443040
 30
0.0
 11
265.582129
 21
189.443040
 31
0.0
  0
SPLINE
  5
295
100
AcDbEntity
  8
Layer_1
 62
1
100
AcDbSpline
 70
8
 71
3
 72
8
 73
4
 74
0
 40
0
 40
0
 40
0
 40
0
 40
1
 40
1
 40
1
 40
1
 10
265.582129
 20
183.438141
 30
0.0
 10
267.588492
 20
183.433428
 30
0.0
 10
267.588492
 20
186.445334
 30
0.0
 10
265.582129
 20
186.440618
 30
0.0
  0
LINE
  5
296
100
AcDbEntity
  8
Layer_1
 62
1
100
AcDbLine
 10
265.582129
 20
186.440618
 30
0.0
 11
257.575617
 21
186.440618
 31
0.0
  0
SPLINE
  5
297
100
AcDbEntity
  8
Layer_1
 62
1
100
AcDbSpline
 70
8
 71
3
 72
8
 73
4
 74
0
 40
0
 40
0
 40
0
 40
0
 40
1
 40
1
 40
1
 40
1
 10
257.575617
 20
186.440618
 30
0.0
 10
255.578666
 20
186.435934
 30
0.0
 10
255.578666
 20
183.442834
 30
0.0
 10
257.575617
 20
183.438141
 30
0.0
  0
LINE
  5
298
100
AcDbEntity
  8
Layer_1
 62
1
100
AcDbLine
 10
257.575617
 20
183.438141
 30
0.0
 11
265.582129
 21
183.438141
 31
0.0
  0
SPLINE
  5
299
100
AcDbEntity
  8
Layer_1
 62
1
100
AcDbSpline
 70
8
 71
3
 72
8
 73
4
 74
0
 40
0
 40
0
 40
0
 40
0
 40
1
 40
1
 40
1
 40
1
 10
257.575617
 20
180.435776
 30
0.0
 10
255.577744
 20
180.432023
 30
0.0
 10
255.577744
 20
177.437083
 30
0.0
 10
257.575617
 20
177.433327
 30
0.0
  0
LINE
  5
29a
100
AcDbEntity
  8
Layer_1
 62
1
100
AcDbLine
 10
257.575617
 20
177.433327
 30
0.0
 11
265.582129
 21
177.433327
 31
0.0
  0
SPLINE
  5
29b
100
AcDbEntity
  8
Layer_1
 62
1
100
AcDbSpline
 70
8
 71
3
 72
8
 73
4
 74
0
 40
0
 40
0
 40
0
 40
0
 40
1
 40
1
 40
1
 40
1
 10
265.582129
 20
177.433327
 30
0.0
 10
267.587527
 20
177.429545
 30
0.0
 10
267.587527
 20
180.439547
 30
0.0
 10
265.582129
 20
180.435776
 30
0.0
  0
LINE
  5
29c
100
AcDbEntity
  8
Layer_1
 62
1
100
AcDbLine
 10
265.582129
 20
180.435776
 30
0.0
 11
257.575617
 21
180.435776
 31
0.0
  0
SPLINE
  5
29d
100
AcDbEntity
  8
Layer_1
 62
1
100
AcDbSpline
 70
8
 71
3
 72
8
 73
4
 74
0
 40
0
 40
0
 40
0
 40
0
 40
1
 40
1
 40
1
 40
1
 10
265.582129
 20
171.428428
 30
0.0
 10
267.593225
 20
171.418917
 30
0.0
 10
267.593225
 20
174.440355
 30
0.0
 10
265.582129
 20
174.430849
 30
0.0
  0
LINE
  5
29e
100
AcDbEntity
  8
Layer_1
 62
1
100
AcDbLine
 10
265.582129
 20
174.430849
 30
0.0
 11
257.575617
 21
174.430849
 31
0.0
  0
SPLINE
  5
29f
100
AcDbEntity
  8
Layer_1
 62
1
100
AcDbSpline
 70
8
 71
3
 72
8
 73
4
 74
0
 40
0
 40
0
 40
0
 40
0
 40
1
 40
1
 40
1
 40
1
 10
257.575617
 20
174.430849
 30
0.0
 10
255.583442
 20
174.421423
 30
0.0
 10
255.583442
 20
171.437843
 30
0.0
 10
257.575617
 20
171.428428
 30
0.0
  0
LINE
  5
2a0
100
AcDbEntity
  8
Layer_1
 62
1
100
AcDbLine
 10
257.575617
 20
171.428428
 30
0.0
 11
265.582129
 21
171.428428
 31
0.0
  0
SPLINE
  5
2a1
100
AcDbEntity
  8
Layer_1
 62
1
100
AcDbSpline
 70
8
 71
3
 72
8
 73
4
 74
0
 40
0
 40
0
 40
0
 40
0
 40
1
 40
1
 40
1
 40
1
 10
257.575617
 20
156.416210
 30
0.0
 10
255.578666
 20
156.411525
 30
0.0
 10
255.578666
 20
153.418426
 30
0.0
 10
257.575617
 20
153.413732
 30
0.0
  0
LINE
  5
2a2
100
AcDbEntity
  8
Layer_1
 62
1
100
AcDbLine
 10
257.575617
 20
153.413732
 30
0.0
 11
265.582129
 21
153.413732
 31
0.0
  0
SPLINE
  5
2a3
100
AcDbEntity
  8
Layer_1
 62
1
100
AcDbSpline
 70
8
 71
3
 72
8
 73
4
 74
0
 40
0
 40
0
 40
0
 40
0
 40
1
 40
1
 40
1
 40
1
 10
265.582129
 20
153.413732
 30
0.0
 10
267.588492
 20
153.409019
 30
0.0
 10
267.588492
 20
156.420926
 30
0.0
 10
265.582129
 20
156.416210
 30
0.0
  0
LINE
  5
2a4
100
AcDbEntity
  8
Layer_1
 62
1
100
AcDbLine
 10
265.582129
 20
156.416210
 30
0.0
 11
257.575617
 21
156.416210
 31
0.0
  0
SPLINE
  5
2a5
100
AcDbEntity
  8
Layer_1
 62
1
100
AcDbSpline
 70
8
 71
3
 72
8
 73
4
 74
0
 40
0
 40
0
 40
0
 40
0
 40
1
 40
1
 40
1
 40
1
 10
265.582129
 20
147.408805
 30
0.0
 10
267.583818
 20
147.408805
 30
0.0
 10
267.583818
 20
150.411339
 30
0.0
 10
265.582129
 20
150.411339
 30
0.0
  0
LINE
  5
2a6
100
AcDbEntity
  8
Layer_1
 62
1
100
AcDbLine
 10
265.582129
 20
150.411339
 30
0.0
 11
257.575617
 21
150.411339
 31
0.0
  0
SPLINE
  5
2a7
100
AcDbEntity
  8
Layer_1
 62
1
100
AcDbSpline
 70
8
 71
3
 72
8
 73
4
 74
0
 40
0
 40
0
 40
0
 40
0
 40
1
 40
1
 40
1
 40
1
 10
257.575617
 20
150.411339
 30
0.0
 10
255.573928
 20
150.411339
 30
0.0
 10
255.573928
 20
147.408805
 30
0.0
 10
257.575617
 20
147.408805
 30
0.0
  0
LINE
  5
2a8
100
AcDbEntity
  8
Layer_1
 62
1
100
AcDbLine
 10
257.575617
 20
147.408805
 30
0.0
 11
265.582129
 21
147.408805
 31
0.0
  0
SPLINE
  5
2a9
100
AcDbEntity
  8
Layer_1
 62
1
100
AcDbSpline
 70
8
 71
3
 72
8
 73
4
 74
0
 40
0
 40
0
 40
0
 40
0
 40
1
 40
1
 40
1
 40
1
 10
265.582129
 20
141.403991
 30
0.0
 10
267.594492
 20
141.393210
 30
0.0
 10
267.594492
 20
144.417191
 30
0.0
 10
265.582129
 20
144.406412
 30
0.0
  0
LINE
  5
2aa
100
AcDbEntity
  8
Layer_1
 62
1
100
AcDbLine
 10
265.582129
 20
144.406412
 30
0.0
 11
257.575617
 21
144.406412
 31
0.0
  0
SPLINE
  5
2ab
100
AcDbEntity
  8
Layer_1
 62
1
100
AcDbSpline
 70
8
 71
3
 72
8
 73
4
 74
0
 40
0
 40
0
 40
0
 40
0
 40
1
 40
1
 40
1
 40
1
 10
257.575617
 20
144.406412
 30
0.0
 10
255.584698
 20
144.395744
 30
0.0
 10
255.584698
 20
141.414654
 30
0.0
 10
257.575617
 20
141.403991
 30
0.0
  0
LINE
  5
2ac
100
AcDbEntity
  8
Layer_1
 62
1
100
AcDbLine
 10
257.575617
 20
141.403991
 30
0.0
 11
265.582129
 21
141.403991
 31
0.0
  0
SPLINE
  5
2ad
100
AcDbEntity
  8
Layer_1
 62
1
100
AcDbSpline
 70
8
 71
3
 72
8
 73
4
 74
0
 40
0
 40
0
 40
0
 40
0
 40
1
 40
1
 40
1
 40
1
 10
265.582129
 20
135.399121
 30
0.0
 10
267.569329
 20
135.413458
 30
0.0
 10
267.569329
 20
138.387160
 30
0.0
 10
265.582129
 20
138.401486
 30
0.0
  0
LINE
  5
2ae
100
AcDbEntity
  8
Layer_1
 62
1
100
AcDbLine
 10
265.582129
 20
138.401486
 30
0.0
 11
257.575617
 21
138.401486
 31
0.0
  0
SPLINE
  5
2af
100
AcDbEntity
  8
Layer_1
 62
1
100
AcDbSpline
 70
8
 71
3
 72
8
 73
4
 74
0
 40
0
 40
0
 40
0
 40
0
 40
1
 40
1
 40
1
 40
1
 10
257.575617
 20
138.401486
 30
0.0
 10
255.588417
 20
138.387149
 30
0.0
 10
255.588417
 20
135.413447
 30
0.0
 10
257.575617
 20
135.399121
 30
0.0
  0
LINE
  5
2b0
100
AcDbEntity
  8
Layer_1
 62
1
100
AcDbLine
 10
257.575617
 20
135.399121
 30
0.0
 11
265.582129
 21
135.399121
 31
0.0
  0
SPLINE
  5
2b1
100
AcDbEntity
  8
Layer_1
 62
1
100
AcDbSpline
 70
8
 71
3
 72
8
 73
4
 74
0
 40
0
 40
0
 40
0
 40
0
 40
1
 40
1
 40
1
 40
1
 10
257.575617
 20
126.391773
 30
0.0
 10
255.581576
 20
126.384209
 30
0.0
 10
255.581576
 20
123.396910
 30
0.0
 10
257.575617
 20
123.389352
 30
0.0
  0
LINE
  5
2b2
100
AcDbEntity
  8
Layer_1
 62
1
100
AcDbLine
 10
257.575617
 20
123.389352
 30
0.0
 11
265.582129
 21
123.389352
 31
0.0
  0
SPLINE
  5
2b3
100
AcDbEntity
  8
Layer_1
 62
1
100
AcDbSpline
 70
8
 71
3
 72
8
 73
4
 74
0
 40
0
 40
0
 40
0
 40
0
 40
1
 40
1
 40
1
 40
1
 10
265.582129
 20
123.389352
 30
0.0
 10
267.576170
 20
123.396915
 30
0.0
 10
267.576170
 20
126.384215
 30
0.0
 10
265.582129
 20
126.391773
 30
0.0
  0
LINE
  5
2b4
100
AcDbEntity
  8
Layer_1
 62
1
100
AcDbLine
 10
265.582129
 20
126.391773
 30
0.0
 11
257.575617
 21
126.391773
 31
0.0
  0
SPLINE
  5
2b5
100
AcDbEntity
  8
Layer_1
 62
1
100
AcDbSpline
 70
8
 71
3
 72
8
 73
4
 74
0
 40
0
 40
0
 40
0
 40
0
 40
1
 40
1
 40
1
 40
1
 10
257.575617
 20
120.386874
 30
0.0
 10
255.573967
 20
120.386874
 30
0.0
 10
255.573967
 20
117.384397
 30
0.0
 10
257.575617
 20
117.384397
 30
0.0
  0
LINE
  5
2b6
100
AcDbEntity
  8
Layer_1
 62
1
100
AcDbLine
 10
257.575617
 20
117.384397
 30
0.0
 11
265.582129
 21
117.384397
 31
0.0
  0
SPLINE
  5
2b7
100
AcDbEntity
  8
Layer_1
 62
1
100
AcDbSpline
 70
8
 71
3
 72
8
 73
4
 74
0
 40
0
 40
0
 40
0
 40
0
 40
1
 40
1
 40
1
 40
1
 10
265.582129
 20
117.384397
 30
0.0
 10
267.583779
 20
117.384397
 30
0.0
 10
267.583779
 20
120.386874
 30
0.0
 10
265.582129
 20
120.386874
 30
0.0
  0
LINE
  5
2b8
100
AcDbEntity
  8
Layer_1
 62
1
100
AcDbLine
 10
265.582129
 20
120.386874
 30
0.0
 11
257.575617
 21
120.386874
 31
0.0
  0
SPLINE
  5
2b9
100
AcDbEntity
  8
Layer_1
 62
1
100
AcDbSpline
 70
8
 71
3
 72
8
 73
4
 74
0
 40
0
 40
0
 40
0
 40
0
 40
1
 40
1
 40
1
 40
1
 10
257.575617
 20
114.381976
 30
0.0
 10
255.586137
 20
114.369896
 30
0.0
 10
255.586137
 20
111.391659
 30
0.0
 10
257.575617
 20
111.379583
 30
0.0
  0
LINE
  5
2ba
100
AcDbEntity
  8
Layer_1
 62
1
100
AcDbLine
 10
257.575617
 20
111.379583
 30
0.0
 11
265.582129
 21
111.379583
 31
0.0
  0
SPLINE
  5
2bb
100
AcDbEntity
  8
Layer_1
 62
1
100
AcDbSpline
 70
8
 71
3
 72
8
 73
4
 74
0
 40
0
 40
0
 40
0
 40
0
 40
1
 40
1
 40
1
 40
1
 10
265.582129
 20
111.379583
 30
0.0
 10
267.595912
 20
111.367362
 30
0.0
 10
267.595912
 20
114.394199
 30
0.0
 10
265.582129
 20
114.381976
 30
0.0
  0
LINE
  5
2bc
100
AcDbEntity
  8
Layer_1
 62
1
100
AcDbLine
 10
265.582129
 20
114.381976
 30
0.0
 11
257.575617
 21
114.381976
 31
0.0
  0
SPLINE
  5
2bd
100
AcDbEntity
  8
Layer_1
 62
1
100
AcDbSpline
 70
8
 71
3
 72
8
 73
4
 74
0
 40
0
 40
0
 40
0
 40
0
 40
1
 40
1
 40
1
 40
1
 10
265.582129
 20
105.374684
 30
0.0
 10
267.576170
 20
105.382248
 30
0.0
 10
267.576170
 20
108.369547
 30
0.0
 10
265.582129
 20
108.377105
 30
0.0
  0
LINE
  5
2be
100
AcDbEntity
  8
Layer_1
 62
1
100
AcDbLine
 10
265.582129
 20
108.377105
 30
0.0
 11
257.575617
 21
108.377105
 31
0.0
  0
SPLINE
  5
2bf
100
AcDbEntity
  8
Layer_1
 62
1
100
AcDbSpline
 70
8
 71
3
 72
8
 73
4
 74
0
 40
0
 40
0
 40
0
 40
0
 40
1
 40
1
 40
1
 40
1
 10
257.575617
 20
108.377105
 30
0.0
 10
255.581576
 20
108.369542
 30
0.0
 10
255.581576
 20
105.382242
 30
0.0
 10
257.575617
 20
105.374684
 30
0.0
  0
LINE
  5
2c0
100
AcDbEntity
  8
Layer_1
 62
1
100
AcDbLine
 10
257.575617
 20
105.374684
 30
0.0
 11
265.582129
 21
105.374684
 31
0.0
  0
SPLINE
  5
2c1
100
AcDbEntity
  8
Layer_1
 62
1
100
AcDbSpline
 70
8
 71
3
 72
8
 73
4
 74
0
 40
0
 40
0
 40
0
 40
0
 40
1
 40
1
 40
1
 40
1
 10
265.582129
 20
99.369814
 30
0.0
 10
267.571909
 20
99.381582
 30
0.0
 10
267.571909
 20
102.360427
 30
0.0
 10
265.582129
 20
102.372206
 30
0.0
  0
LINE
  5
2c2
100
AcDbEntity
  8
Layer_1
 62
1
100
AcDbLine
 10
265.582129
 20
102.372206
 30
0.0
 11
257.575617
 21
102.372206
 31
0.0
  0
SPLINE
  5
2c3
100
AcDbEntity
  8
Layer_1
 62
1
100
AcDbSpline
 70
8
 71
3
 72
8
 73
4
 74
0
 40
0
 40
0
 40
0
 40
0
 40
1
 40
1
 40
1
 40
1
 10
257.575617
 20
102.372206
 30
0.0
 10
255.585838
 20
102.360438
 30
0.0
 10
255.585838
 20
99.381594
 30
0.0
 10
257.575617
 20
99.369814
 30
0.0
  0
LINE
  5
2c4
100
AcDbEntity
  8
Layer_1
 62
1
100
AcDbLine
 10
257.575617
 20
99.369814
 30
0.0
 11
265.582129
 21
99.369814
 31
0.0
  0
SPLINE
  5
2c5
100
AcDbEntity
  8
Layer_1
 62
1
100
AcDbSpline
 70
8
 71
3
 72
8
 73
4
 74
0
 40
0
 40
0
 40
0
 40
0
 40
1
 40
1
 40
1
 40
1
 10
257.575617
 20
96.367336
 30
0.0
 10
255.582491
 20
96.358869
 30
0.0
 10
255.582491
 20
93.373373
 30
0.0
 10
257.575617
 20
93.364906
 30
0.0
  0
LINE
  5
2c6
100
AcDbEntity
  8
Layer_1
 62
1
100
AcDbLine
 10
257.575617
 20
93.364906
 30
0.0
 11
265.582129
 21
93.364906
 31
0.0
  0
SPLINE
  5
2c7
100
AcDbEntity
  8
Layer_1
 62
1
100
AcDbSpline
 70
8
 71
3
 72
8
 73
4
 74
0
 40
0
 40
0
 40
0
 40
0
 40
1
 40
1
 40
1
 40
1
 10
265.582129
 20
93.364906
 30
0.0
 10
267.592262
 20
93.356440
 30
0.0
 10
267.592262
 20
96.375876
 30
0.0
 10
265.582129
 20
96.367336
 30
0.0
  0
LINE
  5
2c8
100
AcDbEntity
  8
Layer_1
 62
1
100
AcDbLine
 10
265.582129
 20
96.367336
 30
0.0
 11
257.575617
 21
96.367336
 31
0.0
  0
LINE
  5
2c9
100
AcDbEntity
  8
Layer_1
 62
1
100
AcDbLine
 10
257.575617
 20
213.462634
 30
0.0
 11
265.582129
 21
213.462634
 31
0.0
  0
SPLINE
  5
2ca
100
AcDbEntity
  8
Layer_1
 62
1
100
AcDbSpline
 70
8
 71
3
 72
8
 73
4
 74
0
 40
0
 40
0
 40
0
 40
0
 40
1
 40
1
 40
1
 40
1
 10
265.582129
 20
213.462634
 30
0.0
 10
267.590064
 20
213.456312
 30
0.0
 10
267.590064
 20
216.471397
 30
0.0
 10
265.582129
 20
216.465084
 30
0.0
  0
LINE
  5
2cb
100
AcDbEntity
  8
Layer_1
 62
1
100
AcDbLine
 10
265.582129
 20
216.465084
 30
0.0
 11
257.575617
 21
216.465084
 31
0.0
  0
SPLINE
  5
2cc
100
AcDbEntity
  8
Layer_1
 62
1
100
AcDbSpline
 70
8
 71
3
 72
8
 73
4
 74
0
 40
0
 40
0
 40
0
 40
0
 40
1
 40
1
 40
1
 40
1
 10
257.575617
 20
216.465084
 30
0.0
 10
255.580269
 20
216.458818
 30
0.0
 10
255.580269
 20
213.468908
 30
0.0
 10
257.575617
 20
213.462634
 30
0.0
  0
LINE
  5
2cd
100
AcDbEntity
  8
Layer_1
 62
1
100
AcDbLine
 10
257.575617
 20
213.462634
 30
0.0
 11
257.575617
 21
213.462634
 31
0.0
  0
LINE
  5
2ce
100
AcDbEntity
  8
Layer_1
 62
1
100
AcDbLine
 10
265.582129
 20
168.425979
 30
0.0
 11
257.575617
 21
168.425979
 31
0.0
  0
SPLINE
  5
2cf
100
AcDbEntity
  8
Layer_1
 62
1
100
AcDbSpline
 70
8
 71
3
 72
8
 73
4
 74
0
 40
0
 40
0
 40
0
 40
0
 40
1
 40
1
 40
1
 40
1
 10
257.575617
 20
168.425979
 30
0.0
 10
255.583140
 20
168.416835
 30
0.0
 10
255.583140
 20
165.432651
 30
0.0
 10
257.575617
 20
165.423501
 30
0.0
  0
LINE
  5
2d0
100
AcDbEntity
  8
Layer_1
 62
1
100
AcDbLine
 10
257.575617
 20
165.423501
 30
0.0
 11
265.582129
 21
165.423501
 31
0.0
  0
SPLINE
  5
2d1
100
AcDbEntity
  8
Layer_1
 62
1
100
AcDbSpline
 70
8
 71
3
 72
8
 73
4
 74
0
 40
0
 40
0
 40
0
 40
0
 40
1
 40
1
 40
1
 40
1
 10
265.582129
 20
165.423501
 30
0.0
 10
267.592993
 20
165.414273
 30
0.0
 10
267.592993
 20
168.435213
 30
0.0
 10
265.582129
 20
168.425979
 30
0.0
  0
LINE
  5
2d2
100
AcDbEntity
  8
Layer_1
 62
1
100
AcDbLine
 10
265.582129
 20
168.425979
 30
0.0
 11
265.582129
 21
168.425979
 31
0.0
  0
LINE
  5
2d3
100
AcDbEntity
  8
Layer_1
 62
1
100
AcDbLine
 10
265.582129
 20
162.421080
 30
0.0
 11
257.575617
 21
162.421080
 31
0.0
  0
SPLINE
  5
2d4
100
AcDbEntity
  8
Layer_1
 62
1
100
AcDbSpline
 70
8
 71
3
 72
8
 73
4
 74
0
 40
0
 40
0
 40
0
 40
0
 40
1
 40
1
 40
1
 40
1
 10
257.575617
 20
162.421080
 30
0.0
 10
255.581254
 20
162.413827
 30
0.0
 10
255.581254
 20
159.425887
 30
0.0
 10
257.575617
 20
159.418631
 30
0.0
  0
LINE
  5
2d5
100
AcDbEntity
  8
Layer_1
 62
1
100
AcDbLine
 10
257.575617
 20
159.418631
 30
0.0
 11
265.582129
 21
159.418631
 31
0.0
  0
SPLINE
  5
2d6
100
AcDbEntity
  8
Layer_1
 62
1
100
AcDbSpline
 70
8
 71
3
 72
8
 73
4
 74
0
 40
0
 40
0
 40
0
 40
0
 40
1
 40
1
 40
1
 40
1
 10
265.582129
 20
159.418631
 30
0.0
 10
267.591057
 20
159.411321
 30
0.0
 10
267.591057
 20
162.428390
 30
0.0
 10
265.582129
 20
162.421080
 30
0.0
  0
LINE
  5
2d7
100
AcDbEntity
  8
Layer_1
 62
1
100
AcDbLine
 10
265.582129
 20
162.421080
 30
0.0
 11
265.582129
 21
162.421080
 31
0.0
  0
LINE
  5
2d8
100
AcDbEntity
  8
Layer_1
 62
1
100
AcDbLine
 10
265.582129
 20
132.396643
 30
0.0
 11
257.575617
 21
132.396643
 31
0.0
  0
SPLINE
  5
2d9
100
AcDbEntity
  8
Layer_1
 62
1
100
AcDbSpline
 70
8
 71
3
 72
8
 73
4
 74
0
 40
0
 40
0
 40
0
 40
0
 40
1
 40
1
 40
1
 40
1
 10
257.575617
 20
132.396643
 30
0.0
 10
255.583168
 20
132.387499
 30
0.0
 10
255.583168
 20
129.403366
 30
0.0
 10
257.575617
 20
129.394222
 30
0.0
  0
LINE
  5
2da
100
AcDbEntity
  8
Layer_1
 62
1
100
AcDbLine
 10
257.575617
 20
129.394222
 30
0.0
 11
265.582129
 21
129.394222
 31
0.0
  0
SPLINE
  5
2db
100
AcDbEntity
  8
Layer_1
 62
1
100
AcDbSpline
 70
8
 71
3
 72
8
 73
4
 74
0
 40
0
 40
0
 40
0
 40
0
 40
1
 40
1
 40
1
 40
1
 10
265.582129
 20
129.394222
 30
0.0
 10
267.574578
 20
129.403366
 30
0.0
 10
267.574578
 20
132.387499
 30
0.0
 10
265.582129
 20
132.396643
 30
0.0
  0
LINE
  5
2dc
100
AcDbEntity
  8
Layer_1
 62
1
100
AcDbLine
 10
265.582129
 20
132.396643
 30
0.0
 11
265.582129
 21
132.396643
 31
0.0
  0
LINE
  5
2dd
100
AcDbEntity
  8
Layer_1
 62
1
100
AcDbLine
 10
330.119172
 20
220.145846
 30
0.0
 11
330.119172
 21
217.144836
 31
0.0
  0
LINE
  5
2de
100
AcDbEntity
  8
Layer_1
 62
1
100
AcDbLine
 10
330.119172
 20
217.144836
 30
0.0
 11
333.120182
 21
217.144836
 31
0.0
  0
LINE
  5
2df
100
AcDbEntity
  8
Layer_1
 62
1
100
AcDbLine
 10
333.120182
 20
217.144836
 30
0.0
 11
333.120182
 21
220.145846
 31
0.0
  0
LINE
  5
2e0
100
AcDbEntity
  8
Layer_1
 62
1
100
AcDbLine
 10
333.120182
 20
220.145846
 30
0.0
 11
330.119172
 21
220.145846
 31
0.0
  0
LINE
  5
2e1
100
AcDbEntity
  8
Layer_1
 62
1
100
AcDbLine
 10
342.123183
 20
217.144836
 30
0.0
 11
342.123183
 21
220.145846
 31
0.0
  0
LINE
  5
2e2
100
AcDbEntity
  8
Layer_1
 62
1
100
AcDbLine
 10
342.123183
 20
220.145846
 30
0.0
 11
339.122202
 21
220.145846
 31
0.0
  0
LINE
  5
2e3
100
AcDbEntity
  8
Layer_1
 62
1
100
AcDbLine
 10
339.122202
 20
220.145846
 30
0.0
 11
339.122202
 21
217.144836
 31
0.0
  0
LINE
  5
2e4
100
AcDbEntity
  8
Layer_1
 62
1
100
AcDbLine
 10
339.122202
 20
217.144836
 30
0.0
 11
342.123183
 21
217.144836
 31
0.0
  0
LINE
  5
2e5
100
AcDbEntity
  8
Layer_1
 62
1
100
AcDbLine
 10
333.120182
 20
95.104101
 30
0.0
 11
333.120182
 21
98.105083
 31
0.0
  0
LINE
  5
2e6
100
AcDbEntity
  8
Layer_1
 62
1
100
AcDbLine
 10
333.120182
 20
98.105083
 30
0.0
 11
330.119172
 21
98.105083
 31
0.0
  0
LINE
  5
2e7
100
AcDbEntity
  8
Layer_1
 62
1
100
AcDbLine
 10
330.119172
 20
98.105083
 30
0.0
 11
330.119172
 21
95.104101
 31
0.0
  0
LINE
  5
2e8
100
AcDbEntity
  8
Layer_1
 62
1
100
AcDbLine
 10
330.119172
 20
95.104101
 30
0.0
 11
333.120182
 21
95.104101
 31
0.0
  0
LINE
  5
2e9
100
AcDbEntity
  8
Layer_1
 62
1
100
AcDbLine
 10
342.123183
 20
95.104101
 30
0.0
 11
342.123183
 21
98.105083
 31
0.0
  0
LINE
  5
2ea
100
AcDbEntity
  8
Layer_1
 62
1
100
AcDbLine
 10
342.123183
 20
98.105083
 30
0.0
 11
339.122202
 21
98.105083
 31
0.0
  0
LINE
  5
2eb
100
AcDbEntity
  8
Layer_1
 62
1
100
AcDbLine
 10
339.122202
 20
98.105083
 30
0.0
 11
339.122202
 21
95.104101
 31
0.0
  0
LINE
  5
2ec
100
AcDbEntity
  8
Layer_1
 62
1
100
AcDbLine
 10
339.122202
 20
95.104101
 30
0.0
 11
342.123183
 21
95.104101
 31
0.0
  0
LINE
  5
2ed
100
AcDbEntity
  8
Layer_1
 62
1
100
AcDbLine
 10
246.058385
 20
196.174988
 30
0.0
 11
246.058385
 21
185.074962
 31
0.0
  0
LINE
  5
2ee
100
AcDbEntity
  8
Layer_1
 62
1
100
AcDbLine
 10
246.058385
 20
185.074962
 30
0.0
 11
250.058357
 21
185.074962
 31
0.0
  0
LINE
  5
2ef
100
AcDbEntity
  8
Layer_1
 62
1
100
AcDbLine
 10
250.058357
 20
185.074962
 30
0.0
 11
250.058357
 21
174.174975
 31
0.0
  0
LINE
  5
2f0
100
AcDbEntity
  8
Layer_1
 62
1
100
AcDbLine
 10
250.058357
 20
174.174975
 30
0.0
 11
246.058385
 21
174.174975
 31
0.0
  0
LINE
  5
2f1
100
AcDbEntity
  8
Layer_1
 62
1
100
AcDbLine
 10
246.058385
 20
174.174975
 30
0.0
 11
246.058385
 21
163.074978
 31
0.0
  0
LINE
  5
2f2
100
AcDbEntity
  8
Layer_1
 62
1
100
AcDbLine
 10
246.058385
 20
163.074978
 30
0.0
 11
250.058357
 21
163.074978
 31
0.0
  0
LINE
  5
2f3
100
AcDbEntity
  8
Layer_1
 62
1
100
AcDbLine
 10
250.058357
 20
163.074978
 30
0.0
 11
250.058357
 21
152.174966
 31
0.0
  0
LINE
  5
2f4
100
AcDbEntity
  8
Layer_1
 62
1
100
AcDbLine
 10
250.058357
 20
152.174966
 30
0.0
 11
246.058385
 21
152.174966
 31
0.0
  0
LINE
  5
2f5
100
AcDbEntity
  8
Layer_1
 62
1
100
AcDbLine
 10
246.058385
 20
152.174966
 30
0.0
 11
246.058385
 21
141.074968
 31
0.0
  0
LINE
  5
2f6
100
AcDbEntity
  8
Layer_1
 62
1
100
AcDbLine
 10
246.058385
 20
141.074968
 30
0.0
 11
250.058357
 21
141.074968
 31
0.0
  0
LINE
  5
2f7
100
AcDbEntity
  8
Layer_1
 62
1
100
AcDbLine
 10
250.058357
 20
141.074968
 30
0.0
 11
250.058357
 21
130.174982
 31
0.0
  0
LINE
  5
2f8
100
AcDbEntity
  8
Layer_1
 62
1
100
AcDbLine
 10
250.058357
 20
130.174982
 30
0.0
 11
246.058385
 21
130.174982
 31
0.0
  0
LINE
  5
2f9
100
AcDbEntity
  8
Layer_1
 62
1
100
AcDbLine
 10
246.058385
 20
130.174982
 30
0.0
 11
246.058385
 21
119.074956
 31
0.0
  0
LINE
  5
2fa
100
AcDbEntity
  8
Layer_1
 62
1
100
AcDbLine
 10
246.058385
 20
119.074956
 30
0.0
 11
250.058357
 21
119.074956
 31
0.0
  0
LINE
  5
2fb
100
AcDbEntity
  8
Layer_1
 62
1
100
AcDbLine
 10
250.058357
 20
119.074956
 30
0.0
 11
250.058357
 21
108.174972
 31
0.0
  0
LINE
  5
2fc
100
AcDbEntity
  8
Layer_1
 62
1
100
AcDbLine
 10
250.058357
 20
108.174972
 30
0.0
 11
246.058385
 21
108.174972
 31
0.0
  0
LINE
  5
2fd
100
AcDbEntity
  8
Layer_1
 62
1
100
AcDbLine
 10
246.058385
 20
108.174972
 30
0.0
 11
246.058385
 21
97.074974
 31
0.0
  0
LINE
  5
2fe
100
AcDbEntity
  8
Layer_1
 62
1
100
AcDbLine
 10
246.058385
 20
97.074974
 30
0.0
 11
250.058357
 21
97.074974
 31
0.0
  0
LINE
  5
2ff
100
AcDbEntity
  8
Layer_1
 62
1
100
AcDbLine
 10
250.058357
 20
97.074974
 30
0.0
 11
250.058357
 21
86.074965
 31
0.0
  0
LINE
  5
300
100
AcDbEntity
  8
Layer_1
 62
1
100
AcDbLine
 10
250.058357
 20
86.074965
 30
0.0
 11
260.669490
 21
86.074965
 31
0.0
  0
LINE
  5
301
100
AcDbEntity
  8
Layer_1
 62
1
100
AcDbLine
 10
260.669490
 20
86.074965
 30
0.0
 11
260.669490
 21
82.074973
 31
0.0
  0
LINE
  5
302
100
AcDbEntity
  8
Layer_1
 62
1
100
AcDbLine
 10
260.669490
 20
82.074973
 30
0.0
 11
271.380605
 21
82.074973
 31
0.0
  0
LINE
  5
303
100
AcDbEntity
  8
Layer_1
 62
1
100
AcDbLine
 10
271.380605
 20
82.074973
 30
0.0
 11
271.380605
 21
86.074965
 31
0.0
  0
LINE
  5
304
100
AcDbEntity
  8
Layer_1
 62
1
100
AcDbLine
 10
271.380605
 20
86.074965
 30
0.0
 11
281.891723
 21
86.074965
 31
0.0
  0
LINE
  5
305
100
AcDbEntity
  8
Layer_1
 62
1
100
AcDbLine
 10
281.891723
 20
86.074965
 30
0.0
 11
281.891723
 21
82.074973
 31
0.0
  0
LINE
  5
306
100
AcDbEntity
  8
Layer_1
 62
1
100
AcDbLine
 10
281.891723
 20
82.074973
 30
0.0
 11
292.602835
 21
82.074973
 31
0.0
  0
LINE
  5
307
100
AcDbEntity
  8
Layer_1
 62
1
100
AcDbLine
 10
292.602835
 20
82.074973
 30
0.0
 11
292.602835
 21
86.074965
 31
0.0
  0
LINE
  5
308
100
AcDbEntity
  8
Layer_1
 62
1
100
AcDbLine
 10
292.602835
 20
86.074965
 30
0.0
 11
303.113920
 21
86.074965
 31
0.0
  0
LINE
  5
309
100
AcDbEntity
  8
Layer_1
 62
1
100
AcDbLine
 10
303.113920
 20
86.074965
 30
0.0
 11
303.113920
 21
82.074973
 31
0.0
  0
LINE
  5
30a
100
AcDbEntity
  8
Layer_1
 62
1
100
AcDbLine
 10
303.113920
 20
82.074973
 30
0.0
 11
313.825072
 21
82.074973
 31
0.0
  0
LINE
  5
30b
100
AcDbEntity
  8
Layer_1
 62
1
100
AcDbLine
 10
313.825072
 20
82.074973
 30
0.0
 11
313.825072
 21
86.074965
 31
0.0
  0
LINE
  5
30c
100
AcDbEntity
  8
Layer_1
 62
1
100
AcDbLine
 10
313.825072
 20
86.074965
 30
0.0
 11
324.336156
 21
86.074965
 31
0.0
  0
LINE
  5
30d
100
AcDbEntity
  8
Layer_1
 62
1
100
AcDbLine
 10
324.336156
 20
86.074965
 30
0.0
 11
324.336156
 21
82.074973
 31
0.0
  0
LINE
  5
30e
100
AcDbEntity
  8
Layer_1
 62
1
100
AcDbLine
 10
324.336156
 20
82.074973
 30
0.0
 11
335.047251
 21
82.074973
 31
0.0
  0
LINE
  5
30f
100
AcDbEntity
  8
Layer_1
 62
1
100
AcDbLine
 10
335.047251
 20
82.074973
 30
0.0
 11
335.047251
 21
86.074965
 31
0.0
  0
LINE
  5
310
100
AcDbEntity
  8
Layer_1
 62
1
100
AcDbLine
 10
335.047251
 20
86.074965
 30
0.0
 11
349.609495
 21
86.074965
 31
0.0
  0
LINE
  5
311
100
AcDbEntity
  8
Layer_1
 62
1
100
AcDbLine
 10
349.609495
 20
86.074965
 30
0.0
 11
349.609495
 21
229.174975
 31
0.0
  0
LINE
  5
312
100
AcDbEntity
  8
Layer_1
 62
1
100
AcDbLine
 10
349.609495
 20
229.174975
 30
0.0
 11
335.047251
 21
229.174975
 31
0.0
  0
LINE
  5
313
100
AcDbEntity
  8
Layer_1
 62
1
100
AcDbLine
 10
335.047251
 20
229.174975
 30
0.0
 11
335.047251
 21
233.174967
 31
0.0
  0
LINE
  5
314
100
AcDbEntity
  8
Layer_1
 62
1
100
AcDbLine
 10
335.047251
 20
233.174967
 30
0.0
 11
324.336156
 21
233.174967
 31
0.0
  0
LINE
  5
315
100
AcDbEntity
  8
Layer_1
 62
1
100
AcDbLine
 10
324.336156
 20
233.174967
 30
0.0
 11
324.336156
 21
229.174975
 31
0.0
  0
LINE
  5
316
100
AcDbEntity
  8
Layer_1
 62
1
100
AcDbLine
 10
324.336156
 20
229.174975
 30
0.0
 11
313.825072
 21
229.174975
 31
0.0
  0
LINE
  5
317
100
AcDbEntity
  8
Layer_1
 62
1
100
AcDbLine
 10
313.825072
 20
229.174975
 30
0.0
 11
313.825072
 21
233.174967
 31
0.0
  0
LINE
  5
318
100
AcDbEntity
  8
Layer_1
 62
1
100
AcDbLine
 10
313.825072
 20
233.174967
 30
0.0
 11
303.113920
 21
233.174967
 31
0.0
  0
LINE
  5
319
100
AcDbEntity
  8
Layer_1
 62
1
100
AcDbLine
 10
303.113920
 20
233.174967
 30
0.0
 11
303.113920
 21
229.174975
 31
0.0
  0
LINE
  5
31a
100
AcDbEntity
  8
Layer_1
 62
1
100
AcDbLine
 10
303.113920
 20
229.174975
 30
0.0
 11
292.602835
 21
229.174975
 31
0.0
  0
LINE
  5
31b
100
AcDbEntity
  8
Layer_1
 62
1
100
AcDbLine
 10
292.602835
 20
229.174975
 30
0.0
 11
292.602835
 21
233.174967
 31
0.0
  0
LINE
  5
31c
100
AcDbEntity
  8
Layer_1
 62
1
100
AcDbLine
 10
292.602835
 20
233.174967
 30
0.0
 11
281.891723
 21
233.174967
 31
0.0
  0
LINE
  5
31d
100
AcDbEntity
  8
Layer_1
 62
1
100
AcDbLine
 10
281.891723
 20
233.174967
 30
0.0
 11
281.891723
 21
229.174975
 31
0.0
  0
LINE
  5
31e
100
AcDbEntity
  8
Layer_1
 62
1
100
AcDbLine
 10
281.891723
 20
229.174975
 30
0.0
 11
271.380605
 21
229.174975
 31
0.0
  0
LINE
  5
31f
100
AcDbEntity
  8
Layer_1
 62
1
100
AcDbLine
 10
271.380605
 20
229.174975
 30
0.0
 11
271.380605
 21
233.174967
 31
0.0
  0
LINE
  5
320
100
AcDbEntity
  8
Layer_1
 62
1
100
AcDbLine
 10
271.380605
 20
233.174967
 30
0.0
 11
260.669490
 21
233.174967
 31
0.0
  0
LINE
  5
321
100
AcDbEntity
  8
Layer_1
 62
1
100
AcDbLine
 10
260.669490
 20
233.174967
 30
0.0
 11
260.669490
 21
229.174975
 31
0.0
  0
LINE
  5
322
100
AcDbEntity
  8
Layer_1
 62
1
100
AcDbLine
 10
260.669490
 20
229.174975
 30
0.0
 11
250.058357
 21
229.174975
 31
0.0
  0
LINE
  5
323
100
AcDbEntity
  8
Layer_1
 62
1
100
AcDbLine
 10
250.058357
 20
229.174975
 30
0.0
 11
250.058357
 21
218.174969
 31
0.0
  0
LINE
  5
324
100
AcDbEntity
  8
Layer_1
 62
1
100
AcDbLine
 10
250.058357
 20
218.174969
 30
0.0
 11
246.058385
 21
218.174969
 31
0.0
  0
LINE
  5
325
100
AcDbEntity
  8
Layer_1
 62
1
100
AcDbLine
 10
246.058385
 20
218.174969
 30
0.0
 11
246.058385
 21
207.074972
 31
0.0
  0
LINE
  5
326
100
AcDbEntity
  8
Layer_1
 62
1
100
AcDbLine
 10
246.058385
 20
207.074972
 30
0.0
 11
250.058357
 21
207.074972
 31
0.0
  0
LINE
  5
327
100
AcDbEntity
  8
Layer_1
 62
1
100
AcDbLine
 10
250.058357
 20
207.074972
 30
0.0
 11
250.058357
 21
196.174988
 31
0.0
  0
LINE
  5
328
100
AcDbEntity
  8
Layer_1
 62
1
100
AcDbLine
 10
250.058357
 20
196.174988
 30
0.0
 11
246.058385
 21
196.174988
 31
0.0
  0
LINE
  5
329
100
AcDbEntity
  8
Layer_1
 62
7
100
AcDbLine
 10
393.663212
 20
288.751623
 30
0.0
 11
391.687854
 21
288.751623
 31
0.0
  0
LINE
  5
32a
100
AcDbEntity
  8
Layer_1
 62
7
100
AcDbLine
 10
391.687854
 20
288.751623
 30
0.0
 11
391.687854
 21
289.324601
 31
0.0
  0
LINE
  5
32b
100
AcDbEntity
  8
Layer_1
 62
7
100
AcDbLine
 10
391.687854
 20
289.324601
 30
0.0
 11
393.663212
 21
289.324601
 31
0.0
  0
LINE
  5
32c
100
AcDbEntity
  8
Layer_1
 62
7
100
AcDbLine
 10
393.663212
 20
289.324601
 30
0.0
 11
393.663212
 21
288.751623
 31
0.0
  0
LINE
  5
32d
100
AcDbEntity
  8
Layer_1
 62
7
100
AcDbLine
 10
393.663212
 20
288.751623
 30
0.0
 11
393.663212
 21
288.751623
 31
0.0
  0
LINE
  5
32e
100
AcDbEntity
  8
Layer_1
 62
7
100
AcDbLine
 10
401.944769
 20
288.784864
 30
0.0
 11
400.219517
 21
288.784864
 31
0.0
  0
LINE
  5
32f
100
AcDbEntity
  8
Layer_1
 62
7
100
AcDbLine
 10
400.219517
 20
288.784864
 30
0.0
 11
400.219517
 21
287.059600
 31
0.0
  0
LINE
  5
330
100
AcDbEntity
  8
Layer_1
 62
7
100
AcDbLine
 10
400.219517
 20
287.059600
 30
0.0
 11
399.694019
 21
287.059600
 31
0.0
  0
LINE
  5
331
100
AcDbEntity
  8
Layer_1
 62
7
100
AcDbLine
 10
399.694019
 20
287.059600
 30
0.0
 11
399.694019
 21
288.784864
 31
0.0
  0
LINE
  5
332
100
AcDbEntity
  8
Layer_1
 62
7
100
AcDbLine
 10
399.694019
 20
288.784864
 30
0.0
 11
397.968766
 21
288.784864
 31
0.0
  0
LINE
  5
333
100
AcDbEntity
  8
Layer_1
 62
7
100
AcDbLine
 10
397.968766
 20
288.784864
 30
0.0
 11
397.968766
 21
289.291364
 31
0.0
  0
LINE
  5
334
100
AcDbEntity
  8
Layer_1
 62
7
100
AcDbLine
 10
397.968766
 20
289.291364
 30
0.0
 11
399.694019
 21
289.291364
 31
0.0
  0
LINE
  5
335
100
AcDbEntity
  8
Layer_1
 62
7
100
AcDbLine
 10
399.694019
 20
289.291364
 30
0.0
 11
399.694019
 21
291.016626
 31
0.0
  0
LINE
  5
336
100
AcDbEntity
  8
Layer_1
 62
7
100
AcDbLine
 10
399.694019
 20
291.016626
 30
0.0
 11
400.219517
 21
291.016626
 31
0.0
  0
LINE
  5
337
100
AcDbEntity
  8
Layer_1
 62
7
100
AcDbLine
 10
400.219517
 20
291.016626
 30
0.0
 11
400.219517
 21
289.291364
 31
0.0
  0
LINE
  5
338
100
AcDbEntity
  8
Layer_1
 62
7
100
AcDbLine
 10
400.219517
 20
289.291364
 30
0.0
 11
401.944769
 21
289.291364
 31
0.0
  0
LINE
  5
339
100
AcDbEntity
  8
Layer_1
 62
7
100
AcDbLine
 10
401.944769
 20
289.291364
 30
0.0
 11
401.944769
 21
288.784864
 31
0.0
  0
LINE
  5
33a
100
AcDbEntity
  8
Layer_1
 62
7
100
AcDbLine
 10
401.944769
 20
288.784864
 30
0.0
 11
401.944769
 21
288.784864
 31
0.0
  0
SPLINE
  5
33b
100
AcDbEntity
  8
Layer_1
 62
1
100
AcDbSpline
 70
8
 71
3
 72
8
 73
4
 74
0
 40
0
 40
0
 40
0
 40
0
 40
1
 40
1
 40
1
 40
1
 10
226.379998
 20
225.728150
 30
0.0
 10
226.379998
 20
226.442922
 30
0.0
 10
225.998671
 20
227.103398
 30
0.0
 10
225.379661
 20
227.460784
 30
0.0
  0
SPLINE
  5
33c
100
AcDbEntity
  8
Layer_1
 62
1
100
AcDbSpline
 70
8
 71
3
 72
8
 73
4
 74
0
 40
0
 40
0
 40
0
 40
0
 40
1
 40
1
 40
1
 40
1
 10
225.379661
 20
227.460784
 30
0.0
 10
224.760651
 20
227.818170
 30
0.0
 10
223.997998
 20
227.818170
 30
0.0
 10
223.378988
 20
227.460784
 30
0.0
  0
SPLINE
  5
33d
100
AcDbEntity
  8
Layer_1
 62
1
100
AcDbSpline
 70
8
 71
3
 72
8
 73
4
 74
0
 40
0
 40
0
 40
0
 40
0
 40
1
 40
1
 40
1
 40
1
 10
223.378988
 20
227.460784
 30
0.0
 10
222.759977
 20
227.103398
 30
0.0
 10
222.378651
 20
226.442922
 30
0.0
 10
222.378651
 20
225.728150
 30
0.0
  0
SPLINE
  5
33e
100
AcDbEntity
  8
Layer_1
 62
1
100
AcDbSpline
 70
8
 71
3
 72
8
 73
4
 74
0
 40
0
 40
0
 40
0
 40
0
 40
1
 40
1
 40
1
 40
1
 10
222.378651
 20
225.728150
 30
0.0
 10
222.378651
 20
225.013379
 30
0.0
 10
222.759977
 20
224.352902
 30
0.0
 10
223.378988
 20
223.995516
 30
0.0
  0
SPLINE
  5
33f
100
AcDbEntity
  8
Layer_1
 62
1
100
AcDbSpline
 70
8
 71
3
 72
8
 73
4
 74
0
 40
0
 40
0
 40
0
 40
0
 40
1
 40
1
 40
1
 40
1
 10
223.378988
 20
223.995516
 30
0.0
 10
223.997998
 20
223.638131
 30
0.0
 10
224.760651
 20
223.638131
 30
0.0
 10
225.379661
 20
223.995516
 30
0.0
  0
SPLINE
  5
340
100
AcDbEntity
  8
Layer_1
 62
1
100
AcDbSpline
 70
8
 71
3
 72
8
 73
4
 74
0
 40
0
 40
0
 40
0
 40
0
 40
1
 40
1
 40
1
 40
1
 10
225.379661
 20
223.995516
 30
0.0
 10
225.998671
 20
224.352902
 30
0.0
 10
226.379998
 20
225.013379
 30
0.0
 10
226.379998
 20
225.728150
 30
0.0
  0
LINE
  5
341
100
AcDbEntity
  8
Layer_1
 62
1
100
AcDbLine
 10
226.379998
 20
225.728150
 30
0.0
 11
226.379998
 21
225.728150
 31
0.0
  0
SPLINE
  5
342
100
AcDbEntity
  8
Layer_1
 62
1
100
AcDbSpline
 70
8
 71
3
 72
8
 73
4
 74
0
 40
0
 40
0
 40
0
 40
0
 40
1
 40
1
 40
1
 40
1
 10
226.379998
 20
94.684352
 30
0.0
 10
226.379998
 20
95.399124
 30
0.0
 10
225.998671
 20
96.059600
 30
0.0
 10
225.379661
 20
96.416986
 30
0.0
  0
SPLINE
  5
343
100
AcDbEntity
  8
Layer_1
 62
1
100
AcDbSpline
 70
8
 71
3
 72
8
 73
4
 74
0
 40
0
 40
0
 40
0
 40
0
 40
1
 40
1
 40
1
 40
1
 10
225.379661
 20
96.416986
 30
0.0
 10
224.760651
 20
96.774372
 30
0.0
 10
223.997998
 20
96.774372
 30
0.0
 10
223.378988
 20
96.416986
 30
0.0
  0
SPLINE
  5
344
100
AcDbEntity
  8
Layer_1
 62
1
100
AcDbSpline
 70
8
 71
3
 72
8
 73
4
 74
0
 40
0
 40
0
 40
0
 40
0
 40
1
 40
1
 40
1
 40
1
 10
223.378988
 20
96.416986
 30
0.0
 10
222.759977
 20
96.059600
 30
0.0
 10
222.378651
 20
95.399124
 30
0.0
 10
222.378651
 20
94.684352
 30
0.0
  0
SPLINE
  5
345
100
AcDbEntity
  8
Layer_1
 62
1
100
AcDbSpline
 70
8
 71
3
 72
8
 73
4
 74
0
 40
0
 40
0
 40
0
 40
0
 40
1
 40
1
 40
1
 40
1
 10
222.378651
 20
94.684352
 30
0.0
 10
222.378651
 20
93.969580
 30
0.0
 10
222.759977
 20
93.309104
 30
0.0
 10
223.378988
 20
92.951718
 30
0.0
  0
SPLINE
  5
346
100
AcDbEntity
  8
Layer_1
 62
1
100
AcDbSpline
 70
8
 71
3
 72
8
 73
4
 74
0
 40
0
 40
0
 40
0
 40
0
 40
1
 40
1
 40
1
 40
1
 10
223.378988
 20
92.951718
 30
0.0
 10
223.997998
 20
92.594332
 30
0.0
 10
224.760651
 20
92.594332
 30
0.0
 10
225.379661
 20
92.951718
 30
0.0
  0
SPLINE
  5
347
100
AcDbEntity
  8
Layer_1
 62
1
100
AcDbSpline
 70
8
 71
3
 72
8
 73
4
 74
0
 40
0
 40
0
 40
0
 40
0
 40
1
 40
1
 40
1
 40
1
 10
225.379661
 20
92.951718
 30
0.0
 10
225.998671
 20
93.309104
 30
0.0
 10
226.379998
 20
93.969580
 30
0.0
 10
226.379998
 20
94.684352
 30
0.0
  0
LINE
  5
348
100
AcDbEntity
  8
Layer_1
 62
1
100
AcDbLine
 10
226.379998
 20
94.684352
 30
0.0
 11
226.379998
 21
94.684352
 31
0.0
  0
SPLINE
  5
349
100
AcDbEntity
  8
Layer_1
 62
1
100
AcDbSpline
 70
8
 71
3
 72
8
 73
4
 74
0
 40
0
 40
0
 40
0
 40
0
 40
1
 40
1
 40
1
 40
1
 10
19.310816
 20
94.684352
 30
0.0
 10
19.310816
 20
95.399124
 30
0.0
 10
18.929489
 20
96.059600
 30
0.0
 10
18.310479
 20
96.416986
 30
0.0
  0
SPLINE
  5
34a
100
AcDbEntity
  8
Layer_1
 62
1
100
AcDbSpline
 70
8
 71
3
 72
8
 73
4
 74
0
 40
0
 40
0
 40
0
 40
0
 40
1
 40
1
 40
1
 40
1
 10
18.310479
 20
96.416986
 30
0.0
 10
17.691469
 20
96.774372
 30
0.0
 10
16.928816
 20
96.774372
 30
0.0
 10
16.309806
 20
96.416986
 30
0.0
  0
SPLINE
  5
34b
100
AcDbEntity
  8
Layer_1
 62
1
100
AcDbSpline
 70
8
 71
3
 72
8
 73
4
 74
0
 40
0
 40
0
 40
0
 40
0
 40
1
 40
1
 40
1
 40
1
 10
16.309806
 20
96.416986
 30
0.0
 10
15.690795
 20
96.059600
 30
0.0
 10
15.309469
 20
95.399124
 30
0.0
 10
15.309469
 20
94.684352
 30
0.0
  0
SPLINE
  5
34c
100
AcDbEntity
  8
Layer_1
 62
1
100
AcDbSpline
 70
8
 71
3
 72
8
 73
4
 74
0
 40
0
 40
0
 40
0
 40
0
 40
1
 40
1
 40
1
 40
1
 10
15.309469
 20
94.684352
 30
0.0
 10
15.309469
 20
93.969580
 30
0.0
 10
15.690795
 20
93.309104
 30
0.0
 10
16.309806
 20
92.951718
 30
0.0
  0
SPLINE
  5
34d
100
AcDbEntity
  8
Layer_1
 62
1
100
AcDbSpline
 70
8
 71
3
 72
8
 73
4
 74
0
 40
0
 40
0
 40
0
 40
0
 40
1
 40
1
 40
1
 40
1
 10
16.309806
 20
92.951718
 30
0.0
 10
16.928816
 20
92.594332
 30
0.0
 10
17.691469
 20
92.594332
 30
0.0
 10
18.310479
 20
92.951718
 30
0.0
  0
SPLINE
  5
34e
100
AcDbEntity
  8
Layer_1
 62
1
100
AcDbSpline
 70
8
 71
3
 72
8
 73
4
 74
0
 40
0
 40
0
 40
0
 40
0
 40
1
 40
1
 40
1
 40
1
 10
18.310479
 20
92.951718
 30
0.0
 10
18.929489
 20
93.309104
 30
0.0
 10
19.310816
 20
93.969580
 30
0.0
 10
19.310816
 20
94.684352
 30
0.0
  0
LINE
  5
34f
100
AcDbEntity
  8
Layer_1
 62
1
100
AcDbLine
 10
19.310816
 20
94.684352
 30
0.0
 11
19.310816
 21
94.684352
 31
0.0
  0
SPLINE
  5
350
100
AcDbEntity
  8
Layer_1
 62
1
100
AcDbSpline
 70
8
 71
3
 72
8
 73
4
 74
0
 40
0
 40
0
 40
0
 40
0
 40
1
 40
1
 40
1
 40
1
 10
19.310816
 20
225.728150
 30
0.0
 10
19.310816
 20
226.442922
 30
0.0
 10
18.929489
 20
227.103398
 30
0.0
 10
18.310479
 20
227.460784
 30
0.0
  0
SPLINE
  5
351
100
AcDbEntity
  8
Layer_1
 62
1
100
AcDbSpline
 70
8
 71
3
 72
8
 73
4
 74
0
 40
0
 40
0
 40
0
 40
0
 40
1
 40
1
 40
1
 40
1
 10
18.310479
 20
227.460784
 30
0.0
 10
17.691469
 20
227.818170
 30
0.0
 10
16.928816
 20
227.818170
 30
0.0
 10
16.309806
 20
227.460784
 30
0.0
  0
SPLINE
  5
352
100
AcDbEntity
  8
Layer_1
 62
1
100
AcDbSpline
 70
8
 71
3
 72
8
 73
4
 74
0
 40
0
 40
0
 40
0
 40
0
 40
1
 40
1
 40
1
 40
1
 10
16.309806
 20
227.460784
 30
0.0
 10
15.690795
 20
227.103398
 30
0.0
 10
15.309469
 20
226.442922
 30
0.0
 10
15.309469
 20
225.728150
 30
0.0
  0
SPLINE
  5
353
100
AcDbEntity
  8
Layer_1
 62
1
100
AcDbSpline
 70
8
 71
3
 72
8
 73
4
 74
0
 40
0
 40
0
 40
0
 40
0
 40
1
 40
1
 40
1
 40
1
 10
15.309469
 20
225.728150
 30
0.0
 10
15.309469
 20
225.013379
 30
0.0
 10
15.690795
 20
224.352902
 30
0.0
 10
16.309806
 20
223.995516
 30
0.0
  0
SPLINE
  5
354
100
AcDbEntity
  8
Layer_1
 62
1
100
AcDbSpline
 70
8
 71
3
 72
8
 73
4
 74
0
 40
0
 40
0
 40
0
 40
0
 40
1
 40
1
 40
1
 40
1
 10
16.309806
 20
223.995516
 30
0.0
 10
16.928816
 20
223.638131
 30
0.0
 10
17.691469
 20
223.638131
 30
0.0
 10
18.310479
 20
223.995516
 30
0.0
  0
SPLINE
  5
355
100
AcDbEntity
  8
Layer_1
 62
1
100
AcDbSpline
 70
8
 71
3
 72
8
 73
4
 74
0
 40
0
 40
0
 40
0
 40
0
 40
1
 40
1
 40
1
 40
1
 10
18.310479
 20
223.995516
 30
0.0
 10
18.929489
 20
224.352902
 30
0.0
 10
19.310816
 20
225.013379
 30
0.0
 10
19.310816
 20
225.728150
 30
0.0
  0
LINE
  5
356
100
AcDbEntity
  8
Layer_1
 62
1
100
AcDbLine
 10
19.310816
 20
225.728150
 30
0.0
 11
19.310816
 21
225.728150
 31
0.0
  0
LINE
  5
357
100
AcDbEntity
  8
Layer_1
 62
1
100
AcDbLine
 10
11.295521
 20
231.736470
 30
0.0
 11
230.380029
 21
231.736470
 31
0.0
  0
LINE
  5
358
100
AcDbEntity
  8
Layer_1
 62
1
100
AcDbLine
 10
230.380029
 20
231.736470
 30
0.0
 11
230.380029
 21
88.676778
 31
0.0
  0
LINE
  5
359
100
AcDbEntity
  8
Layer_1
 62
1
100
AcDbLine
 10
230.380029
 20
88.676778
 30
0.0
 11
11.295521
 21
88.676778
 31
0.0
  0
LINE
  5
35a
100
AcDbEntity
  8
Layer_1
 62
1
100
AcDbLine
 10
11.295521
 20
88.676778
 30
0.0
 11
11.295521
 21
231.736470
 31
0.0
  0
LINE
  5
35b
100
AcDbEntity
  8
Layer_1
 62
1
100
AcDbLine
 10
543.364194
 20
89.461660
 30
0.0
 11
533.035651
 21
89.461660
 31
0.0
  0
LINE
  5
35c
100
AcDbEntity
  8
Layer_1
 62
1
100
AcDbLine
 10
533.035651
 20
89.461660
 30
0.0
 11
533.035651
 21
85.461654
 31
0.0
  0
LINE
  5
35d
100
AcDbEntity
  8
Layer_1
 62
1
100
AcDbLine
 10
533.035651
 20
85.461654
 30
0.0
 11
522.507069
 21
85.461654
 31
0.0
  0
LINE
  5
35e
100
AcDbEntity
  8
Layer_1
 62
1
100
AcDbLine
 10
522.507069
 20
85.461654
 30
0.0
 11
522.507069
 21
89.461660
 31
0.0
  0
LINE
  5
35f
100
AcDbEntity
  8
Layer_1
 62
1
100
AcDbLine
 10
522.507069
 20
89.461660
 30
0.0
 11
512.178526
 21
89.461660
 31
0.0
  0
LINE
  5
360
100
AcDbEntity
  8
Layer_1
 62
1
100
AcDbLine
 10
512.178526
 20
89.461660
 30
0.0
 11
512.178526
 21
85.461654
 31
0.0
  0
LINE
  5
361
100
AcDbEntity
  8
Layer_1
 62
1
100
AcDbLine
 10
512.178526
 20
85.461654
 30
0.0
 11
501.649944
 21
85.461654
 31
0.0
  0
LINE
  5
362
100
AcDbEntity
  8
Layer_1
 62
1
100
AcDbLine
 10
501.649944
 20
85.461654
 30
0.0
 11
501.649944
 21
89.461660
 31
0.0
  0
LINE
  5
363
100
AcDbEntity
  8
Layer_1
 62
1
100
AcDbLine
 10
501.649944
 20
89.461660
 30
0.0
 11
491.321372
 21
89.461660
 31
0.0
  0
LINE
  5
364
100
AcDbEntity
  8
Layer_1
 62
1
100
AcDbLine
 10
491.321372
 20
89.461660
 30
0.0
 11
491.321372
 21
85.461654
 31
0.0
  0
LINE
  5
365
100
AcDbEntity
  8
Layer_1
 62
1
100
AcDbLine
 10
491.321372
 20
85.461654
 30
0.0
 11
480.792790
 21
85.461654
 31
0.0
  0
LINE
  5
366
100
AcDbEntity
  8
Layer_1
 62
1
100
AcDbLine
 10
480.792790
 20
85.461654
 30
0.0
 11
480.792790
 21
89.461660
 31
0.0
  0
LINE
  5
367
100
AcDbEntity
  8
Layer_1
 62
1
100
AcDbLine
 10
480.792790
 20
89.461660
 30
0.0
 11
470.464219
 21
89.461660
 31
0.0
  0
LINE
  5
368
100
AcDbEntity
  8
Layer_1
 62
1
100
AcDbLine
 10
470.464219
 20
89.461660
 30
0.0
 11
470.464219
 21
85.461654
 31
0.0
  0
LINE
  5
369
100
AcDbEntity
  8
Layer_1
 62
1
100
AcDbLine
 10
470.464219
 20
85.461654
 30
0.0
 11
459.935636
 21
85.461654
 31
0.0
  0
LINE
  5
36a
100
AcDbEntity
  8
Layer_1
 62
1
100
AcDbLine
 10
459.935636
 20
85.461654
 30
0.0
 11
459.935636
 21
89.461660
 31
0.0
  0
LINE
  5
36b
100
AcDbEntity
  8
Layer_1
 62
1
100
AcDbLine
 10
459.935636
 20
89.461660
 30
0.0
 11
449.607037
 21
89.461660
 31
0.0
  0
LINE
  5
36c
100
AcDbEntity
  8
Layer_1
 62
1
100
AcDbLine
 10
449.607037
 20
89.461660
 30
0.0
 11
449.607037
 21
85.461654
 31
0.0
  0
LINE
  5
36d
100
AcDbEntity
  8
Layer_1
 62
1
100
AcDbLine
 10
449.607037
 20
85.461654
 30
0.0
 11
439.078483
 21
85.461654
 31
0.0
  0
LINE
  5
36e
100
AcDbEntity
  8
Layer_1
 62
1
100
AcDbLine
 10
439.078483
 20
85.461654
 30
0.0
 11
439.078483
 21
89.461660
 31
0.0
  0
LINE
  5
36f
100
AcDbEntity
  8
Layer_1
 62
1
100
AcDbLine
 10
439.078483
 20
89.461660
 30
0.0
 11
428.749883
 21
89.461660
 31
0.0
  0
LINE
  5
370
100
AcDbEntity
  8
Layer_1
 62
1
100
AcDbLine
 10
428.749883
 20
89.461660
 30
0.0
 11
428.749883
 21
85.461654
 31
0.0
  0
LINE
  5
371
100
AcDbEntity
  8
Layer_1
 62
1
100
AcDbLine
 10
428.749883
 20
85.461654
 30
0.0
 11
418.221358
 21
85.461654
 31
0.0
  0
LINE
  5
372
100
AcDbEntity
  8
Layer_1
 62
1
100
AcDbLine
 10
418.221358
 20
85.461654
 30
0.0
 11
418.221358
 21
89.461660
 31
0.0
  0
LINE
  5
373
100
AcDbEntity
  8
Layer_1
 62
1
100
AcDbLine
 10
418.221358
 20
89.461660
 30
0.0
 11
407.892758
 21
89.461660
 31
0.0
  0
LINE
  5
374
100
AcDbEntity
  8
Layer_1
 62
1
100
AcDbLine
 10
407.892758
 20
89.461660
 30
0.0
 11
407.892758
 21
85.461654
 31
0.0
  0
LINE
  5
375
100
AcDbEntity
  8
Layer_1
 62
1
100
AcDbLine
 10
407.892758
 20
85.461654
 30
0.0
 11
397.364204
 21
85.461654
 31
0.0
  0
LINE
  5
376
100
AcDbEntity
  8
Layer_1
 62
1
100
AcDbLine
 10
397.364204
 20
85.461654
 30
0.0
 11
397.364204
 21
89.461660
 31
0.0
  0
LINE
  5
377
100
AcDbEntity
  8
Layer_1
 62
1
100
AcDbLine
 10
397.364204
 20
89.461660
 30
0.0
 11
387.035604
 21
89.461660
 31
0.0
  0
LINE
  5
378
100
AcDbEntity
  8
Layer_1
 62
1
100
AcDbLine
 10
387.035604
 20
89.461660
 30
0.0
 11
387.035604
 21
85.461654
 31
0.0
  0
LINE
  5
379
100
AcDbEntity
  8
Layer_1
 62
1
100
AcDbLine
 10
387.035604
 20
85.461654
 30
0.0
 11
376.507079
 21
85.461654
 31
0.0
  0
LINE
  5
37a
100
AcDbEntity
  8
Layer_1
 62
1
100
AcDbLine
 10
376.507079
 20
85.461654
 30
0.0
 11
376.507079
 21
89.461660
 31
0.0
  0
LINE
  5
37b
100
AcDbEntity
  8
Layer_1
 62
1
100
AcDbLine
 10
376.507079
 20
89.461660
 30
0.0
 11
366.078460
 21
89.461660
 31
0.0
  0
LINE
  5
37c
100
AcDbEntity
  8
Layer_1
 62
1
100
AcDbLine
 10
366.078460
 20
89.461660
 30
0.0
 11
362.078496
 21
89.461660
 31
0.0
  0
LINE
  5
37d
100
AcDbEntity
  8
Layer_1
 62
1
100
AcDbLine
 10
362.078496
 20
89.461660
 30
0.0
 11
362.078496
 21
100.561638
 31
0.0
  0
LINE
  5
37e
100
AcDbEntity
  8
Layer_1
 62
1
100
AcDbLine
 10
362.078496
 20
100.561638
 30
0.0
 11
366.078460
 21
100.561638
 31
0.0
  0
LINE
  5
37f
100
AcDbEntity
  8
Layer_1
 62
1
100
AcDbLine
 10
366.078460
 20
100.561638
 30
0.0
 11
366.078460
 21
111.461659
 31
0.0
  0
LINE
  5
380
100
AcDbEntity
  8
Layer_1
 62
1
100
AcDbLine
 10
366.078460
 20
111.461659
 30
0.0
 11
362.078496
 21
111.461659
 31
0.0
  0
LINE
  5
381
100
AcDbEntity
  8
Layer_1
 62
1
100
AcDbLine
 10
362.078496
 20
111.461659
 30
0.0
 11
362.078496
 21
122.561636
 31
0.0
  0
LINE
  5
382
100
AcDbEntity
  8
Layer_1
 62
1
100
AcDbLine
 10
362.078496
 20
122.561636
 30
0.0
 11
366.078460
 21
122.561636
 31
0.0
  0
LINE
  5
383
100
AcDbEntity
  8
Layer_1
 62
1
100
AcDbLine
 10
366.078460
 20
122.561636
 30
0.0
 11
366.078460
 21
133.461660
 31
0.0
  0
LINE
  5
384
100
AcDbEntity
  8
Layer_1
 62
1
100
AcDbLine
 10
366.078460
 20
133.461660
 30
0.0
 11
362.078496
 21
133.461660
 31
0.0
  0
LINE
  5
385
100
AcDbEntity
  8
Layer_1
 62
1
100
AcDbLine
 10
362.078496
 20
133.461660
 30
0.0
 11
362.078496
 21
144.561638
 31
0.0
  0
LINE
  5
386
100
AcDbEntity
  8
Layer_1
 62
1
100
AcDbLine
 10
362.078496
 20
144.561638
 30
0.0
 11
366.078460
 21
144.561638
 31
0.0
  0
LINE
  5
387
100
AcDbEntity
  8
Layer_1
 62
1
100
AcDbLine
 10
366.078460
 20
144.561638
 30
0.0
 11
366.078460
 21
155.461661
 31
0.0
  0
LINE
  5
388
100
AcDbEntity
  8
Layer_1
 62
1
100
AcDbLine
 10
366.078460
 20
155.461661
 30
0.0
 11
362.078496
 21
155.461661
 31
0.0
  0
LINE
  5
389
100
AcDbEntity
  8
Layer_1
 62
1
100
AcDbLine
 10
362.078496
 20
155.461661
 30
0.0
 11
362.078496
 21
166.561636
 31
0.0
  0
LINE
  5
38a
100
AcDbEntity
  8
Layer_1
 62
1
100
AcDbLine
 10
362.078496
 20
166.561636
 30
0.0
 11
366.078460
 21
166.561636
 31
0.0
  0
LINE
  5
38b
100
AcDbEntity
  8
Layer_1
 62
1
100
AcDbLine
 10
366.078460
 20
166.561636
 30
0.0
 11
366.078460
 21
177.461659
 31
0.0
  0
LINE
  5
38c
100
AcDbEntity
  8
Layer_1
 62
1
100
AcDbLine
 10
366.078460
 20
177.461659
 30
0.0
 11
362.078496
 21
177.461659
 31
0.0
  0
LINE
  5
38d
100
AcDbEntity
  8
Layer_1
 62
1
100
AcDbLine
 10
362.078496
 20
177.461659
 30
0.0
 11
362.078496
 21
188.561637
 31
0.0
  0
LINE
  5
38e
100
AcDbEntity
  8
Layer_1
 62
1
100
AcDbLine
 10
362.078496
 20
188.561637
 30
0.0
 11
366.078460
 21
188.561637
 31
0.0
  0
LINE
  5
38f
100
AcDbEntity
  8
Layer_1
 62
1
100
AcDbLine
 10
366.078460
 20
188.561637
 30
0.0
 11
366.078460
 21
199.461660
 31
0.0
  0
LINE
  5
390
100
AcDbEntity
  8
Layer_1
 62
1
100
AcDbLine
 10
366.078460
 20
199.461660
 30
0.0
 11
362.078496
 21
199.461660
 31
0.0
  0
LINE
  5
391
100
AcDbEntity
  8
Layer_1
 62
1
100
AcDbLine
 10
362.078496
 20
199.461660
 30
0.0
 11
362.078496
 21
210.561638
 31
0.0
  0
LINE
  5
392
100
AcDbEntity
  8
Layer_1
 62
1
100
AcDbLine
 10
362.078496
 20
210.561638
 30
0.0
 11
366.078460
 21
210.561638
 31
0.0
  0
LINE
  5
393
100
AcDbEntity
  8
Layer_1
 62
1
100
AcDbLine
 10
366.078460
 20
210.561638
 30
0.0
 11
366.078460
 21
221.461659
 31
0.0
  0
LINE
  5
394
100
AcDbEntity
  8
Layer_1
 62
1
100
AcDbLine
 10
366.078460
 20
221.461659
 30
0.0
 11
362.078496
 21
221.461659
 31
0.0
  0
LINE
  5
395
100
AcDbEntity
  8
Layer_1
 62
1
100
AcDbLine
 10
362.078496
 20
221.461659
 30
0.0
 11
362.078496
 21
232.561648
 31
0.0
  0
LINE
  5
396
100
AcDbEntity
  8
Layer_1
 62
1
100
AcDbLine
 10
362.078496
 20
232.561648
 30
0.0
 11
366.078460
 21
232.561648
 31
0.0
  0
LINE
  5
397
100
AcDbEntity
  8
Layer_1
 62
1
100
AcDbLine
 10
366.078460
 20
232.561648
 30
0.0
 11
376.507079
 21
232.561648
 31
0.0
  0
LINE
  5
398
100
AcDbEntity
  8
Layer_1
 62
1
100
AcDbLine
 10
376.507079
 20
232.561648
 30
0.0
 11
376.507079
 21
236.561640
 31
0.0
  0
LINE
  5
399
100
AcDbEntity
  8
Layer_1
 62
1
100
AcDbLine
 10
376.507079
 20
236.561640
 30
0.0
 11
387.035604
 21
236.561640
 31
0.0
  0
LINE
  5
39a
100
AcDbEntity
  8
Layer_1
 62
1
100
AcDbLine
 10
387.035604
 20
236.561640
 30
0.0
 11
387.035604
 21
232.561648
 31
0.0
  0
LINE
  5
39b
100
AcDbEntity
  8
Layer_1
 62
1
100
AcDbLine
 10
387.035604
 20
232.561648
 30
0.0
 11
397.364204
 21
232.561648
 31
0.0
  0
LINE
  5
39c
100
AcDbEntity
  8
Layer_1
 62
1
100
AcDbLine
 10
397.364204
 20
232.561648
 30
0.0
 11
397.364204
 21
236.561640
 31
0.0
  0
LINE
  5
39d
100
AcDbEntity
  8
Layer_1
 62
1
100
AcDbLine
 10
397.364204
 20
236.561640
 30
0.0
 11
407.892758
 21
236.561640
 31
0.0
  0
LINE
  5
39e
100
AcDbEntity
  8
Layer_1
 62
1
100
AcDbLine
 10
407.892758
 20
236.561640
 30
0.0
 11
407.892758
 21
232.561648
 31
0.0
  0
LINE
  5
39f
100
AcDbEntity
  8
Layer_1
 62
1
100
AcDbLine
 10
407.892758
 20
232.561648
 30
0.0
 11
418.221358
 21
232.561648
 31
0.0
  0
LINE
  5
3a0
100
AcDbEntity
  8
Layer_1
 62
1
100
AcDbLine
 10
418.221358
 20
232.561648
 30
0.0
 11
418.221358
 21
236.561640
 31
0.0
  0
LINE
  5
3a1
100
AcDbEntity
  8
Layer_1
 62
1
100
AcDbLine
 10
418.221358
 20
236.561640
 30
0.0
 11
428.749883
 21
236.561640
 31
0.0
  0
LINE
  5
3a2
100
AcDbEntity
  8
Layer_1
 62
1
100
AcDbLine
 10
428.749883
 20
236.561640
 30
0.0
 11
428.749883
 21
232.561648
 31
0.0
  0
LINE
  5
3a3
100
AcDbEntity
  8
Layer_1
 62
1
100
AcDbLine
 10
428.749883
 20
232.561648
 30
0.0
 11
439.078483
 21
232.561648
 31
0.0
  0
LINE
  5
3a4
100
AcDbEntity
  8
Layer_1
 62
1
100
AcDbLine
 10
439.078483
 20
232.561648
 30
0.0
 11
439.078483
 21
236.561640
 31
0.0
  0
LINE
  5
3a5
100
AcDbEntity
  8
Layer_1
 62
1
100
AcDbLine
 10
439.078483
 20
236.561640
 30
0.0
 11
449.607037
 21
236.561640
 31
0.0
  0
LINE
  5
3a6
100
AcDbEntity
  8
Layer_1
 62
1
100
AcDbLine
 10
449.607037
 20
236.561640
 30
0.0
 11
449.607037
 21
232.561648
 31
0.0
  0
LINE
  5
3a7
100
AcDbEntity
  8
Layer_1
 62
1
100
AcDbLine
 10
449.607037
 20
232.561648
 30
0.0
 11
459.935636
 21
232.561648
 31
0.0
  0
LINE
  5
3a8
100
AcDbEntity
  8
Layer_1
 62
1
100
AcDbLine
 10
459.935636
 20
232.561648
 30
0.0
 11
459.935636
 21
236.561640
 31
0.0
  0
LINE
  5
3a9
100
AcDbEntity
  8
Layer_1
 62
1
100
AcDbLine
 10
459.935636
 20
236.561640
 30
0.0
 11
470.464219
 21
236.561640
 31
0.0
  0
LINE
  5
3aa
100
AcDbEntity
  8
Layer_1
 62
1
100
AcDbLine
 10
470.464219
 20
236.561640
 30
0.0
 11
470.464219
 21
232.561648
 31
0.0
  0
LINE
  5
3ab
100
AcDbEntity
  8
Layer_1
 62
1
100
AcDbLine
 10
470.464219
 20
232.561648
 30
0.0
 11
480.792790
 21
232.561648
 31
0.0
  0
LINE
  5
3ac
100
AcDbEntity
  8
Layer_1
 62
1
100
AcDbLine
 10
480.792790
 20
232.561648
 30
0.0
 11
480.792790
 21
236.561640
 31
0.0
  0
LINE
  5
3ad
100
AcDbEntity
  8
Layer_1
 62
1
100
AcDbLine
 10
480.792790
 20
236.561640
 30
0.0
 11
491.321372
 21
236.561640
 31
0.0
  0
LINE
  5
3ae
100
AcDbEntity
  8
Layer_1
 62
1
100
AcDbLine
 10
491.321372
 20
236.561640
 30
0.0
 11
491.321372
 21
232.561648
 31
0.0
  0
LINE
  5
3af
100
AcDbEntity
  8
Layer_1
 62
1
100
AcDbLine
 10
491.321372
 20
232.561648
 30
0.0
 11
501.649944
 21
232.561648
 31
0.0
  0
LINE
  5
3b0
100
AcDbEntity
  8
Layer_1
 62
1
100
AcDbLine
 10
501.649944
 20
232.561648
 30
0.0
 11
501.649944
 21
236.561640
 31
0.0
  0
LINE
  5
3b1
100
AcDbEntity
  8
Layer_1
 62
1
100
AcDbLine
 10
501.649944
 20
236.561640
 30
0.0
 11
512.178526
 21
236.561640
 31
0.0
  0
LINE
  5
3b2
100
AcDbEntity
  8
Layer_1
 62
1
100
AcDbLine
 10
512.178526
 20
236.561640
 30
0.0
 11
512.178526
 21
232.561648
 31
0.0
  0
LINE
  5
3b3
100
AcDbEntity
  8
Layer_1
 62
1
100
AcDbLine
 10
512.178526
 20
232.561648
 30
0.0
 11
522.507069
 21
232.561648
 31
0.0
  0
LINE
  5
3b4
100
AcDbEntity
  8
Layer_1
 62
1
100
AcDbLine
 10
522.507069
 20
232.561648
 30
0.0
 11
522.507069
 21
236.561640
 31
0.0
  0
LINE
  5
3b5
100
AcDbEntity
  8
Layer_1
 62
1
100
AcDbLine
 10
522.507069
 20
236.561640
 30
0.0
 11
533.035651
 21
236.561640
 31
0.0
  0
LINE
  5
3b6
100
AcDbEntity
  8
Layer_1
 62
1
100
AcDbLine
 10
533.035651
 20
236.561640
 30
0.0
 11
533.035651
 21
232.561648
 31
0.0
  0
LINE
  5
3b7
100
AcDbEntity
  8
Layer_1
 62
1
100
AcDbLine
 10
533.035651
 20
232.561648
 30
0.0
 11
543.364194
 21
232.561648
 31
0.0
  0
LINE
  5
3b8
100
AcDbEntity
  8
Layer_1
 62
1
100
AcDbLine
 10
543.364194
 20
232.561648
 30
0.0
 11
543.364194
 21
236.561640
 31
0.0
  0
LINE
  5
3b9
100
AcDbEntity
  8
Layer_1
 62
1
100
AcDbLine
 10
543.364194
 20
236.561640
 30
0.0
 11
553.892776
 21
236.561640
 31
0.0
  0
LINE
  5
3ba
100
AcDbEntity
  8
Layer_1
 62
1
100
AcDbLine
 10
553.892776
 20
236.561640
 30
0.0
 11
553.892776
 21
232.561648
 31
0.0
  0
LINE
  5
3bb
100
AcDbEntity
  8
Layer_1
 62
1
100
AcDbLine
 10
553.892776
 20
232.561648
 30
0.0
 11
564.221320
 21
232.561648
 31
0.0
  0
LINE
  5
3bc
100
AcDbEntity
  8
Layer_1
 62
1
100
AcDbLine
 10
564.221320
 20
232.561648
 30
0.0
 11
564.221320
 21
236.561640
 31
0.0
  0
LINE
  5
3bd
100
AcDbEntity
  8
Layer_1
 62
1
100
AcDbLine
 10
564.221320
 20
236.561640
 30
0.0
 11
574.749902
 21
236.561640
 31
0.0
  0
LINE
  5
3be
100
AcDbEntity
  8
Layer_1
 62
1
100
AcDbLine
 10
574.749902
 20
236.561640
 30
0.0
 11
574.749902
 21
232.561648
 31
0.0
  0
LINE
  5
3bf
100
AcDbEntity
  8
Layer_1
 62
1
100
AcDbLine
 10
574.749902
 20
232.561648
 30
0.0
 11
585.178493
 21
232.561648
 31
0.0
  0
LINE
  5
3c0
100
AcDbEntity
  8
Layer_1
 62
1
100
AcDbLine
 10
585.178493
 20
232.561648
 30
0.0
 11
589.178485
 21
232.561648
 31
0.0
  0
LINE
  5
3c1
100
AcDbEntity
  8
Layer_1
 62
1
100
AcDbLine
 10
589.178485
 20
232.561648
 30
0.0
 11
589.178485
 21
221.461659
 31
0.0
  0
LINE
  5
3c2
100
AcDbEntity
  8
Layer_1
 62
1
100
AcDbLine
 10
589.178485
 20
221.461659
 30
0.0
 11
585.178493
 21
221.461659
 31
0.0
  0
LINE
  5
3c3
100
AcDbEntity
  8
Layer_1
 62
1
100
AcDbLine
 10
585.178493
 20
221.461659
 30
0.0
 11
585.178493
 21
210.561638
 31
0.0
  0
LINE
  5
3c4
100
AcDbEntity
  8
Layer_1
 62
1
100
AcDbLine
 10
585.178493
 20
210.561638
 30
0.0
 11
589.178485
 21
210.561638
 31
0.0
  0
LINE
  5
3c5
100
AcDbEntity
  8
Layer_1
 62
1
100
AcDbLine
 10
589.178485
 20
210.561638
 30
0.0
 11
589.178485
 21
199.461660
 31
0.0
  0
LINE
  5
3c6
100
AcDbEntity
  8
Layer_1
 62
1
100
AcDbLine
 10
589.178485
 20
199.461660
 30
0.0
 11
585.178493
 21
199.461660
 31
0.0
  0
LINE
  5
3c7
100
AcDbEntity
  8
Layer_1
 62
1
100
AcDbLine
 10
585.178493
 20
199.461660
 30
0.0
 11
585.178493
 21
188.561637
 31
0.0
  0
LINE
  5
3c8
100
AcDbEntity
  8
Layer_1
 62
1
100
AcDbLine
 10
585.178493
 20
188.561637
 30
0.0
 11
589.178485
 21
188.561637
 31
0.0
  0
LINE
  5
3c9
100
AcDbEntity
  8
Layer_1
 62
1
100
AcDbLine
 10
589.178485
 20
188.561637
 30
0.0
 11
589.178485
 21
177.461659
 31
0.0
  0
LINE
  5
3ca
100
AcDbEntity
  8
Layer_1
 62
1
100
AcDbLine
 10
589.178485
 20
177.461659
 30
0.0
 11
585.178493
 21
177.461659
 31
0.0
  0
LINE
  5
3cb
100
AcDbEntity
  8
Layer_1
 62
1
100
AcDbLine
 10
585.178493
 20
177.461659
 30
0.0
 11
585.178493
 21
166.561636
 31
0.0
  0
LINE
  5
3cc
100
AcDbEntity
  8
Layer_1
 62
1
100
AcDbLine
 10
585.178493
 20
166.561636
 30
0.0
 11
589.178485
 21
166.561636
 31
0.0
  0
LINE
  5
3cd
100
AcDbEntity
  8
Layer_1
 62
1
100
AcDbLine
 10
589.178485
 20
166.561636
 30
0.0
 11
589.178485
 21
155.461661
 31
0.0
  0
LINE
  5
3ce
100
AcDbEntity
  8
Layer_1
 62
1
100
AcDbLine
 10
589.178485
 20
155.461661
 30
0.0
 11
585.178493
 21
155.461661
 31
0.0
  0
LINE
  5
3cf
100
AcDbEntity
  8
Layer_1
 62
1
100
AcDbLine
 10
585.178493
 20
155.461661
 30
0.0
 11
585.178493
 21
144.561638
 31
0.0
  0
LINE
  5
3d0
100
AcDbEntity
  8
Layer_1
 62
1
100
AcDbLine
 10
585.178493
 20
144.561638
 30
0.0
 11
589.178485
 21
144.561638
 31
0.0
  0
LINE
  5
3d1
100
AcDbEntity
  8
Layer_1
 62
1
100
AcDbLine
 10
589.178485
 20
144.561638
 30
0.0
 11
589.178485
 21
133.461660
 31
0.0
  0
LINE
  5
3d2
100
AcDbEntity
  8
Layer_1
 62
1
100
AcDbLine
 10
589.178485
 20
133.461660
 30
0.0
 11
585.178493
 21
133.461660
 31
0.0
  0
LINE
  5
3d3
100
AcDbEntity
  8
Layer_1
 62
1
100
AcDbLine
 10
585.178493
 20
133.461660
 30
0.0
 11
585.178493
 21
122.561636
 31
0.0
  0
LINE
  5
3d4
100
AcDbEntity
  8
Layer_1
 62
1
100
AcDbLine
 10
585.178493
 20
122.561636
 30
0.0
 11
589.178485
 21
122.561636
 31
0.0
  0
LINE
  5
3d5
100
AcDbEntity
  8
Layer_1
 62
1
100
AcDbLine
 10
589.178485
 20
122.561636
 30
0.0
 11
589.178485
 21
111.461659
 31
0.0
  0
LINE
  5
3d6
100
AcDbEntity
  8
Layer_1
 62
1
100
AcDbLine
 10
589.178485
 20
111.461659
 30
0.0
 11
585.178493
 21
111.461659
 31
0.0
  0
LINE
  5
3d7
100
AcDbEntity
  8
Layer_1
 62
1
100
AcDbLine
 10
585.178493
 20
111.461659
 30
0.0
 11
585.178493
 21
100.561638
 31
0.0
  0
LINE
  5
3d8
100
AcDbEntity
  8
Layer_1
 62
1
100
AcDbLine
 10
585.178493
 20
100.561638
 30
0.0
 11
589.178485
 21
100.561638
 31
0.0
  0
LINE
  5
3d9
100
AcDbEntity
  8
Layer_1
 62
1
100
AcDbLine
 10
589.178485
 20
100.561638
 30
0.0
 11
589.178485
 21
89.461660
 31
0.0
  0
LINE
  5
3da
100
AcDbEntity
  8
Layer_1
 62
1
100
AcDbLine
 10
589.178485
 20
89.461660
 30
0.0
 11
585.178493
 21
89.461660
 31
0.0
  0
LINE
  5
3db
100
AcDbEntity
  8
Layer_1
 62
1
100
AcDbLine
 10
585.178493
 20
89.461660
 30
0.0
 11
574.749902
 21
89.461660
 31
0.0
  0
LINE
  5
3dc
100
AcDbEntity
  8
Layer_1
 62
1
100
AcDbLine
 10
574.749902
 20
89.461660
 30
0.0
 11
574.749902
 21
85.461654
 31
0.0
  0
LINE
  5
3dd
100
AcDbEntity
  8
Layer_1
 62
1
100
AcDbLine
 10
574.749902
 20
85.461654
 30
0.0
 11
564.221320
 21
85.461654
 31
0.0
  0
LINE
  5
3de
100
AcDbEntity
  8
Layer_1
 62
1
100
AcDbLine
 10
564.221320
 20
85.461654
 30
0.0
 11
564.221320
 21
89.461660
 31
0.0
  0
LINE
  5
3df
100
AcDbEntity
  8
Layer_1
 62
1
100
AcDbLine
 10
564.221320
 20
89.461660
 30
0.0
 11
553.892776
 21
89.461660
 31
0.0
  0
LINE
  5
3e0
100
AcDbEntity
  8
Layer_1
 62
1
100
AcDbLine
 10
553.892776
 20
89.461660
 30
0.0
 11
553.892776
 21
85.461654
 31
0.0
  0
LINE
  5
3e1
100
AcDbEntity
  8
Layer_1
 62
1
100
AcDbLine
 10
553.892776
 20
85.461654
 30
0.0
 11
543.364194
 21
85.461654
 31
0.0
  0
LINE
  5
3e2
100
AcDbEntity
  8
Layer_1
 62
1
100
AcDbLine
 10
543.364194
 20
85.461654
 30
0.0
 11
543.364194
 21
89.461660
 31
0.0
  0
SPLINE
  5
3e3
100
AcDbEntity
  8
Layer_1
 62
1
100
AcDbSpline
 70
8
 71
3
 72
8
 73
4
 74
0
 40
0
 40
0
 40
0
 40
0
 40
1
 40
1
 40
1
 40
1
 10
404.088769
 20
122.103243
 30
0.0
 10
404.089149
 20
121.388218
 30
0.0
 10
403.707906
 20
120.727345
 30
0.0
 10
403.088740
 20
120.369723
 30
0.0
  0
SPLINE
  5
3e4
100
AcDbEntity
  8
Layer_1
 62
1
100
AcDbSpline
 70
8
 71
3
 72
8
 73
4
 74
0
 40
0
 40
0
 40
0
 40
0
 40
1
 40
1
 40
1
 40
1
 10
403.088740
 20
120.369723
 30
0.0
 10
402.469573
 20
120.012101
 30
0.0
 10
401.706619
 20
120.012101
 30
0.0
 10
401.087452
 20
120.369723
 30
0.0
  0
SPLINE
  5
3e5
100
AcDbEntity
  8
Layer_1
 62
1
100
AcDbSpline
 70
8
 71
3
 72
8
 73
4
 74
0
 40
0
 40
0
 40
0
 40
0
 40
1
 40
1
 40
1
 40
1
 10
401.087452
 20
120.369723
 30
0.0
 10
400.468286
 20
120.727345
 30
0.0
 10
400.087043
 20
121.388218
 30
0.0
 10
400.087423
 20
122.103243
 30
0.0
  0
SPLINE
  5
3e6
100
AcDbEntity
  8
Layer_1
 62
1
100
AcDbSpline
 70
8
 71
3
 72
8
 73
4
 74
0
 40
0
 40
0
 40
0
 40
0
 40
1
 40
1
 40
1
 40
1
 10
400.087423
 20
122.103243
 30
0.0
 10
400.088009
 20
123.207769
 30
0.0
 10
400.983569
 20
124.102853
 30
0.0
 10
402.088096
 20
124.102853
 30
0.0
  0
SPLINE
  5
3e7
100
AcDbEntity
  8
Layer_1
 62
1
100
AcDbSpline
 70
8
 71
3
 72
8
 73
4
 74
0
 40
0
 40
0
 40
0
 40
0
 40
1
 40
1
 40
1
 40
1
 10
402.088096
 20
124.102853
 30
0.0
 10
403.192623
 20
124.102853
 30
0.0
 10
404.088183
 20
123.207769
 30
0.0
 10
404.088769
 20
122.103243
 30
0.0
  0
LINE
  5
3e8
100
AcDbEntity
  8
Layer_1
 62
1
100
AcDbLine
 10
404.088769
 20
122.103243
 30
0.0
 11
404.088769
 21
122.103243
 31
0.0
  0
SPLINE
  5
3e9
100
AcDbEntity
  8
Layer_1
 62
1
100
AcDbSpline
 70
8
 71
3
 72
8
 73
4
 74
0
 40
0
 40
0
 40
0
 40
0
 40
1
 40
1
 40
1
 40
1
 10
404.088769
 20
171.562608
 30
0.0
 10
404.089279
 20
170.847497
 30
0.0
 10
403.708064
 20
170.186489
 30
0.0
 10
403.088844
 20
169.828786
 30
0.0
  0
SPLINE
  5
3ea
100
AcDbEntity
  8
Layer_1
 62
1
100
AcDbSpline
 70
8
 71
3
 72
8
 73
4
 74
0
 40
0
 40
0
 40
0
 40
0
 40
1
 40
1
 40
1
 40
1
 10
403.088844
 20
169.828786
 30
0.0
 10
402.469625
 20
169.471083
 30
0.0
 10
401.706567
 20
169.471083
 30
0.0
 10
401.087348
 20
169.828786
 30
0.0
  0
SPLINE
  5
3eb
100
AcDbEntity
  8
Layer_1
 62
1
100
AcDbSpline
 70
8
 71
3
 72
8
 73
4
 74
0
 40
0
 40
0
 40
0
 40
0
 40
1
 40
1
 40
1
 40
1
 10
401.087348
 20
169.828786
 30
0.0
 10
400.468128
 20
170.186489
 30
0.0
 10
400.086913
 20
170.847497
 30
0.0
 10
400.087423
 20
171.562608
 30
0.0
  0
SPLINE
  5
3ec
100
AcDbEntity
  8
Layer_1
 62
1
100
AcDbSpline
 70
8
 71
3
 72
8
 73
4
 74
0
 40
0
 40
0
 40
0
 40
0
 40
1
 40
1
 40
1
 40
1
 10
400.087423
 20
171.562608
 30
0.0
 10
400.088210
 20
172.666992
 30
0.0
 10
400.983711
 20
173.561856
 30
0.0
 10
402.088096
 20
173.561856
 30
0.0
  0
SPLINE
  5
3ed
100
AcDbEntity
  8
Layer_1
 62
1
100
AcDbSpline
 70
8
 71
3
 72
8
 73
4
 74
0
 40
0
 40
0
 40
0
 40
0
 40
1
 40
1
 40
1
 40
1
 10
402.088096
 20
173.561856
 30
0.0
 10
403.192481
 20
173.561856
 30
0.0
 10
404.087982
 20
172.666992
 30
0.0
 10
404.088769
 20
171.562608
 30
0.0
  0
LINE
  5
3ee
100
AcDbEntity
  8
Layer_1
 62
1
100
AcDbLine
 10
404.088769
 20
171.562608
 30
0.0
 11
404.088769
 21
171.562608
 31
0.0
  0
SPLINE
  5
3ef
100
AcDbEntity
  8
Layer_1
 62
1
100
AcDbSpline
 70
8
 71
3
 72
8
 73
4
 74
0
 40
0
 40
0
 40
0
 40
0
 40
1
 40
1
 40
1
 40
1
 10
554.152901
 20
122.103604
 30
0.0
 10
554.153410
 20
121.388493
 30
0.0
 10
553.772196
 20
120.727484
 30
0.0
 10
553.152976
 20
120.369782
 30
0.0
  0
SPLINE
  5
3f0
100
AcDbEntity
  8
Layer_1
 62
1
100
AcDbSpline
 70
8
 71
3
 72
8
 73
4
 74
0
 40
0
 40
0
 40
0
 40
0
 40
1
 40
1
 40
1
 40
1
 10
553.152976
 20
120.369782
 30
0.0
 10
552.533756
 20
120.012079
 30
0.0
 10
551.770699
 20
120.012079
 30
0.0
 10
551.151479
 20
120.369782
 30
0.0
  0
SPLINE
  5
3f1
100
AcDbEntity
  8
Layer_1
 62
1
100
AcDbSpline
 70
8
 71
3
 72
8
 73
4
 74
0
 40
0
 40
0
 40
0
 40
0
 40
1
 40
1
 40
1
 40
1
 10
551.151479
 20
120.369782
 30
0.0
 10
550.532259
 20
120.727484
 30
0.0
 10
550.151044
 20
121.388493
 30
0.0
 10
550.151554
 20
122.103604
 30
0.0
  0
SPLINE
  5
3f2
100
AcDbEntity
  8
Layer_1
 62
1
100
AcDbSpline
 70
8
 71
3
 72
8
 73
4
 74
0
 40
0
 40
0
 40
0
 40
0
 40
1
 40
1
 40
1
 40
1
 10
550.151554
 20
122.103604
 30
0.0
 10
550.152341
 20
123.207988
 30
0.0
 10
551.047842
 20
124.102852
 30
0.0
 10
552.152227
 20
124.102852
 30
0.0
  0
SPLINE
  5
3f3
100
AcDbEntity
  8
Layer_1
 62
1
100
AcDbSpline
 70
8
 71
3
 72
8
 73
4
 74
0
 40
0
 40
0
 40
0
 40
0
 40
1
 40
1
 40
1
 40
1
 10
552.152227
 20
124.102852
 30
0.0
 10
553.256612
 20
124.102852
 30
0.0
 10
554.152114
 20
123.207988
 30
0.0
 10
554.152901
 20
122.103604
 30
0.0
  0
LINE
  5
3f4
100
AcDbEntity
  8
Layer_1
 62
1
100
AcDbLine
 10
554.152901
 20
122.103604
 30
0.0
 11
554.152901
 21
122.103604
 31
0.0
  0
SPLINE
  5
3f5
100
AcDbEntity
  8
Layer_1
 62
1
100
AcDbSpline
 70
8
 71
3
 72
8
 73
4
 74
0
 40
0
 40
0
 40
0
 40
0
 40
1
 40
1
 40
1
 40
1
 10
554.152901
 20
171.562896
 30
0.0
 10
554.153513
 20
170.847716
 30
0.0
 10
553.772321
 20
170.186601
 30
0.0
 10
553.153059
 20
169.828834
 30
0.0
  0
SPLINE
  5
3f6
100
AcDbEntity
  8
Layer_1
 62
1
100
AcDbSpline
 70
8
 71
3
 72
8
 73
4
 74
0
 40
0
 40
0
 40
0
 40
0
 40
1
 40
1
 40
1
 40
1
 10
553.153059
 20
169.828834
 30
0.0
 10
552.533797
 20
169.471067
 30
0.0
 10
551.770658
 20
169.471067
 30
0.0
 10
551.151396
 20
169.828834
 30
0.0
  0
SPLINE
  5
3f7
100
AcDbEntity
  8
Layer_1
 62
1
100
AcDbSpline
 70
8
 71
3
 72
8
 73
4
 74
0
 40
0
 40
0
 40
0
 40
0
 40
1
 40
1
 40
1
 40
1
 10
551.151396
 20
169.828834
 30
0.0
 10
550.532134
 20
170.186601
 30
0.0
 10
550.150941
 20
170.847716
 30
0.0
 10
550.151554
 20
171.562896
 30
0.0
  0
SPLINE
  5
3f8
100
AcDbEntity
  8
Layer_1
 62
1
100
AcDbSpline
 70
8
 71
3
 72
8
 73
4
 74
0
 40
0
 40
0
 40
0
 40
0
 40
1
 40
1
 40
1
 40
1
 10
550.151554
 20
171.562896
 30
0.0
 10
550.152500
 20
172.667168
 30
0.0
 10
551.047955
 20
173.561856
 30
0.0
 10
552.152227
 20
173.561856
 30
0.0
  0
SPLINE
  5
3f9
100
AcDbEntity
  8
Layer_1
 62
1
100
AcDbSpline
 70
8
 71
3
 72
8
 73
4
 74
0
 40
0
 40
0
 40
0
 40
0
 40
1
 40
1
 40
1
 40
1
 10
552.152227
 20
173.561856
 30
0.0
 10
553.256500
 20
173.561856
 30
0.0
 10
554.151955
 20
172.667168
 30
0.0
 10
554.152901
 20
171.562896
 30
0.0
  0
LINE
  5
3fa
100
AcDbEntity
  8
Layer_1
 62
1
100
AcDbLine
 10
554.152901
 20
171.562896
 30
0.0
 11
554.152901
 21
171.562896
 31
0.0
  0
LINE
  5
3fb
100
AcDbEntity
  8
Layer_1
 62
6
100
AcDbLine
 10
49.442201
 20
19.802011
 30
0.0
 11
49.442201
 21
11.386632
 31
0.0
  0
LINE
  5
3fc
100
AcDbEntity
  8
Layer_1
 62
6
100
AcDbLine
 10
49.442201
 20
11.386632
 30
0.0
 11
549.514578
 21
11.386632
 31
0.0
  0
LINE
  5
3fd
100
AcDbEntity
  8
Layer_1
 62
6
100
AcDbLine
 10
549.514578
 20
11.386632
 30
0.0
 11
549.514578
 21
19.776681
 31
0.0
  0
SPLINE
  5
3fe
100
AcDbEntity
  8
Layer_1
 62
7
100
AcDbSpline
 70
8
 71
3
 72
8
 73
4
 74
0
 40
0
 40
0
 40
0
 40
0
 40
1
 40
1
 40
1
 40
1
 10
202.191690
 20
18.445052
 30
0.0
 10
202.191690
 20
18.062876
 30
0.0
 10
202.121869
 20
17.697237
 30
0.0
 10
201.982228
 20
17.348134
 30
0.0
  0
SPLINE
  5
3ff
100
AcDbEntity
  8
Layer_1
 62
7
100
AcDbSpline
 70
8
 71
3
 72
8
 73
4
 74
0
 40
0
 40
0
 40
0
 40
0
 40
1
 40
1
 40
1
 40
1
 10
201.982228
 20
17.348134
 30
0.0
 10
201.842586
 20
16.999030
 30
0.0
 10
201.651498
 20
16.705049
 30
0.0
 10
201.408964
 20
16.466189
 30
0.0
  0
SPLINE
  5
400
100
AcDbEntity
  8
Layer_1
 62
7
100
AcDbSpline
 70
8
 71
3
 72
8
 73
4
 74
0
 40
0
 40
0
 40
0
 40
0
 40
1
 40
1
 40
1
 40
1
 10
201.408964
 20
16.466189
 30
0.0
 10
201.144381
 20
16.208955
 30
0.0
 10
200.828350
 20
16.010517
 30
0.0
 10
200.460872
 20
15.870875
 30
0.0
  0
SPLINE
  5
401
100
AcDbEntity
  8
Layer_1
 62
7
100
AcDbSpline
 70
8
 71
3
 72
8
 73
4
 74
0
 40
0
 40
0
 40
0
 40
0
 40
1
 40
1
 40
1
 40
1
 10
200.460872
 20
15.870875
 30
0.0
 10
200.097071
 20
15.734910
 30
0.0
 10
199.674473
 20
15.666927
 30
0.0
 10
199.193079
 20
15.666927
 30
0.0
  0
SPLINE
  5
402
100
AcDbEntity
  8
Layer_1
 62
7
100
AcDbSpline
 70
8
 71
3
 72
8
 73
4
 74
0
 40
0
 40
0
 40
0
 40
0
 40
1
 40
1
 40
1
 40
1
 10
199.193079
 20
15.666927
 30
0.0
 10
198.744756
 20
15.666927
 30
0.0
 10
198.312970
 20
15.714699
 30
0.0
 10
197.897721
 20
15.810243
 30
0.0
  0
SPLINE
  5
403
100
AcDbEntity
  8
Layer_1
 62
7
100
AcDbSpline
 70
8
 71
3
 72
8
 73
4
 74
0
 40
0
 40
0
 40
0
 40
0
 40
1
 40
1
 40
1
 40
1
 10
197.897721
 20
15.810243
 30
0.0
 10
197.482473
 20
15.902112
 30
0.0
 10
197.131532
 20
16.014192
 30
0.0
 10
196.844900
 20
16.146485
 30
0.0
  0
LINE
  5
404
100
AcDbEntity
  8
Layer_1
 62
7
100
AcDbLine
 10
196.844900
 20
16.146485
 30
0.0
 11
196.844900
 21
17.309548
 31
0.0
  0
LINE
  5
405
100
AcDbEntity
  8
Layer_1
 62
7
100
AcDbLine
 10
196.844900
 20
17.309548
 30
0.0
 11
196.922071
 21
17.309548
 31
0.0
  0
SPLINE
  5
406
100
AcDbEntity
  8
Layer_1
 62
7
100
AcDbSpline
 70
8
 71
3
 72
8
 73
4
 74
0
 40
0
 40
0
 40
0
 40
0
 40
1
 40
1
 40
1
 40
1
 10
196.922071
 20
17.309548
 30
0.0
 10
197.223401
 20
17.118461
 30
0.0
 10
197.576179
 20
16.954934
 30
0.0
 10
197.980404
 20
16.818967
 30
0.0
  0
SPLINE
  5
407
100
AcDbEntity
  8
Layer_1
 62
7
100
AcDbSpline
 70
8
 71
3
 72
8
 73
4
 74
0
 40
0
 40
0
 40
0
 40
0
 40
1
 40
1
 40
1
 40
1
 10
197.980404
 20
16.818967
 30
0.0
 10
198.384629
 20
16.686674
 30
0.0
 10
198.781504
 20
16.620528
 30
0.0
 10
199.171029
 20
16.620528
 30
0.0
  0
SPLINE
  5
408
100
AcDbEntity
  8
Layer_1
 62
7
100
AcDbSpline
 70
8
 71
3
 72
8
 73
4
 74
0
 40
0
 40
0
 40
0
 40
0
 40
1
 40
1
 40
1
 40
1
 10
199.171029
 20
16.620528
 30
0.0
 10
199.431938
 20
16.620528
 30
0.0
 10
199.683659
 20
16.657276
 30
0.0
 10
199.926194
 20
16.730772
 30
0.0
  0
SPLINE
  5
409
100
AcDbEntity
  8
Layer_1
 62
7
100
AcDbSpline
 70
8
 71
3
 72
8
 73
4
 74
0
 40
0
 40
0
 40
0
 40
0
 40
1
 40
1
 40
1
 40
1
 10
199.926194
 20
16.730772
 30
0.0
 10
200.172404
 20
16.804267
 30
0.0
 10
200.391053
 20
16.932884
 30
0.0
 10
200.582140
 20
17.116624
 30
0.0
  0
SPLINE
  5
40a
100
AcDbEntity
  8
Layer_1
 62
7
100
AcDbSpline
 70
8
 71
3
 72
8
 73
4
 74
0
 40
0
 40
0
 40
0
 40
0
 40
1
 40
1
 40
1
 40
1
 10
200.582140
 20
17.116624
 30
0.0
 10
200.743831
 20
17.274638
 30
0.0
 10
200.865098
 20
17.463889
 30
0.0
 10
200.945942
 20
17.684376
 30
0.0
  0
SPLINE
  5
40b
100
AcDbEntity
  8
Layer_1
 62
7
100
AcDbSpline
 70
8
 71
3
 72
8
 73
4
 74
0
 40
0
 40
0
 40
0
 40
0
 40
1
 40
1
 40
1
 40
1
 10
200.945942
 20
17.684376
 30
0.0
 10
201.030462
 20
17.904861
 30
0.0
 10
201.072721
 20
18.160257
 30
0.0
 10
201.072721
 20
18.450564
 30
0.0
  0
SPLINE
  5
40c
100
AcDbEntity
  8
Layer_1
 62
7
100
AcDbSpline
 70
8
 71
3
 72
8
 73
4
 74
0
 40
0
 40
0
 40
0
 40
0
 40
1
 40
1
 40
1
 40
1
 10
201.072721
 20
18.450564
 30
0.0
 10
201.072721
 20
18.733522
 30
0.0
 10
201.023112
 20
18.972382
 30
0.0
 10
200.923894
 20
19.167143
 30
0.0
  0
SPLINE
  5
40d
100
AcDbEntity
  8
Layer_1
 62
7
100
AcDbSpline
 70
8
 71
3
 72
8
 73
4
 74
0
 40
0
 40
0
 40
0
 40
0
 40
1
 40
1
 40
1
 40
1
 10
200.923894
 20
19.167143
 30
0.0
 10
200.828351
 20
19.361907
 30
0.0
 10
200.694222
 20
19.518085
 30
0.0
 10
200.521508
 20
19.635677
 30
0.0
  0
SPLINE
  5
40e
100
AcDbEntity
  8
Layer_1
 62
7
100
AcDbSpline
 70
8
 71
3
 72
8
 73
4
 74
0
 40
0
 40
0
 40
0
 40
0
 40
1
 40
1
 40
1
 40
1
 10
200.521508
 20
19.635677
 30
0.0
 10
200.330419
 20
19.775319
 30
0.0
 10
200.097071
 20
19.872700
 30
0.0
 10
199.821464
 20
19.927820
 30
0.0
  0
SPLINE
  5
40f
100
AcDbEntity
  8
Layer_1
 62
7
100
AcDbSpline
 70
8
 71
3
 72
8
 73
4
 74
0
 40
0
 40
0
 40
0
 40
0
 40
1
 40
1
 40
1
 40
1
 10
199.821464
 20
19.927820
 30
0.0
 10
199.549531
 20
19.986616
 30
0.0
 10
199.244525
 20
20.016014
 30
0.0
 10
198.906446
 20
20.016014
 30
0.0
  0
SPLINE
  5
410
100
AcDbEntity
  8
Layer_1
 62
7
100
AcDbSpline
 70
8
 71
3
 72
8
 73
4
 74
0
 40
0
 40
0
 40
0
 40
0
 40
1
 40
1
 40
1
 40
1
 10
198.906446
 20
20.016014
 30
0.0
 10
198.583066
 20
20.016014
 30
0.0
 10
198.270711
 20
19.993966
 30
0.0
 10
197.969381
 20
19.949870
 30
0.0
  0
SPLINE
  5
411
100
AcDbEntity
  8
Layer_1
 62
7
100
AcDbSpline
 70
8
 71
3
 72
8
 73
4
 74
0
 40
0
 40
0
 40
0
 40
0
 40
1
 40
1
 40
1
 40
1
 10
197.969381
 20
19.949870
 30
0.0
 10
197.671725
 20
19.905772
 30
0.0
 10
197.414490
 20
19.861674
 30
0.0
 10
197.197678
 20
19.817578
 30
0.0
  0
LINE
  5
412
100
AcDbEntity
  8
Layer_1
 62
7
100
AcDbLine
 10
197.197678
 20
19.817578
 30
0.0
 11
197.197678
 21
24.045399
 31
0.0
  0
LINE
  5
413
100
AcDbEntity
  8
Layer_1
 62
7
100
AcDbLine
 10
197.197678
 20
24.045399
 30
0.0
 11
202.136567
 21
24.045399
 31
0.0
  0
LINE
  5
414
100
AcDbEntity
  8
Layer_1
 62
7
100
AcDbLine
 10
202.136567
 20
24.045399
 30
0.0
 11
202.136567
 21
23.080772
 31
0.0
  0
LINE
  5
415
100
AcDbEntity
  8
Layer_1
 62
7
100
AcDbLine
 10
202.136567
 20
23.080772
 30
0.0
 11
198.261523
 21
23.080772
 31
0.0
  0
LINE
  5
416
100
AcDbEntity
  8
Layer_1
 62
7
100
AcDbLine
 10
198.261523
 20
23.080772
 30
0.0
 11
198.261523
 21
20.897960
 31
0.0
  0
SPLINE
  5
417
100
AcDbEntity
  8
Layer_1
 62
7
100
AcDbSpline
 70
8
 71
3
 72
8
 73
4
 74
0
 40
0
 40
0
 40
0
 40
0
 40
1
 40
1
 40
1
 40
1
 10
198.261523
 20
20.897960
 30
0.0
 10
198.419539
 20
20.912660
 30
0.0
 10
198.581229
 20
20.923684
 30
0.0
 10
198.746592
 20
20.931033
 30
0.0
  0
SPLINE
  5
418
100
AcDbEntity
  8
Layer_1
 62
7
100
AcDbSpline
 70
8
 71
3
 72
8
 73
4
 74
0
 40
0
 40
0
 40
0
 40
0
 40
1
 40
1
 40
1
 40
1
 10
198.746592
 20
20.931033
 30
0.0
 10
198.911958
 20
20.938382
 30
0.0
 10
199.055274
 20
20.942056
 30
0.0
 10
199.176541
 20
20.942056
 30
0.0
  0
SPLINE
  5
419
100
AcDbEntity
  8
Layer_1
 62
7
100
AcDbSpline
 70
8
 71
3
 72
8
 73
4
 74
0
 40
0
 40
0
 40
0
 40
0
 40
1
 40
1
 40
1
 40
1
 10
199.176541
 20
20.942056
 30
0.0
 10
199.621188
 20
20.942056
 30
0.0
 10
200.010714
 20
20.903471
 30
0.0
 10
200.345119
 20
20.826301
 30
0.0
  0
SPLINE
  5
41a
100
AcDbEntity
  8
Layer_1
 62
7
100
AcDbSpline
 70
8
 71
3
 72
8
 73
4
 74
0
 40
0
 40
0
 40
0
 40
0
 40
1
 40
1
 40
1
 40
1
 10
200.345119
 20
20.826301
 30
0.0
 10
200.679522
 20
20.752806
 30
0.0
 10
200.986365
 20
20.620514
 30
0.0
 10
201.265649
 20
20.429426
 30
0.0
  0
SPLINE
  5
41b
100
AcDbEntity
  8
Layer_1
 62
7
100
AcDbSpline
 70
8
 71
3
 72
8
 73
4
 74
0
 40
0
 40
0
 40
0
 40
0
 40
1
 40
1
 40
1
 40
1
 10
201.265649
 20
20.429426
 30
0.0
 10
201.559630
 20
20.227314
 30
0.0
 10
201.787465
 20
19.966405
 30
0.0
 10
201.949154
 20
19.646701
 30
0.0
  0
SPLINE
  5
41c
100
AcDbEntity
  8
Layer_1
 62
7
100
AcDbSpline
 70
8
 71
3
 72
8
 73
4
 74
0
 40
0
 40
0
 40
0
 40
0
 40
1
 40
1
 40
1
 40
1
 10
201.949154
 20
19.646701
 30
0.0
 10
202.110845
 20
19.326996
 30
0.0
 10
202.191690
 20
18.926446
 30
0.0
 10
202.191690
 20
18.445052
 30
0.0
  0
LINE
  5
41d
100
AcDbEntity
  8
Layer_1
 62
7
100
AcDbLine
 10
202.191690
 20
18.445052
 30
0.0
 11
202.191690
 21
18.445052
 31
0.0
  0
SPLINE
  5
41e
100
AcDbEntity
  8
Layer_1
 62
7
100
AcDbSpline
 70
8
 71
3
 72
8
 73
4
 74
0
 40
0
 40
0
 40
0
 40
0
 40
1
 40
1
 40
1
 40
1
 10
209.434658
 20
19.944358
 30
0.0
 10
209.434658
 20
18.470776
 30
0.0
 10
209.203148
 20
17.388556
 30
0.0
 10
208.740126
 20
16.697699
 30
0.0
  0
SPLINE
  5
41f
100
AcDbEntity
  8
Layer_1
 62
7
100
AcDbSpline
 70
8
 71
3
 72
8
 73
4
 74
0
 40
0
 40
0
 40
0
 40
0
 40
1
 40
1
 40
1
 40
1
 10
208.740126
 20
16.697699
 30
0.0
 10
208.280780
 20
16.010518
 30
0.0
 10
207.566037
 20
15.666927
 30
0.0
 10
206.595898
 20
15.666927
 30
0.0
  0
SPLINE
  5
420
100
AcDbEntity
  8
Layer_1
 62
7
100
AcDbSpline
 70
8
 71
3
 72
8
 73
4
 74
0
 40
0
 40
0
 40
0
 40
0
 40
1
 40
1
 40
1
 40
1
 10
206.595898
 20
15.666927
 30
0.0
 10
205.611061
 20
15.666927
 30
0.0
 10
204.890806
 20
16.016031
 30
0.0
 10
204.435134
 20
16.714237
 30
0.0
  0
SPLINE
  5
421
100
AcDbEntity
  8
Layer_1
 62
7
100
AcDbSpline
 70
8
 71
3
 72
8
 73
4
 74
0
 40
0
 40
0
 40
0
 40
0
 40
1
 40
1
 40
1
 40
1
 10
204.435134
 20
16.714237
 30
0.0
 10
203.983138
 20
17.412442
 30
0.0
 10
203.757140
 20
18.485474
 30
0.0
 10
203.757140
 20
19.933334
 30
0.0
  0
SPLINE
  5
422
100
AcDbEntity
  8
Layer_1
 62
7
100
AcDbSpline
 70
8
 71
3
 72
8
 73
4
 74
0
 40
0
 40
0
 40
0
 40
0
 40
1
 40
1
 40
1
 40
1
 10
203.757140
 20
19.933334
 30
0.0
 10
203.757140
 20
21.392217
 30
0.0
 10
203.986814
 20
22.468923
 30
0.0
 10
204.446160
 20
23.163455
 30
0.0
  0
SPLINE
  5
423
100
AcDbEntity
  8
Layer_1
 62
7
100
AcDbSpline
 70
8
 71
3
 72
8
 73
4
 74
0
 40
0
 40
0
 40
0
 40
0
 40
1
 40
1
 40
1
 40
1
 10
204.446160
 20
23.163455
 30
0.0
 10
204.905505
 20
23.861661
 30
0.0
 10
205.622084
 20
24.210764
 30
0.0
 10
206.595898
 20
24.210764
 30
0.0
  0
SPLINE
  5
424
100
AcDbEntity
  8
Layer_1
 62
7
100
AcDbSpline
 70
8
 71
3
 72
8
 73
4
 74
0
 40
0
 40
0
 40
0
 40
0
 40
1
 40
1
 40
1
 40
1
 10
206.595898
 20
24.210764
 30
0.0
 10
207.580737
 20
24.210764
 30
0.0
 10
208.299154
 20
23.856149
 30
0.0
 10
208.751150
 20
23.146918
 30
0.0
  0
SPLINE
  5
425
100
AcDbEntity
  8
Layer_1
 62
7
100
AcDbSpline
 70
8
 71
3
 72
8
 73
4
 74
0
 40
0
 40
0
 40
0
 40
0
 40
1
 40
1
 40
1
 40
1
 10
208.751150
 20
23.146918
 30
0.0
 10
209.206822
 20
22.441363
 30
0.0
 10
209.434658
 20
21.373843
 30
0.0
 10
209.434658
 20
19.944358
 30
0.0
  0
LINE
  5
426
100
AcDbEntity
  8
Layer_1
 62
7
100
AcDbLine
 10
209.434658
 20
19.944358
 30
0.0
 11
209.434658
 21
19.944358
 31
0.0
  0
SPLINE
  5
427
100
AcDbEntity
  8
Layer_1
 62
7
100
AcDbSpline
 70
8
 71
3
 72
8
 73
4
 74
0
 40
0
 40
0
 40
0
 40
0
 40
1
 40
1
 40
1
 40
1
 10
207.984962
 20
17.441840
 30
0.0
 10
208.113578
 20
17.739496
 30
0.0
 10
208.199935
 20
18.088599
 30
0.0
 10
208.244033
 20
18.489150
 30
0.0
  0
SPLINE
  5
428
100
AcDbEntity
  8
Layer_1
 62
7
100
AcDbSpline
 70
8
 71
3
 72
8
 73
4
 74
0
 40
0
 40
0
 40
0
 40
0
 40
1
 40
1
 40
1
 40
1
 10
208.244033
 20
18.489150
 30
0.0
 10
208.291804
 20
18.893375
 30
0.0
 10
208.315690
 20
19.378444
 30
0.0
 10
208.315690
 20
19.944358
 30
0.0
  0
SPLINE
  5
429
100
AcDbEntity
  8
Layer_1
 62
7
100
AcDbSpline
 70
8
 71
3
 72
8
 73
4
 74
0
 40
0
 40
0
 40
0
 40
0
 40
1
 40
1
 40
1
 40
1
 10
208.315690
 20
19.944358
 30
0.0
 10
208.315690
 20
20.502922
 30
0.0
 10
208.291804
 20
20.987992
 30
0.0
 10
208.244033
 20
21.399566
 30
0.0
  0
SPLINE
  5
42a
100
AcDbEntity
  8
Layer_1
 62
7
100
AcDbSpline
 70
8
 71
3
 72
8
 73
4
 74
0
 40
0
 40
0
 40
0
 40
0
 40
1
 40
1
 40
1
 40
1
 10
208.244033
 20
21.399566
 30
0.0
 10
208.199935
 20
21.811140
 30
0.0
 10
208.111741
 20
22.160243
 30
0.0
 10
207.979450
 20
22.446875
 30
0.0
  0
SPLINE
  5
42b
100
AcDbEntity
  8
Layer_1
 62
7
100
AcDbSpline
 70
8
 71
3
 72
8
 73
4
 74
0
 40
0
 40
0
 40
0
 40
0
 40
1
 40
1
 40
1
 40
1
 10
207.979450
 20
22.446875
 30
0.0
 10
207.850832
 20
22.729832
 30
0.0
 10
207.674443
 20
22.942969
 30
0.0
 10
207.450283
 20
23.086285
 30
0.0
  0
SPLINE
  5
42c
100
AcDbEntity
  8
Layer_1
 62
7
100
AcDbSpline
 70
8
 71
3
 72
8
 73
4
 74
0
 40
0
 40
0
 40
0
 40
0
 40
1
 40
1
 40
1
 40
1
 10
207.450283
 20
23.086285
 30
0.0
 10
207.229796
 20
23.229601
 30
0.0
 10
206.945001
 20
23.301259
 30
0.0
 10
206.595898
 20
23.301259
 30
0.0
  0
SPLINE
  5
42d
100
AcDbEntity
  8
Layer_1
 62
7
100
AcDbSpline
 70
8
 71
3
 72
8
 73
4
 74
0
 40
0
 40
0
 40
0
 40
0
 40
1
 40
1
 40
1
 40
1
 10
206.595898
 20
23.301259
 30
0.0
 10
206.250471
 20
23.301259
 30
0.0
 10
205.963840
 20
23.229601
 30
0.0
 10
205.736003
 20
23.086285
 30
0.0
  0
SPLINE
  5
42e
100
AcDbEntity
  8
Layer_1
 62
7
100
AcDbSpline
 70
8
 71
3
 72
8
 73
4
 74
0
 40
0
 40
0
 40
0
 40
0
 40
1
 40
1
 40
1
 40
1
 10
205.736003
 20
23.086285
 30
0.0
 10
205.511842
 20
22.942969
 30
0.0
 10
205.333616
 20
22.726157
 30
0.0
 10
205.201325
 20
22.435850
 30
0.0
  0
SPLINE
  5
42f
100
AcDbEntity
  8
Layer_1
 62
7
100
AcDbSpline
 70
8
 71
3
 72
8
 73
4
 74
0
 40
0
 40
0
 40
0
 40
0
 40
1
 40
1
 40
1
 40
1
 10
205.201325
 20
22.435850
 30
0.0
 10
205.076383
 20
22.163918
 30
0.0
 10
204.990026
 20
21.809302
 30
0.0
 10
204.942253
 20
21.372005
 30
0.0
  0
SPLINE
  5
430
100
AcDbEntity
  8
Layer_1
 62
7
100
AcDbSpline
 70
8
 71
3
 72
8
 73
4
 74
0
 40
0
 40
0
 40
0
 40
0
 40
1
 40
1
 40
1
 40
1
 10
204.942253
 20
21.372005
 30
0.0
 10
204.898155
 20
20.934707
 30
0.0
 10
204.876106
 20
20.455151
 30
0.0
 10
204.876106
 20
19.933334
 30
0.0
  0
SPLINE
  5
431
100
AcDbEntity
  8
Layer_1
 62
7
100
AcDbSpline
 70
8
 71
3
 72
8
 73
4
 74
0
 40
0
 40
0
 40
0
 40
0
 40
1
 40
1
 40
1
 40
1
 10
204.876106
 20
19.933334
 30
0.0
 10
204.876106
 20
19.360069
 30
0.0
 10
204.896318
 20
18.880512
 30
0.0
 10
204.936742
 20
18.494661
 30
0.0
  0
SPLINE
  5
432
100
AcDbEntity
  8
Layer_1
 62
7
100
AcDbSpline
 70
8
 71
3
 72
8
 73
4
 74
0
 40
0
 40
0
 40
0
 40
0
 40
1
 40
1
 40
1
 40
1
 10
204.936742
 20
18.494661
 30
0.0
 10
204.977163
 20
18.108811
 30
0.0
 10
205.063521
 20
17.763382
 30
0.0
 10
205.195813
 20
17.458375
 30
0.0
  0
SPLINE
  5
433
100
AcDbEntity
  8
Layer_1
 62
7
100
AcDbSpline
 70
8
 71
3
 72
8
 73
4
 74
0
 40
0
 40
0
 40
0
 40
0
 40
1
 40
1
 40
1
 40
1
 10
205.195813
 20
17.458375
 30
0.0
 10
205.317080
 20
17.171745
 30
0.0
 10
205.487956
 20
16.953097
 30
0.0
 10
205.708442
 20
16.802432
 30
0.0
  0
SPLINE
  5
434
100
AcDbEntity
  8
Layer_1
 62
7
100
AcDbSpline
 70
8
 71
3
 72
8
 73
4
 74
0
 40
0
 40
0
 40
0
 40
0
 40
1
 40
1
 40
1
 40
1
 10
205.708442
 20
16.802432
 30
0.0
 10
205.932603
 20
16.651764
 30
0.0
 10
206.228422
 20
16.576431
 30
0.0
 10
206.595898
 20
16.576431
 30
0.0
  0
SPLINE
  5
435
100
AcDbEntity
  8
Layer_1
 62
7
100
AcDbSpline
 70
8
 71
3
 72
8
 73
4
 74
0
 40
0
 40
0
 40
0
 40
0
 40
1
 40
1
 40
1
 40
1
 10
206.595898
 20
16.576431
 30
0.0
 10
206.941327
 20
16.576431
 30
0.0
 10
207.227959
 20
16.648089
 30
0.0
 10
207.455795
 20
16.791405
 30
0.0
  0
SPLINE
  5
436
100
AcDbEntity
  8
Layer_1
 62
7
100
AcDbSpline
 70
8
 71
3
 72
8
 73
4
 74
0
 40
0
 40
0
 40
0
 40
0
 40
1
 40
1
 40
1
 40
1
 10
207.455795
 20
16.791405
 30
0.0
 10
207.683631
 20
16.934721
 30
0.0
 10
207.860020
 20
17.151533
 30
0.0
 10
207.984962
 20
17.441840
 30
0.0
  0
LINE
  5
437
100
AcDbEntity
  8
Layer_1
 62
7
100
AcDbLine
 10
207.984962
 20
17.441840
 30
0.0
 11
207.984962
 21
17.441840
 31
0.0
  0
SPLINE
  5
438
100
AcDbEntity
  8
Layer_1
 62
7
100
AcDbSpline
 70
8
 71
3
 72
8
 73
4
 74
0
 40
0
 40
0
 40
0
 40
0
 40
1
 40
1
 40
1
 40
1
 10
216.622506
 20
19.944358
 30
0.0
 10
216.622506
 20
18.470776
 30
0.0
 10
216.390995
 20
17.388556
 30
0.0
 10
215.927974
 20
16.697699
 30
0.0
  0
SPLINE
  5
439
100
AcDbEntity
  8
Layer_1
 62
7
100
AcDbSpline
 70
8
 71
3
 72
8
 73
4
 74
0
 40
0
 40
0
 40
0
 40
0
 40
1
 40
1
 40
1
 40
1
 10
215.927974
 20
16.697699
 30
0.0
 10
215.468627
 20
16.010518
 30
0.0
 10
214.753884
 20
15.666927
 30
0.0
 10
213.783745
 20
15.666927
 30
0.0
  0
SPLINE
  5
43a
100
AcDbEntity
  8
Layer_1
 62
7
100
AcDbSpline
 70
8
 71
3
 72
8
 73
4
 74
0
 40
0
 40
0
 40
0
 40
0
 40
1
 40
1
 40
1
 40
1
 10
213.783745
 20
15.666927
 30
0.0
 10
212.798908
 20
15.666927
 30
0.0
 10
212.078653
 20
16.016031
 30
0.0
 10
211.622981
 20
16.714237
 30
0.0
  0
SPLINE
  5
43b
100
AcDbEntity
  8
Layer_1
 62
7
100
AcDbSpline
 70
8
 71
3
 72
8
 73
4
 74
0
 40
0
 40
0
 40
0
 40
0
 40
1
 40
1
 40
1
 40
1
 10
211.622981
 20
16.714237
 30
0.0
 10
211.170985
 20
17.412442
 30
0.0
 10
210.944987
 20
18.485474
 30
0.0
 10
210.944987
 20
19.933334
 30
0.0
  0
SPLINE
  5
43c
100
AcDbEntity
  8
Layer_1
 62
7
100
AcDbSpline
 70
8
 71
3
 72
8
 73
4
 74
0
 40
0
 40
0
 40
0
 40
0
 40
1
 40
1
 40
1
 40
1
 10
210.944987
 20
19.933334
 30
0.0
 10
210.944987
 20
21.392217
 30
0.0
 10
211.174661
 20
22.468923
 30
0.0
 10
211.634008
 20
23.163455
 30
0.0
  0
SPLINE
  5
43d
100
AcDbEntity
  8
Layer_1
 62
7
100
AcDbSpline
 70
8
 71
3
 72
8
 73
4
 74
0
 40
0
 40
0
 40
0
 40
0
 40
1
 40
1
 40
1
 40
1
 10
211.634008
 20
23.163455
 30
0.0
 10
212.093353
 20
23.861661
 30
0.0
 10
212.809932
 20
24.210764
 30
0.0
 10
213.783745
 20
24.210764
 30
0.0
  0
SPLINE
  5
43e
100
AcDbEntity
  8
Layer_1
 62
7
100
AcDbSpline
 70
8
 71
3
 72
8
 73
4
 74
0
 40
0
 40
0
 40
0
 40
0
 40
1
 40
1
 40
1
 40
1
 10
213.783745
 20
24.210764
 30
0.0
 10
214.768584
 20
24.210764
 30
0.0
 10
215.487001
 20
23.856149
 30
0.0
 10
215.938997
 20
23.146918
 30
0.0
  0
SPLINE
  5
43f
100
AcDbEntity
  8
Layer_1
 62
7
100
AcDbSpline
 70
8
 71
3
 72
8
 73
4
 74
0
 40
0
 40
0
 40
0
 40
0
 40
1
 40
1
 40
1
 40
1
 10
215.938997
 20
23.146918
 30
0.0
 10
216.394669
 20
22.441363
 30
0.0
 10
216.622506
 20
21.373843
 30
0.0
 10
216.622506
 20
19.944358
 30
0.0
  0
LINE
  5
440
100
AcDbEntity
  8
Layer_1
 62
7
100
AcDbLine
 10
216.622506
 20
19.944358
 30
0.0
 11
216.622506
 21
19.944358
 31
0.0
  0
SPLINE
  5
441
100
AcDbEntity
  8
Layer_1
 62
7
100
AcDbSpline
 70
8
 71
3
 72
8
 73
4
 74
0
 40
0
 40
0
 40
0
 40
0
 40
1
 40
1
 40
1
 40
1
 10
215.172809
 20
17.441840
 30
0.0
 10
215.301425
 20
17.739496
 30
0.0
 10
215.387782
 20
18.088599
 30
0.0
 10
215.431881
 20
18.489150
 30
0.0
  0
SPLINE
  5
442
100
AcDbEntity
  8
Layer_1
 62
7
100
AcDbSpline
 70
8
 71
3
 72
8
 73
4
 74
0
 40
0
 40
0
 40
0
 40
0
 40
1
 40
1
 40
1
 40
1
 10
215.431881
 20
18.489150
 30
0.0
 10
215.479651
 20
18.893375
 30
0.0
 10
215.503537
 20
19.378444
 30
0.0
 10
215.503537
 20
19.944358
 30
0.0
  0
SPLINE
  5
443
100
AcDbEntity
  8
Layer_1
 62
7
100
AcDbSpline
 70
8
 71
3
 72
8
 73
4
 74
0
 40
0
 40
0
 40
0
 40
0
 40
1
 40
1
 40
1
 40
1
 10
215.503537
 20
19.944358
 30
0.0
 10
215.503537
 20
20.502922
 30
0.0
 10
215.479651
 20
20.987992
 30
0.0
 10
215.431881
 20
21.399566
 30
0.0
  0
SPLINE
  5
444
100
AcDbEntity
  8
Layer_1
 62
7
100
AcDbSpline
 70
8
 71
3
 72
8
 73
4
 74
0
 40
0
 40
0
 40
0
 40
0
 40
1
 40
1
 40
1
 40
1
 10
215.431881
 20
21.399566
 30
0.0
 10
215.387782
 20
21.811140
 30
0.0
 10
215.299588
 20
22.160243
 30
0.0
 10
215.167297
 20
22.446875
 30
0.0
  0
SPLINE
  5
445
100
AcDbEntity
  8
Layer_1
 62
7
100
AcDbSpline
 70
8
 71
3
 72
8
 73
4
 74
0
 40
0
 40
0
 40
0
 40
0
 40
1
 40
1
 40
1
 40
1
 10
215.167297
 20
22.446875
 30
0.0
 10
215.038679
 20
22.729832
 30
0.0
 10
214.862290
 20
22.942969
 30
0.0
 10
214.638131
 20
23.086285
 30
0.0
  0
SPLINE
  5
446
100
AcDbEntity
  8
Layer_1
 62
7
100
AcDbSpline
 70
8
 71
3
 72
8
 73
4
 74
0
 40
0
 40
0
 40
0
 40
0
 40
1
 40
1
 40
1
 40
1
 10
214.638131
 20
23.086285
 30
0.0
 10
214.417643
 20
23.229601
 30
0.0
 10
214.132848
 20
23.301259
 30
0.0
 10
213.783745
 20
23.301259
 30
0.0
  0
SPLINE
  5
447
100
AcDbEntity
  8
Layer_1
 62
7
100
AcDbSpline
 70
8
 71
3
 72
8
 73
4
 74
0
 40
0
 40
0
 40
0
 40
0
 40
1
 40
1
 40
1
 40
1
 10
213.783745
 20
23.301259
 30
0.0
 10
213.438318
 20
23.301259
 30
0.0
 10
213.151687
 20
23.229601
 30
0.0
 10
212.923851
 20
23.086285
 30
0.0
  0
SPLINE
  5
448
100
AcDbEntity
  8
Layer_1
 62
7
100
AcDbSpline
 70
8
 71
3
 72
8
 73
4
 74
0
 40
0
 40
0
 40
0
 40
0
 40
1
 40
1
 40
1
 40
1
 10
212.923851
 20
23.086285
 30
0.0
 10
212.699689
 20
22.942969
 30
0.0
 10
212.521463
 20
22.726157
 30
0.0
 10
212.389172
 20
22.435850
 30
0.0
  0
SPLINE
  5
449
100
AcDbEntity
  8
Layer_1
 62
7
100
AcDbSpline
 70
8
 71
3
 72
8
 73
4
 74
0
 40
0
 40
0
 40
0
 40
0
 40
1
 40
1
 40
1
 40
1
 10
212.389172
 20
22.435850
 30
0.0
 10
212.264231
 20
22.163918
 30
0.0
 10
212.177873
 20
21.809302
 30
0.0
 10
212.130101
 20
21.372005
 30
0.0
  0
SPLINE
  5
44a
100
AcDbEntity
  8
Layer_1
 62
7
100
AcDbSpline
 70
8
 71
3
 72
8
 73
4
 74
0
 40
0
 40
0
 40
0
 40
0
 40
1
 40
1
 40
1
 40
1
 10
212.130101
 20
21.372005
 30
0.0
 10
212.086003
 20
20.934707
 30
0.0
 10
212.063953
 20
20.455151
 30
0.0
 10
212.063953
 20
19.933334
 30
0.0
  0
SPLINE
  5
44b
100
AcDbEntity
  8
Layer_1
 62
7
100
AcDbSpline
 70
8
 71
3
 72
8
 73
4
 74
0
 40
0
 40
0
 40
0
 40
0
 40
1
 40
1
 40
1
 40
1
 10
212.063953
 20
19.933334
 30
0.0
 10
212.063953
 20
19.360069
 30
0.0
 10
212.084165
 20
18.880512
 30
0.0
 10
212.124589
 20
18.494661
 30
0.0
  0
SPLINE
  5
44c
100
AcDbEntity
  8
Layer_1
 62
7
100
AcDbSpline
 70
8
 71
3
 72
8
 73
4
 74
0
 40
0
 40
0
 40
0
 40
0
 40
1
 40
1
 40
1
 40
1
 10
212.124589
 20
18.494661
 30
0.0
 10
212.165011
 20
18.108811
 30
0.0
 10
212.251368
 20
17.763382
 30
0.0
 10
212.383660
 20
17.458375
 30
0.0
  0
SPLINE
  5
44d
100
AcDbEntity
  8
Layer_1
 62
7
100
AcDbSpline
 70
8
 71
3
 72
8
 73
4
 74
0
 40
0
 40
0
 40
0
 40
0
 40
1
 40
1
 40
1
 40
1
 10
212.383660
 20
17.458375
 30
0.0
 10
212.504928
 20
17.171745
 30
0.0
 10
212.675804
 20
16.953097
 30
0.0
 10
212.896289
 20
16.802432
 30
0.0
  0
SPLINE
  5
44e
100
AcDbEntity
  8
Layer_1
 62
7
100
AcDbSpline
 70
8
 71
3
 72
8
 73
4
 74
0
 40
0
 40
0
 40
0
 40
0
 40
1
 40
1
 40
1
 40
1
 10
212.896289
 20
16.802432
 30
0.0
 10
213.120450
 20
16.651764
 30
0.0
 10
213.416269
 20
16.576431
 30
0.0
 10
213.783745
 20
16.576431
 30
0.0
  0
SPLINE
  5
44f
100
AcDbEntity
  8
Layer_1
 62
7
100
AcDbSpline
 70
8
 71
3
 72
8
 73
4
 74
0
 40
0
 40
0
 40
0
 40
0
 40
1
 40
1
 40
1
 40
1
 10
213.783745
 20
16.576431
 30
0.0
 10
214.129174
 20
16.576431
 30
0.0
 10
214.415806
 20
16.648089
 30
0.0
 10
214.643642
 20
16.791405
 30
0.0
  0
SPLINE
  5
450
100
AcDbEntity
  8
Layer_1
 62
7
100
AcDbSpline
 70
8
 71
3
 72
8
 73
4
 74
0
 40
0
 40
0
 40
0
 40
0
 40
1
 40
1
 40
1
 40
1
 10
214.643642
 20
16.791405
 30
0.0
 10
214.871478
 20
16.934721
 30
0.0
 10
215.047867
 20
17.151533
 30
0.0
 10
215.172809
 20
17.441840
 30
0.0
  0
LINE
  5
451
100
AcDbEntity
  8
Layer_1
 62
7
100
AcDbLine
 10
215.172809
 20
17.441840
 30
0.0
 11
215.172809
 21
17.441840
 31
0.0
  0
LINE
  5
452
100
AcDbEntity
  8
Layer_1
 62
7
100
AcDbLine
 10
227.382228
 20
15.837804
 30
0.0
 11
226.345942
 21
15.837804
 31
0.0
  0
LINE
  5
453
100
AcDbEntity
  8
Layer_1
 62
7
100
AcDbLine
 10
226.345942
 20
15.837804
 30
0.0
 11
226.345942
 21
19.343532
 31
0.0
  0
SPLINE
  5
454
100
AcDbEntity
  8
Layer_1
 62
7
100
AcDbSpline
 70
8
 71
3
 72
8
 73
4
 74
0
 40
0
 40
0
 40
0
 40
0
 40
1
 40
1
 40
1
 40
1
 10
226.345942
 20
19.343532
 30
0.0
 10
226.345942
 20
19.608116
 30
0.0
 10
226.333080
 20
19.863512
 30
0.0
 10
226.307356
 20
20.109722
 30
0.0
  0
SPLINE
  5
455
100
AcDbEntity
  8
Layer_1
 62
7
100
AcDbSpline
 70
8
 71
3
 72
8
 73
4
 74
0
 40
0
 40
0
 40
0
 40
0
 40
1
 40
1
 40
1
 40
1
 10
226.307356
 20
20.109722
 30
0.0
 10
226.285309
 20
20.355932
 30
0.0
 10
226.235700
 20
20.552532
 30
0.0
 10
226.158529
 20
20.699522
 30
0.0
  0
SPLINE
  5
456
100
AcDbEntity
  8
Layer_1
 62
7
100
AcDbSpline
 70
8
 71
3
 72
8
 73
4
 74
0
 40
0
 40
0
 40
0
 40
0
 40
1
 40
1
 40
1
 40
1
 10
226.158529
 20
20.699522
 30
0.0
 10
226.074009
 20
20.857537
 30
0.0
 10
225.952742
 20
20.976967
 30
0.0
 10
225.794728
 20
21.057812
 30
0.0
  0
SPLINE
  5
457
100
AcDbEntity
  8
Layer_1
 62
7
100
AcDbSpline
 70
8
 71
3
 72
8
 73
4
 74
0
 40
0
 40
0
 40
0
 40
0
 40
1
 40
1
 40
1
 40
1
 10
225.794728
 20
21.057812
 30
0.0
 10
225.636712
 20
21.138657
 30
0.0
 10
225.408875
 20
21.179080
 30
0.0
 10
225.111219
 20
21.179080
 30
0.0
  0
SPLINE
  5
458
100
AcDbEntity
  8
Layer_1
 62
7
100
AcDbSpline
 70
8
 71
3
 72
8
 73
4
 74
0
 40
0
 40
0
 40
0
 40
0
 40
1
 40
1
 40
1
 40
1
 10
225.111219
 20
21.179080
 30
0.0
 10
224.820912
 20
21.179080
 30
0.0
 10
224.530606
 20
21.105584
 30
0.0
 10
224.240301
 20
20.958593
 30
0.0
  0
SPLINE
  5
459
100
AcDbEntity
  8
Layer_1
 62
7
100
AcDbSpline
 70
8
 71
3
 72
8
 73
4
 74
0
 40
0
 40
0
 40
0
 40
0
 40
1
 40
1
 40
1
 40
1
 10
224.240301
 20
20.958593
 30
0.0
 10
223.949994
 20
20.815278
 30
0.0
 10
223.659687
 20
20.631539
 30
0.0
 10
223.369381
 20
20.407378
 30
0.0
  0
SPLINE
  5
45a
100
AcDbEntity
  8
Layer_1
 62
7
100
AcDbSpline
 70
8
 71
3
 72
8
 73
4
 74
0
 40
0
 40
0
 40
0
 40
0
 40
1
 40
1
 40
1
 40
1
 10
223.369381
 20
20.407378
 30
0.0
 10
223.380406
 20
20.322859
 30
0.0
 10
223.389597
 20
20.223640
 30
0.0
 10
223.396954
 20
20.109722
 30
0.0
  0
SPLINE
  5
45b
100
AcDbEntity
  8
Layer_1
 62
7
100
AcDbSpline
 70
8
 71
3
 72
8
 73
4
 74
0
 40
0
 40
0
 40
0
 40
0
 40
1
 40
1
 40
1
 40
1
 10
223.396954
 20
20.109722
 30
0.0
 10
223.404310
 20
19.999479
 30
0.0
 10
223.407989
 20
19.889236
 30
0.0
 10
223.407989
 20
19.778993
 30
0.0
  0
LINE
  5
45c
100
AcDbEntity
  8
Layer_1
 62
7
100
AcDbLine
 10
223.407989
 20
19.778993
 30
0.0
 11
223.407989
 21
15.837804
 31
0.0
  0
LINE
  5
45d
100
AcDbEntity
  8
Layer_1
 62
7
100
AcDbLine
 10
223.407989
 20
15.837804
 30
0.0
 11
222.371702
 21
15.837804
 31
0.0
  0
LINE
  5
45e
100
AcDbEntity
  8
Layer_1
 62
7
100
AcDbLine
 10
222.371702
 20
15.837804
 30
0.0
 11
222.371702
 21
19.343532
 31
0.0
  0
SPLINE
  5
45f
100
AcDbEntity
  8
Layer_1
 62
7
100
AcDbSpline
 70
8
 71
3
 72
8
 73
4
 74
0
 40
0
 40
0
 40
0
 40
0
 40
1
 40
1
 40
1
 40
1
 10
222.371702
 20
19.343532
 30
0.0
 10
222.371702
 20
19.615465
 30
0.0
 10
222.358841
 20
19.872699
 30
0.0
 10
222.333117
 20
20.115234
 30
0.0
  0
SPLINE
  5
460
100
AcDbEntity
  8
Layer_1
 62
7
100
AcDbSpline
 70
8
 71
3
 72
8
 73
4
 74
0
 40
0
 40
0
 40
0
 40
0
 40
1
 40
1
 40
1
 40
1
 10
222.333117
 20
20.115234
 30
0.0
 10
222.311070
 20
20.361444
 30
0.0
 10
222.261461
 20
20.558044
 30
0.0
 10
222.184290
 20
20.705035
 30
0.0
  0
SPLINE
  5
461
100
AcDbEntity
  8
Layer_1
 62
7
100
AcDbSpline
 70
8
 71
3
 72
8
 73
4
 74
0
 40
0
 40
0
 40
0
 40
0
 40
1
 40
1
 40
1
 40
1
 10
222.184290
 20
20.705035
 30
0.0
 10
222.099770
 20
20.863050
 30
0.0
 10
221.978503
 20
20.980642
 30
0.0
 10
221.820489
 20
21.057812
 30
0.0
  0
SPLINE
  5
462
100
AcDbEntity
  8
Layer_1
 62
7
100
AcDbSpline
 70
8
 71
3
 72
8
 73
4
 74
0
 40
0
 40
0
 40
0
 40
0
 40
1
 40
1
 40
1
 40
1
 10
221.820489
 20
21.057812
 30
0.0
 10
221.662472
 20
21.138657
 30
0.0
 10
221.434636
 20
21.179080
 30
0.0
 10
221.136980
 20
21.179080
 30
0.0
  0
SPLINE
  5
463
100
AcDbEntity
  8
Layer_1
 62
7
100
AcDbSpline
 70
8
 71
3
 72
8
 73
4
 74
0
 40
0
 40
0
 40
0
 40
0
 40
1
 40
1
 40
1
 40
1
 10
221.136980
 20
21.179080
 30
0.0
 10
220.854024
 20
21.179080
 30
0.0
 10
220.569230
 20
21.109259
 30
0.0
 10
220.282598
 20
20.969618
 30
0.0
  0
SPLINE
  5
464
100
AcDbEntity
  8
Layer_1
 62
7
100
AcDbSpline
 70
8
 71
3
 72
8
 73
4
 74
0
 40
0
 40
0
 40
0
 40
0
 40
1
 40
1
 40
1
 40
1
 10
220.282598
 20
20.969618
 30
0.0
 10
219.999640
 20
20.829977
 30
0.0
 10
219.716683
 20
20.651750
 30
0.0
 10
219.433727
 20
20.434939
 30
0.0
  0
LINE
  5
465
100
AcDbEntity
  8
Layer_1
 62
7
100
AcDbLine
 10
219.433727
 20
20.434939
 30
0.0
 11
219.433727
 21
15.837804
 31
0.0
  0
LINE
  5
466
100
AcDbEntity
  8
Layer_1
 62
7
100
AcDbLine
 10
219.433727
 20
15.837804
 30
0.0
 11
218.397441
 21
15.837804
 31
0.0
  0
LINE
  5
467
100
AcDbEntity
  8
Layer_1
 62
7
100
AcDbLine
 10
218.397441
 20
15.837804
 30
0.0
 11
218.397441
 21
21.994878
 31
0.0
  0
LINE
  5
468
100
AcDbEntity
  8
Layer_1
 62
7
100
AcDbLine
 10
218.397441
 20
21.994878
 30
0.0
 11
219.433727
 21
21.994878
 31
0.0
  0
LINE
  5
469
100
AcDbEntity
  8
Layer_1
 62
7
100
AcDbLine
 10
219.433727
 20
21.994878
 30
0.0
 11
219.433727
 21
21.311371
 31
0.0
  0
SPLINE
  5
46a
100
AcDbEntity
  8
Layer_1
 62
7
100
AcDbSpline
 70
8
 71
3
 72
8
 73
4
 74
0
 40
0
 40
0
 40
0
 40
0
 40
1
 40
1
 40
1
 40
1
 10
219.433727
 20
21.311371
 30
0.0
 10
219.757106
 20
21.579629
 30
0.0
 10
220.078648
 20
21.789091
 30
0.0
 10
220.398351
 20
21.939757
 30
0.0
  0
SPLINE
  5
46b
100
AcDbEntity
  8
Layer_1
 62
7
100
AcDbSpline
 70
8
 71
3
 72
8
 73
4
 74
0
 40
0
 40
0
 40
0
 40
0
 40
1
 40
1
 40
1
 40
1
 10
220.398351
 20
21.939757
 30
0.0
 10
220.721731
 20
22.090422
 30
0.0
 10
221.065322
 20
22.165755
 30
0.0
 10
221.429125
 20
22.165755
 30
0.0
  0
SPLINE
  5
46c
100
AcDbEntity
  8
Layer_1
 62
7
100
AcDbSpline
 70
8
 71
3
 72
8
 73
4
 74
0
 40
0
 40
0
 40
0
 40
0
 40
1
 40
1
 40
1
 40
1
 10
221.429125
 20
22.165755
 30
0.0
 10
221.848048
 20
22.165755
 30
0.0
 10
222.202664
 20
22.077561
 30
0.0
 10
222.492970
 20
21.901172
 30
0.0
  0
SPLINE
  5
46d
100
AcDbEntity
  8
Layer_1
 62
7
100
AcDbSpline
 70
8
 71
3
 72
8
 73
4
 74
0
 40
0
 40
0
 40
0
 40
0
 40
1
 40
1
 40
1
 40
1
 10
222.492970
 20
21.901172
 30
0.0
 10
222.786952
 20
21.724783
 30
0.0
 10
223.005601
 20
21.480411
 30
0.0
 10
223.148917
 20
21.168055
 30
0.0
  0
SPLINE
  5
46e
100
AcDbEntity
  8
Layer_1
 62
7
100
AcDbSpline
 70
8
 71
3
 72
8
 73
4
 74
0
 40
0
 40
0
 40
0
 40
0
 40
1
 40
1
 40
1
 40
1
 10
223.148917
 20
21.168055
 30
0.0
 10
223.567840
 20
21.520833
 30
0.0
 10
223.950016
 20
21.774392
 30
0.0
 10
224.295445
 20
21.928732
 30
0.0
  0
SPLINE
  5
46f
100
AcDbEntity
  8
Layer_1
 62
7
100
AcDbSpline
 70
8
 71
3
 72
8
 73
4
 74
0
 40
0
 40
0
 40
0
 40
0
 40
1
 40
1
 40
1
 40
1
 10
224.295445
 20
21.928732
 30
0.0
 10
224.640873
 20
22.086747
 30
0.0
 10
225.010188
 20
22.165755
 30
0.0
 10
225.403387
 20
22.165755
 30
0.0
  0
SPLINE
  5
470
100
AcDbEntity
  8
Layer_1
 62
7
100
AcDbSpline
 70
8
 71
3
 72
8
 73
4
 74
0
 40
0
 40
0
 40
0
 40
0
 40
1
 40
1
 40
1
 40
1
 10
225.403387
 20
22.165755
 30
0.0
 10
226.079545
 20
22.165755
 30
0.0
 10
226.577476
 20
21.959968
 30
0.0
 10
226.897181
 20
21.548394
 30
0.0
  0
SPLINE
  5
471
100
AcDbEntity
  8
Layer_1
 62
7
100
AcDbSpline
 70
8
 71
3
 72
8
 73
4
 74
0
 40
0
 40
0
 40
0
 40
0
 40
1
 40
1
 40
1
 40
1
 10
226.897181
 20
21.548394
 30
0.0
 10
227.220561
 20
21.140494
 30
0.0
 10
227.382250
 20
20.569068
 30
0.0
 10
227.382250
 20
19.834113
 30
0.0
  0
LINE
  5
472
100
AcDbEntity
  8
Layer_1
 62
7
100
AcDbLine
 10
227.382250
 20
19.834113
 30
0.0
 11
227.382250
 21
15.837804
 31
0.0
  0
LINE
  5
473
100
AcDbEntity
  8
Layer_1
 62
7
100
AcDbLine
 10
227.382250
 20
15.837804
 30
0.0
 11
227.382228
 21
15.837804
 31
0.0
  0
LINE
  5
474
100
AcDbEntity
  8
Layer_1
 62
7
100
AcDbLine
 10
238.362436
 20
15.837804
 30
0.0
 11
237.326150
 21
15.837804
 31
0.0
  0
LINE
  5
475
100
AcDbEntity
  8
Layer_1
 62
7
100
AcDbLine
 10
237.326150
 20
15.837804
 30
0.0
 11
237.326150
 21
19.343532
 31
0.0
  0
SPLINE
  5
476
100
AcDbEntity
  8
Layer_1
 62
7
100
AcDbSpline
 70
8
 71
3
 72
8
 73
4
 74
0
 40
0
 40
0
 40
0
 40
0
 40
1
 40
1
 40
1
 40
1
 10
237.326150
 20
19.343532
 30
0.0
 10
237.326150
 20
19.608116
 30
0.0
 10
237.313288
 20
19.863512
 30
0.0
 10
237.287565
 20
20.109722
 30
0.0
  0
SPLINE
  5
477
100
AcDbEntity
  8
Layer_1
 62
7
100
AcDbSpline
 70
8
 71
3
 72
8
 73
4
 74
0
 40
0
 40
0
 40
0
 40
0
 40
1
 40
1
 40
1
 40
1
 10
237.287565
 20
20.109722
 30
0.0
 10
237.265517
 20
20.355932
 30
0.0
 10
237.215908
 20
20.552532
 30
0.0
 10
237.138737
 20
20.699522
 30
0.0
  0
SPLINE
  5
478
100
AcDbEntity
  8
Layer_1
 62
7
100
AcDbSpline
 70
8
 71
3
 72
8
 73
4
 74
0
 40
0
 40
0
 40
0
 40
0
 40
1
 40
1
 40
1
 40
1
 10
237.138737
 20
20.699522
 30
0.0
 10
237.054218
 20
20.857537
 30
0.0
 10
236.932950
 20
20.976967
 30
0.0
 10
236.774936
 20
21.057812
 30
0.0
  0
SPLINE
  5
479
100
AcDbEntity
  8
Layer_1
 62
7
100
AcDbSpline
 70
8
 71
3
 72
8
 73
4
 74
0
 40
0
 40
0
 40
0
 40
0
 40
1
 40
1
 40
1
 40
1
 10
236.774936
 20
21.057812
 30
0.0
 10
236.616920
 20
21.138657
 30
0.0
 10
236.389084
 20
21.179080
 30
0.0
 10
236.091428
 20
21.179080
 30
0.0
  0
SPLINE
  5
47a
100
AcDbEntity
  8
Layer_1
 62
7
100
AcDbSpline
 70
8
 71
3
 72
8
 73
4
 74
0
 40
0
 40
0
 40
0
 40
0
 40
1
 40
1
 40
1
 40
1
 10
236.091428
 20
21.179080
 30
0.0
 10
235.801121
 20
21.179080
 30
0.0
 10
235.510815
 20
21.105584
 30
0.0
 10
235.220510
 20
20.958593
 30
0.0
  0
SPLINE
  5
47b
100
AcDbEntity
  8
Layer_1
 62
7
100
AcDbSpline
 70
8
 71
3
 72
8
 73
4
 74
0
 40
0
 40
0
 40
0
 40
0
 40
1
 40
1
 40
1
 40
1
 10
235.220510
 20
20.958593
 30
0.0
 10
234.930203
 20
20.815278
 30
0.0
 10
234.639896
 20
20.631539
 30
0.0
 10
234.349589
 20
20.407378
 30
0.0
  0
SPLINE
  5
47c
100
AcDbEntity
  8
Layer_1
 62
7
100
AcDbSpline
 70
8
 71
3
 72
8
 73
4
 74
0
 40
0
 40
0
 40
0
 40
0
 40
1
 40
1
 40
1
 40
1
 10
234.349589
 20
20.407378
 30
0.0
 10
234.360614
 20
20.322859
 30
0.0
 10
234.369805
 20
20.223640
 30
0.0
 10
234.377162
 20
20.109722
 30
0.0
  0
SPLINE
  5
47d
100
AcDbEntity
  8
Layer_1
 62
7
100
AcDbSpline
 70
8
 71
3
 72
8
 73
4
 74
0
 40
0
 40
0
 40
0
 40
0
 40
1
 40
1
 40
1
 40
1
 10
234.377162
 20
20.109722
 30
0.0
 10
234.384519
 20
19.999479
 30
0.0
 10
234.388197
 20
19.889236
 30
0.0
 10
234.388197
 20
19.778993
 30
0.0
  0
LINE
  5
47e
100
AcDbEntity
  8
Layer_1
 62
7
100
AcDbLine
 10
234.388197
 20
19.778993
 30
0.0
 11
234.388197
 21
15.837804
 31
0.0
  0
LINE
  5
47f
100
AcDbEntity
  8
Layer_1
 62
7
100
AcDbLine
 10
234.388197
 20
15.837804
 30
0.0
 11
233.351911
 21
15.837804
 31
0.0
  0
LINE
  5
480
100
AcDbEntity
  8
Layer_1
 62
7
100
AcDbLine
 10
233.351911
 20
15.837804
 30
0.0
 11
233.351911
 21
19.343532
 31
0.0
  0
SPLINE
  5
481
100
AcDbEntity
  8
Layer_1
 62
7
100
AcDbSpline
 70
8
 71
3
 72
8
 73
4
 74
0
 40
0
 40
0
 40
0
 40
0
 40
1
 40
1
 40
1
 40
1
 10
233.351911
 20
19.343532
 30
0.0
 10
233.351911
 20
19.615465
 30
0.0
 10
233.339049
 20
19.872699
 30
0.0
 10
233.313325
 20
20.115234
 30
0.0
  0
SPLINE
  5
482
100
AcDbEntity
  8
Layer_1
 62
7
100
AcDbSpline
 70
8
 71
3
 72
8
 73
4
 74
0
 40
0
 40
0
 40
0
 40
0
 40
1
 40
1
 40
1
 40
1
 10
233.313325
 20
20.115234
 30
0.0
 10
233.291278
 20
20.361444
 30
0.0
 10
233.241669
 20
20.558044
 30
0.0
 10
233.164498
 20
20.705035
 30
0.0
  0
SPLINE
  5
483
100
AcDbEntity
  8
Layer_1
 62
7
100
AcDbSpline
 70
8
 71
3
 72
8
 73
4
 74
0
 40
0
 40
0
 40
0
 40
0
 40
1
 40
1
 40
1
 40
1
 10
233.164498
 20
20.705035
 30
0.0
 10
233.079978
 20
20.863050
 30
0.0
 10
232.958711
 20
20.980642
 30
0.0
 10
232.800697
 20
21.057812
 30
0.0
  0
SPLINE
  5
484
100
AcDbEntity
  8
Layer_1
 62
7
100
AcDbSpline
 70
8
 71
3
 72
8
 73
4
 74
0
 40
0
 40
0
 40
0
 40
0
 40
1
 40
1
 40
1
 40
1
 10
232.800697
 20
21.057812
 30
0.0
 10
232.642681
 20
21.138657
 30
0.0
 10
232.414845
 20
21.179080
 30
0.0
 10
232.117189
 20
21.179080
 30
0.0
  0
SPLINE
  5
485
100
AcDbEntity
  8
Layer_1
 62
7
100
AcDbSpline
 70
8
 71
3
 72
8
 73
4
 74
0
 40
0
 40
0
 40
0
 40
0
 40
1
 40
1
 40
1
 40
1
 10
232.117189
 20
21.179080
 30
0.0
 10
231.834233
 20
21.179080
 30
0.0
 10
231.549438
 20
21.109259
 30
0.0
 10
231.262806
 20
20.969618
 30
0.0
  0
SPLINE
  5
486
100
AcDbEntity
  8
Layer_1
 62
7
100
AcDbSpline
 70
8
 71
3
 72
8
 73
4
 74
0
 40
0
 40
0
 40
0
 40
0
 40
1
 40
1
 40
1
 40
1
 10
231.262806
 20
20.969618
 30
0.0
 10
230.979848
 20
20.829977
 30
0.0
 10
230.696891
 20
20.651750
 30
0.0
 10
230.413935
 20
20.434939
 30
0.0
  0
LINE
  5
487
100
AcDbEntity
  8
Layer_1
 62
7
100
AcDbLine
 10
230.413935
 20
20.434939
 30
0.0
 11
230.413935
 21
15.837804
 31
0.0
  0
LINE
  5
488
100
AcDbEntity
  8
Layer_1
 62
7
100
AcDbLine
 10
230.413935
 20
15.837804
 30
0.0
 11
229.377649
 21
15.837804
 31
0.0
  0
LINE
  5
489
100
AcDbEntity
  8
Layer_1
 62
7
100
AcDbLine
 10
229.377649
 20
15.837804
 30
0.0
 11
229.377649
 21
21.994878
 31
0.0
  0
LINE
  5
48a
100
AcDbEntity
  8
Layer_1
 62
7
100
AcDbLine
 10
229.377649
 20
21.994878
 30
0.0
 11
230.413935
 21
21.994878
 31
0.0
  0
LINE
  5
48b
100
AcDbEntity
  8
Layer_1
 62
7
100
AcDbLine
 10
230.413935
 20
21.994878
 30
0.0
 11
230.413935
 21
21.311371
 31
0.0
  0
SPLINE
  5
48c
100
AcDbEntity
  8
Layer_1
 62
7
100
AcDbSpline
 70
8
 71
3
 72
8
 73
4
 74
0
 40
0
 40
0
 40
0
 40
0
 40
1
 40
1
 40
1
 40
1
 10
230.413935
 20
21.311371
 30
0.0
 10
230.737315
 20
21.579629
 30
0.0
 10
231.058856
 20
21.789091
 30
0.0
 10
231.378559
 20
21.939757
 30
0.0
  0
SPLINE
  5
48d
100
AcDbEntity
  8
Layer_1
 62
7
100
AcDbSpline
 70
8
 71
3
 72
8
 73
4
 74
0
 40
0
 40
0
 40
0
 40
0
 40
1
 40
1
 40
1
 40
1
 10
231.378559
 20
21.939757
 30
0.0
 10
231.701939
 20
22.090422
 30
0.0
 10
232.045530
 20
22.165755
 30
0.0
 10
232.409334
 20
22.165755
 30
0.0
  0
SPLINE
  5
48e
100
AcDbEntity
  8
Layer_1
 62
7
100
AcDbSpline
 70
8
 71
3
 72
8
 73
4
 74
0
 40
0
 40
0
 40
0
 40
0
 40
1
 40
1
 40
1
 40
1
 10
232.409334
 20
22.165755
 30
0.0
 10
232.828257
 20
22.165755
 30
0.0
 10
233.182872
 20
22.077561
 30
0.0
 10
233.473179
 20
21.901172
 30
0.0
  0
SPLINE
  5
48f
100
AcDbEntity
  8
Layer_1
 62
7
100
AcDbSpline
 70
8
 71
3
 72
8
 73
4
 74
0
 40
0
 40
0
 40
0
 40
0
 40
1
 40
1
 40
1
 40
1
 10
233.473179
 20
21.901172
 30
0.0
 10
233.767160
 20
21.724783
 30
0.0
 10
233.985809
 20
21.480411
 30
0.0
 10
234.129125
 20
21.168055
 30
0.0
  0
SPLINE
  5
490
100
AcDbEntity
  8
Layer_1
 62
7
100
AcDbSpline
 70
8
 71
3
 72
8
 73
4
 74
0
 40
0
 40
0
 40
0
 40
0
 40
1
 40
1
 40
1
 40
1
 10
234.129125
 20
21.168055
 30
0.0
 10
234.548048
 20
21.520833
 30
0.0
 10
234.930224
 20
21.774392
 30
0.0
 10
235.275653
 20
21.928732
 30
0.0
  0
SPLINE
  5
491
100
AcDbEntity
  8
Layer_1
 62
7
100
AcDbSpline
 70
8
 71
3
 72
8
 73
4
 74
0
 40
0
 40
0
 40
0
 40
0
 40
1
 40
1
 40
1
 40
1
 10
235.275653
 20
21.928732
 30
0.0
 10
235.621082
 20
22.086747
 30
0.0
 10
235.990396
 20
22.165755
 30
0.0
 10
236.383595
 20
22.165755
 30
0.0
  0
SPLINE
  5
492
100
AcDbEntity
  8
Layer_1
 62
7
100
AcDbSpline
 70
8
 71
3
 72
8
 73
4
 74
0
 40
0
 40
0
 40
0
 40
0
 40
1
 40
1
 40
1
 40
1
 10
236.383595
 20
22.165755
 30
0.0
 10
237.059753
 20
22.165755
 30
0.0
 10
237.557684
 20
21.959968
 30
0.0
 10
237.877389
 20
21.548394
 30
0.0
  0
SPLINE
  5
493
100
AcDbEntity
  8
Layer_1
 62
7
100
AcDbSpline
 70
8
 71
3
 72
8
 73
4
 74
0
 40
0
 40
0
 40
0
 40
0
 40
1
 40
1
 40
1
 40
1
 10
237.877389
 20
21.548394
 30
0.0
 10
238.200769
 20
21.140494
 30
0.0
 10
238.362459
 20
20.569068
 30
0.0
 10
238.362459
 20
19.834113
 30
0.0
  0
LINE
  5
494
100
AcDbEntity
  8
Layer_1
 62
7
100
AcDbLine
 10
238.362459
 20
19.834113
 30
0.0
 11
238.362459
 21
15.837804
 31
0.0
  0
LINE
  5
495
100
AcDbEntity
  8
Layer_1
 62
7
100
AcDbLine
 10
238.362459
 20
15.837804
 30
0.0
 11
238.362436
 21
15.837804
 31
0.0
  0
LINE
  5
496
100
AcDbEntity
  8
Layer_1
 62
7
100
AcDbLine
 10
248.168555
 20
20.864887
 30
0.0
 11
248.113434
 21
20.864887
 31
0.0
  0
SPLINE
  5
497
100
AcDbEntity
  8
Layer_1
 62
7
100
AcDbSpline
 70
8
 71
3
 72
8
 73
4
 74
0
 40
0
 40
0
 40
0
 40
0
 40
1
 40
1
 40
1
 40
1
 10
248.113434
 20
20.864887
 30
0.0
 10
247.959094
 20
20.901635
 30
0.0
 10
247.808429
 20
20.927358
 30
0.0
 10
247.661438
 20
20.942057
 30
0.0
  0
SPLINE
  5
498
100
AcDbEntity
  8
Layer_1
 62
7
100
AcDbSpline
 70
8
 71
3
 72
8
 73
4
 74
0
 40
0
 40
0
 40
0
 40
0
 40
1
 40
1
 40
1
 40
1
 10
247.661438
 20
20.942057
 30
0.0
 10
247.518122
 20
20.960432
 30
0.0
 10
247.347245
 20
20.969619
 30
0.0
 10
247.148807
 20
20.969619
 30
0.0
  0
SPLINE
  5
499
100
AcDbEntity
  8
Layer_1
 62
7
100
AcDbSpline
 70
8
 71
3
 72
8
 73
4
 74
0
 40
0
 40
0
 40
0
 40
0
 40
1
 40
1
 40
1
 40
1
 10
247.148807
 20
20.969619
 30
0.0
 10
246.829102
 20
20.969619
 30
0.0
 10
246.520421
 20
20.897961
 30
0.0
 10
246.222765
 20
20.754645
 30
0.0
  0
SPLINE
  5
49a
100
AcDbEntity
  8
Layer_1
 62
7
100
AcDbSpline
 70
8
 71
3
 72
8
 73
4
 74
0
 40
0
 40
0
 40
0
 40
0
 40
1
 40
1
 40
1
 40
1
 10
246.222765
 20
20.754645
 30
0.0
 10
245.925109
 20
20.615004
 30
0.0
 10
245.638478
 20
20.433103
 30
0.0
 10
245.362871
 20
20.208942
 30
0.0
  0
LINE
  5
49b
100
AcDbEntity
  8
Layer_1
 62
7
100
AcDbLine
 10
245.362871
 20
20.208942
 30
0.0
 11
245.362871
 21
15.837804
 31
0.0
  0
LINE
  5
49c
100
AcDbEntity
  8
Layer_1
 62
7
100
AcDbLine
 10
245.362871
 20
15.837804
 30
0.0
 11
244.326585
 21
15.837804
 31
0.0
  0
LINE
  5
49d
100
AcDbEntity
  8
Layer_1
 62
7
100
AcDbLine
 10
244.326585
 20
15.837804
 30
0.0
 11
244.326585
 21
21.994879
 31
0.0
  0
LINE
  5
49e
100
AcDbEntity
  8
Layer_1
 62
7
100
AcDbLine
 10
244.326585
 20
21.994879
 30
0.0
 11
245.362871
 21
21.994879
 31
0.0
  0
LINE
  5
49f
100
AcDbEntity
  8
Layer_1
 62
7
100
AcDbLine
 10
245.362871
 20
21.994879
 30
0.0
 11
245.362871
 21
21.085374
 31
0.0
  0
SPLINE
  5
4a0
100
AcDbEntity
  8
Layer_1
 62
7
100
AcDbSpline
 70
8
 71
3
 72
8
 73
4
 74
0
 40
0
 40
0
 40
0
 40
0
 40
1
 40
1
 40
1
 40
1
 10
245.362871
 20
21.085374
 30
0.0
 10
245.774445
 20
21.416103
 30
0.0
 10
246.136409
 20
21.649451
 30
0.0
 10
246.448763
 20
21.785418
 30
0.0
  0
SPLINE
  5
4a1
100
AcDbEntity
  8
Layer_1
 62
7
100
AcDbSpline
 70
8
 71
3
 72
8
 73
4
 74
0
 40
0
 40
0
 40
0
 40
0
 40
1
 40
1
 40
1
 40
1
 10
246.448763
 20
21.785418
 30
0.0
 10
246.764794
 20
21.925059
 30
0.0
 10
247.086336
 20
21.994879
 30
0.0
 10
247.413390
 20
21.994879
 30
0.0
  0
SPLINE
  5
4a2
100
AcDbEntity
  8
Layer_1
 62
7
100
AcDbSpline
 70
8
 71
3
 72
8
 73
4
 74
0
 40
0
 40
0
 40
0
 40
0
 40
1
 40
1
 40
1
 40
1
 10
247.413390
 20
21.994879
 30
0.0
 10
247.593454
 20
21.994879
 30
0.0
 10
247.723908
 20
21.989367
 30
0.0
 10
247.804753
 20
21.978344
 30
0.0
  0
SPLINE
  5
4a3
100
AcDbEntity
  8
Layer_1
 62
7
100
AcDbSpline
 70
8
 71
3
 72
8
 73
4
 74
0
 40
0
 40
0
 40
0
 40
0
 40
1
 40
1
 40
1
 40
1
 10
247.804753
 20
21.978344
 30
0.0
 10
247.885599
 20
21.970995
 30
0.0
 10
248.006866
 20
21.954458
 30
0.0
 10
248.168555
 20
21.928734
 30
0.0
  0
LINE
  5
4a4
100
AcDbEntity
  8
Layer_1
 62
7
100
AcDbLine
 10
248.168555
 20
21.928734
 30
0.0
 11
248.168555
 21
20.864889
 31
0.0
  0
LINE
  5
4a5
100
AcDbEntity
  8
Layer_1
 62
7
100
AcDbLine
 10
248.168555
 20
20.864889
 30
0.0
 11
248.168555
 21
20.864887
 31
0.0
  0
LINE
  5
4a6
100
AcDbEntity
  8
Layer_1
 62
7
100
AcDbLine
 10
254.309092
 20
18.808854
 30
0.0
 11
249.772593
 21
18.808854
 31
0.0
  0
SPLINE
  5
4a7
100
AcDbEntity
  8
Layer_1
 62
7
100
AcDbSpline
 70
8
 71
3
 72
8
 73
4
 74
0
 40
0
 40
0
 40
0
 40
0
 40
1
 40
1
 40
1
 40
1
 10
249.772593
 20
18.808854
 30
0.0
 10
249.772593
 20
18.430352
 30
0.0
 10
249.829551
 20
18.099624
 30
0.0
 10
249.943467
 20
17.816668
 30
0.0
  0
SPLINE
  5
4a8
100
AcDbEntity
  8
Layer_1
 62
7
100
AcDbSpline
 70
8
 71
3
 72
8
 73
4
 74
0
 40
0
 40
0
 40
0
 40
0
 40
1
 40
1
 40
1
 40
1
 10
249.943467
 20
17.816668
 30
0.0
 10
250.057385
 20
17.537384
 30
0.0
 10
250.213563
 20
17.307711
 30
0.0
 10
250.412001
 20
17.127647
 30
0.0
  0
SPLINE
  5
4a9
100
AcDbEntity
  8
Layer_1
 62
7
100
AcDbSpline
 70
8
 71
3
 72
8
 73
4
 74
0
 40
0
 40
0
 40
0
 40
0
 40
1
 40
1
 40
1
 40
1
 10
250.412001
 20
17.127647
 30
0.0
 10
250.603090
 20
16.951259
 30
0.0
 10
250.829088
 20
16.818967
 30
0.0
 10
251.089995
 20
16.730772
 30
0.0
  0
SPLINE
  5
4aa
100
AcDbEntity
  8
Layer_1
 62
7
100
AcDbSpline
 70
8
 71
3
 72
8
 73
4
 74
0
 40
0
 40
0
 40
0
 40
0
 40
1
 40
1
 40
1
 40
1
 10
251.089995
 20
16.730772
 30
0.0
 10
251.354578
 20
16.642578
 30
0.0
 10
251.644885
 20
16.598481
 30
0.0
 10
251.960916
 20
16.598481
 30
0.0
  0
SPLINE
  5
4ab
100
AcDbEntity
  8
Layer_1
 62
7
100
AcDbSpline
 70
8
 71
3
 72
8
 73
4
 74
0
 40
0
 40
0
 40
0
 40
0
 40
1
 40
1
 40
1
 40
1
 10
251.960916
 20
16.598481
 30
0.0
 10
252.379839
 20
16.598481
 30
0.0
 10
252.800600
 20
16.681163
 30
0.0
 10
253.223200
 20
16.846529
 30
0.0
  0
SPLINE
  5
4ac
100
AcDbEntity
  8
Layer_1
 62
7
100
AcDbSpline
 70
8
 71
3
 72
8
 73
4
 74
0
 40
0
 40
0
 40
0
 40
0
 40
1
 40
1
 40
1
 40
1
 10
253.223200
 20
16.846529
 30
0.0
 10
253.649472
 20
17.015567
 30
0.0
 10
253.952640
 20
17.180931
 30
0.0
 10
254.132703
 20
17.342622
 30
0.0
  0
LINE
  5
4ad
100
AcDbEntity
  8
Layer_1
 62
7
100
AcDbLine
 10
254.132703
 20
17.342622
 30
0.0
 11
254.187827
 21
17.342622
 31
0.0
  0
LINE
  5
4ae
100
AcDbEntity
  8
Layer_1
 62
7
100
AcDbLine
 10
254.187827
 20
17.342622
 30
0.0
 11
254.187827
 21
16.212629
 31
0.0
  0
SPLINE
  5
4af
100
AcDbEntity
  8
Layer_1
 62
7
100
AcDbSpline
 70
8
 71
3
 72
8
 73
4
 74
0
 40
0
 40
0
 40
0
 40
0
 40
1
 40
1
 40
1
 40
1
 10
254.187827
 20
16.212629
 30
0.0
 10
253.838724
 20
16.065639
 30
0.0
 10
253.482271
 20
15.942534
 30
0.0
 10
253.118467
 20
15.843316
 30
0.0
  0
SPLINE
  5
4b0
100
AcDbEntity
  8
Layer_1
 62
7
100
AcDbSpline
 70
8
 71
3
 72
8
 73
4
 74
0
 40
0
 40
0
 40
0
 40
0
 40
1
 40
1
 40
1
 40
1
 10
253.118467
 20
15.843316
 30
0.0
 10
252.754666
 20
15.744096
 30
0.0
 10
252.372490
 20
15.694486
 30
0.0
 10
251.971940
 20
15.694486
 30
0.0
  0
SPLINE
  5
4b1
100
AcDbEntity
  8
Layer_1
 62
7
100
AcDbSpline
 70
8
 71
3
 72
8
 73
4
 74
0
 40
0
 40
0
 40
0
 40
0
 40
1
 40
1
 40
1
 40
1
 10
251.971940
 20
15.694486
 30
0.0
 10
250.950355
 20
15.694486
 30
0.0
 10
250.152931
 20
15.970094
 30
0.0
 10
249.579666
 20
16.521310
 30
0.0
  0
SPLINE
  5
4b2
100
AcDbEntity
  8
Layer_1
 62
7
100
AcDbSpline
 70
8
 71
3
 72
8
 73
4
 74
0
 40
0
 40
0
 40
0
 40
0
 40
1
 40
1
 40
1
 40
1
 10
249.579666
 20
16.521310
 30
0.0
 10
249.006403
 20
17.076200
 30
0.0
 10
248.719772
 20
17.862601
 30
0.0
 10
248.719772
 20
18.880513
 30
0.0
  0
SPLINE
  5
4b3
100
AcDbEntity
  8
Layer_1
 62
7
100
AcDbSpline
 70
8
 71
3
 72
8
 73
4
 74
0
 40
0
 40
0
 40
0
 40
0
 40
1
 40
1
 40
1
 40
1
 10
248.719772
 20
18.880513
 30
0.0
 10
248.719772
 20
19.887399
 30
0.0
 10
248.993541
 20
20.686661
 30
0.0
 10
249.541081
 20
21.278298
 30
0.0
  0
SPLINE
  5
4b4
100
AcDbEntity
  8
Layer_1
 62
7
100
AcDbSpline
 70
8
 71
3
 72
8
 73
4
 74
0
 40
0
 40
0
 40
0
 40
0
 40
1
 40
1
 40
1
 40
1
 10
249.541081
 20
21.278298
 30
0.0
 10
250.092296
 20
21.869936
 30
0.0
 10
250.816226
 20
22.165755
 30
0.0
 10
251.712871
 20
22.165755
 30
0.0
  0
SPLINE
  5
4b5
100
AcDbEntity
  8
Layer_1
 62
7
100
AcDbSpline
 70
8
 71
3
 72
8
 73
4
 74
0
 40
0
 40
0
 40
0
 40
0
 40
1
 40
1
 40
1
 40
1
 10
251.712871
 20
22.165755
 30
0.0
 10
252.543368
 20
22.165755
 30
0.0
 10
253.182777
 20
21.923220
 30
0.0
 10
253.631099
 20
21.438151
 30
0.0
  0
SPLINE
  5
4b6
100
AcDbEntity
  8
Layer_1
 62
7
100
AcDbSpline
 70
8
 71
3
 72
8
 73
4
 74
0
 40
0
 40
0
 40
0
 40
0
 40
1
 40
1
 40
1
 40
1
 10
253.631099
 20
21.438151
 30
0.0
 10
254.083094
 20
20.953081
 30
0.0
 10
254.309092
 20
20.264062
 30
0.0
 10
254.309092
 20
19.371094
 30
0.0
  0
LINE
  5
4b7
100
AcDbEntity
  8
Layer_1
 62
7
100
AcDbLine
 10
254.309092
 20
19.371094
 30
0.0
 11
254.309092
 21
18.808854
 31
0.0
  0
LINE
  5
4b8
100
AcDbEntity
  8
Layer_1
 62
7
100
AcDbLine
 10
254.309092
 20
18.808854
 30
0.0
 11
254.309092
 21
18.808854
 31
0.0
  0
SPLINE
  5
4b9
100
AcDbEntity
  8
Layer_1
 62
7
100
AcDbSpline
 70
8
 71
3
 72
8
 73
4
 74
0
 40
0
 40
0
 40
0
 40
0
 40
1
 40
1
 40
1
 40
1
 10
253.300371
 20
19.602604
 30
0.0
 10
253.296702
 20
20.146470
 30
0.0
 10
253.158898
 20
20.567231
 30
0.0
 10
252.886958
 20
20.864887
 30
0.0
  0
SPLINE
  5
4ba
100
AcDbEntity
  8
Layer_1
 62
7
100
AcDbSpline
 70
8
 71
3
 72
8
 73
4
 74
0
 40
0
 40
0
 40
0
 40
0
 40
1
 40
1
 40
1
 40
1
 10
252.886958
 20
20.864887
 30
0.0
 10
252.618700
 20
21.162543
 30
0.0
 10
252.208963
 20
21.311371
 30
0.0
 10
251.657747
 20
21.311371
 30
0.0
  0
SPLINE
  5
4bb
100
AcDbEntity
  8
Layer_1
 62
7
100
AcDbSpline
 70
8
 71
3
 72
8
 73
4
 74
0
 40
0
 40
0
 40
0
 40
0
 40
1
 40
1
 40
1
 40
1
 10
251.657747
 20
21.311371
 30
0.0
 10
251.102857
 20
21.311371
 30
0.0
 10
250.660047
 20
21.147844
 30
0.0
 10
250.329319
 20
20.820790
 30
0.0
  0
SPLINE
  5
4bc
100
AcDbEntity
  8
Layer_1
 62
7
100
AcDbSpline
 70
8
 71
3
 72
8
 73
4
 74
0
 40
0
 40
0
 40
0
 40
0
 40
1
 40
1
 40
1
 40
1
 10
250.329319
 20
20.820790
 30
0.0
 10
250.002265
 20
20.493735
 30
0.0
 10
249.816689
 20
20.087673
 30
0.0
 10
249.772593
 20
19.602604
 30
0.0
  0
LINE
  5
4bd
100
AcDbEntity
  8
Layer_1
 62
7
100
AcDbLine
 10
249.772593
 20
19.602604
 30
0.0
 11
253.300371
 21
19.602604
 31
0.0
  0
LINE
  5
4be
100
AcDbEntity
  8
Layer_1
 62
7
100
AcDbLine
 10
253.300371
 20
19.602604
 30
0.0
 11
253.300371
 21
19.602604
 31
0.0
  0
LINE
  5
4bf
100
AcDbEntity
  8
Layer_1
 62
7
100
AcDbLine
 10
259.192860
 20
23.411502
 30
0.0
 11
259.137740
 21
23.411502
 31
0.0
  0
SPLINE
  5
4c0
100
AcDbEntity
  8
Layer_1
 62
7
100
AcDbSpline
 70
8
 71
3
 72
8
 73
4
 74
0
 40
0
 40
0
 40
0
 40
0
 40
1
 40
1
 40
1
 40
1
 10
259.137740
 20
23.411502
 30
0.0
 10
259.023822
 20
23.444575
 30
0.0
 10
258.874993
 20
23.477647
 30
0.0
 10
258.691256
 20
23.510720
 30
0.0
  0
SPLINE
  5
4c1
100
AcDbEntity
  8
Layer_1
 62
7
100
AcDbSpline
 70
8
 71
3
 72
8
 73
4
 74
0
 40
0
 40
0
 40
0
 40
0
 40
1
 40
1
 40
1
 40
1
 10
258.691256
 20
23.510720
 30
0.0
 10
258.507518
 20
23.547468
 30
0.0
 10
258.345828
 20
23.565842
 30
0.0
 10
258.206186
 20
23.565842
 30
0.0
  0
SPLINE
  5
4c2
100
AcDbEntity
  8
Layer_1
 62
7
100
AcDbSpline
 70
8
 71
3
 72
8
 73
4
 74
0
 40
0
 40
0
 40
0
 40
0
 40
1
 40
1
 40
1
 40
1
 10
258.206186
 20
23.565842
 30
0.0
 10
257.761539
 20
23.565842
 30
0.0
 10
257.438160
 20
23.466623
 30
0.0
 10
257.236047
 20
23.268186
 30
0.0
  0
SPLINE
  5
4c3
100
AcDbEntity
  8
Layer_1
 62
7
100
AcDbSpline
 70
8
 71
3
 72
8
 73
4
 74
0
 40
0
 40
0
 40
0
 40
0
 40
1
 40
1
 40
1
 40
1
 10
257.236047
 20
23.268186
 30
0.0
 10
257.037609
 20
23.073423
 30
0.0
 10
256.938390
 20
22.718808
 30
0.0
 10
256.938390
 20
22.204340
 30
0.0
  0
LINE
  5
4c4
100
AcDbEntity
  8
Layer_1
 62
7
100
AcDbLine
 10
256.938390
 20
22.204340
 30
0.0
 11
256.938390
 21
21.994878
 31
0.0
  0
LINE
  5
4c5
100
AcDbEntity
  8
Layer_1
 62
7
100
AcDbLine
 10
256.938390
 20
21.994878
 30
0.0
 11
258.807009
 21
21.994878
 31
0.0
  0
LINE
  5
4c6
100
AcDbEntity
  8
Layer_1
 62
7
100
AcDbLine
 10
258.807009
 20
21.994878
 30
0.0
 11
258.807009
 21
21.123958
 31
0.0
  0
LINE
  5
4c7
100
AcDbEntity
  8
Layer_1
 62
7
100
AcDbLine
 10
258.807009
 20
21.123958
 30
0.0
 11
256.971464
 21
21.123958
 31
0.0
  0
LINE
  5
4c8
100
AcDbEntity
  8
Layer_1
 62
7
100
AcDbLine
 10
256.971464
 20
21.123958
 30
0.0
 11
256.971464
 21
15.837804
 31
0.0
  0
LINE
  5
4c9
100
AcDbEntity
  8
Layer_1
 62
7
100
AcDbLine
 10
256.971464
 20
15.837804
 30
0.0
 11
255.935178
 21
15.837804
 31
0.0
  0
LINE
  5
4ca
100
AcDbEntity
  8
Layer_1
 62
7
100
AcDbLine
 10
255.935178
 20
15.837804
 30
0.0
 11
255.935178
 21
21.123958
 31
0.0
  0
LINE
  5
4cb
100
AcDbEntity
  8
Layer_1
 62
7
100
AcDbLine
 10
255.935178
 20
21.123958
 30
0.0
 11
255.235134
 21
21.123958
 31
0.0
  0
LINE
  5
4cc
100
AcDbEntity
  8
Layer_1
 62
7
100
AcDbLine
 10
255.235134
 20
21.123958
 30
0.0
 11
255.235134
 21
21.994878
 31
0.0
  0
LINE
  5
4cd
100
AcDbEntity
  8
Layer_1
 62
7
100
AcDbLine
 10
255.235134
 20
21.994878
 30
0.0
 11
255.935178
 21
21.994878
 31
0.0
  0
LINE
  5
4ce
100
AcDbEntity
  8
Layer_1
 62
7
100
AcDbLine
 10
255.935178
 20
21.994878
 30
0.0
 11
255.935178
 21
22.198828
 31
0.0
  0
SPLINE
  5
4cf
100
AcDbEntity
  8
Layer_1
 62
7
100
AcDbSpline
 70
8
 71
3
 72
8
 73
4
 74
0
 40
0
 40
0
 40
0
 40
0
 40
1
 40
1
 40
1
 40
1
 10
255.935178
 20
22.198828
 30
0.0
 10
255.935178
 20
22.930107
 30
0.0
 10
256.117079
 20
23.490509
 30
0.0
 10
256.480883
 20
23.880035
 30
0.0
  0
SPLINE
  5
4d0
100
AcDbEntity
  8
Layer_1
 62
7
100
AcDbSpline
 70
8
 71
3
 72
8
 73
4
 74
0
 40
0
 40
0
 40
0
 40
0
 40
1
 40
1
 40
1
 40
1
 10
256.480883
 20
23.880035
 30
0.0
 10
256.844684
 20
24.273235
 30
0.0
 10
257.370175
 20
24.469835
 30
0.0
 10
258.057356
 20
24.469835
 30
0.0
  0
SPLINE
  5
4d1
100
AcDbEntity
  8
Layer_1
 62
7
100
AcDbSpline
 70
8
 71
3
 72
8
 73
4
 74
0
 40
0
 40
0
 40
0
 40
0
 40
1
 40
1
 40
1
 40
1
 10
258.057356
 20
24.469835
 30
0.0
 10
258.288867
 20
24.469835
 30
0.0
 10
258.496492
 20
24.458811
 30
0.0
 10
258.680232
 20
24.436762
 30
0.0
  0
SPLINE
  5
4d2
100
AcDbEntity
  8
Layer_1
 62
7
100
AcDbSpline
 70
8
 71
3
 72
8
 73
4
 74
0
 40
0
 40
0
 40
0
 40
0
 40
1
 40
1
 40
1
 40
1
 10
258.680232
 20
24.436762
 30
0.0
 10
258.867644
 20
24.414713
 30
0.0
 10
259.038521
 20
24.388990
 30
0.0
 10
259.192860
 20
24.359592
 30
0.0
  0
LINE
  5
4d3
100
AcDbEntity
  8
Layer_1
 62
7
100
AcDbLine
 10
259.192860
 20
24.359592
 30
0.0
 11
259.192860
 21
23.411502
 31
0.0
  0
LINE
  5
4d4
100
AcDbEntity
  8
Layer_1
 62
7
100
AcDbLine
 10
259.192860
 20
23.411502
 30
0.0
 11
259.192860
 21
23.411502
 31
0.0
  0
LINE
  5
4d5
100
AcDbEntity
  8
Layer_1
 62
7
100
AcDbLine
 10
265.002670
 20
18.808854
 30
0.0
 11
260.466168
 21
18.808854
 31
0.0
  0
SPLINE
  5
4d6
100
AcDbEntity
  8
Layer_1
 62
7
100
AcDbSpline
 70
8
 71
3
 72
8
 73
4
 74
0
 40
0
 40
0
 40
0
 40
0
 40
1
 40
1
 40
1
 40
1
 10
260.466168
 20
18.808854
 30
0.0
 10
260.466168
 20
18.430352
 30
0.0
 10
260.523127
 20
18.099624
 30
0.0
 10
260.637045
 20
17.816668
 30
0.0
  0
SPLINE
  5
4d7
100
AcDbEntity
  8
Layer_1
 62
7
100
AcDbSpline
 70
8
 71
3
 72
8
 73
4
 74
0
 40
0
 40
0
 40
0
 40
0
 40
1
 40
1
 40
1
 40
1
 10
260.637045
 20
17.816668
 30
0.0
 10
260.750963
 20
17.537384
 30
0.0
 10
260.907141
 20
17.307711
 30
0.0
 10
261.105579
 20
17.127647
 30
0.0
  0
SPLINE
  5
4d8
100
AcDbEntity
  8
Layer_1
 62
7
100
AcDbSpline
 70
8
 71
3
 72
8
 73
4
 74
0
 40
0
 40
0
 40
0
 40
0
 40
1
 40
1
 40
1
 40
1
 10
261.105579
 20
17.127647
 30
0.0
 10
261.296666
 20
16.951259
 30
0.0
 10
261.522664
 20
16.818967
 30
0.0
 10
261.783573
 20
16.730772
 30
0.0
  0
SPLINE
  5
4d9
100
AcDbEntity
  8
Layer_1
 62
7
100
AcDbSpline
 70
8
 71
3
 72
8
 73
4
 74
0
 40
0
 40
0
 40
0
 40
0
 40
1
 40
1
 40
1
 40
1
 10
261.783573
 20
16.730772
 30
0.0
 10
262.048156
 20
16.642578
 30
0.0
 10
262.338463
 20
16.598481
 30
0.0
 10
262.654494
 20
16.598481
 30
0.0
  0
SPLINE
  5
4da
100
AcDbEntity
  8
Layer_1
 62
7
100
AcDbSpline
 70
8
 71
3
 72
8
 73
4
 74
0
 40
0
 40
0
 40
0
 40
0
 40
1
 40
1
 40
1
 40
1
 10
262.654494
 20
16.598481
 30
0.0
 10
263.073417
 20
16.598481
 30
0.0
 10
263.494177
 20
16.681163
 30
0.0
 10
263.916775
 20
16.846529
 30
0.0
  0
SPLINE
  5
4db
100
AcDbEntity
  8
Layer_1
 62
7
100
AcDbSpline
 70
8
 71
3
 72
8
 73
4
 74
0
 40
0
 40
0
 40
0
 40
0
 40
1
 40
1
 40
1
 40
1
 10
263.916775
 20
16.846529
 30
0.0
 10
264.343049
 20
17.015567
 30
0.0
 10
264.646218
 20
17.180931
 30
0.0
 10
264.826281
 20
17.342622
 30
0.0
  0
LINE
  5
4dc
100
AcDbEntity
  8
Layer_1
 62
7
100
AcDbLine
 10
264.826281
 20
17.342622
 30
0.0
 11
264.881402
 21
17.342622
 31
0.0
  0
LINE
  5
4dd
100
AcDbEntity
  8
Layer_1
 62
7
100
AcDbLine
 10
264.881402
 20
17.342622
 30
0.0
 11
264.881402
 21
16.212629
 31
0.0
  0
SPLINE
  5
4de
100
AcDbEntity
  8
Layer_1
 62
7
100
AcDbSpline
 70
8
 71
3
 72
8
 73
4
 74
0
 40
0
 40
0
 40
0
 40
0
 40
1
 40
1
 40
1
 40
1
 10
264.881402
 20
16.212629
 30
0.0
 10
264.532299
 20
16.065639
 30
0.0
 10
264.175846
 20
15.942534
 30
0.0
 10
263.812045
 20
15.843316
 30
0.0
  0
SPLINE
  5
4df
100
AcDbEntity
  8
Layer_1
 62
7
100
AcDbSpline
 70
8
 71
3
 72
8
 73
4
 74
0
 40
0
 40
0
 40
0
 40
0
 40
1
 40
1
 40
1
 40
1
 10
263.812045
 20
15.843316
 30
0.0
 10
263.448244
 20
15.744096
 30
0.0
 10
263.066068
 20
15.694486
 30
0.0
 10
262.665517
 20
15.694486
 30
0.0
  0
SPLINE
  5
4e0
100
AcDbEntity
  8
Layer_1
 62
7
100
AcDbSpline
 70
8
 71
3
 72
8
 73
4
 74
0
 40
0
 40
0
 40
0
 40
0
 40
1
 40
1
 40
1
 40
1
 10
262.665517
 20
15.694486
 30
0.0
 10
261.643931
 20
15.694486
 30
0.0
 10
260.846507
 20
15.970094
 30
0.0
 10
260.273244
 20
16.521310
 30
0.0
  0
SPLINE
  5
4e1
100
AcDbEntity
  8
Layer_1
 62
7
100
AcDbSpline
 70
8
 71
3
 72
8
 73
4
 74
0
 40
0
 40
0
 40
0
 40
0
 40
1
 40
1
 40
1
 40
1
 10
260.273244
 20
16.521310
 30
0.0
 10
259.699979
 20
17.076200
 30
0.0
 10
259.413346
 20
17.862601
 30
0.0
 10
259.413346
 20
18.880513
 30
0.0
  0
SPLINE
  5
4e2
100
AcDbEntity
  8
Layer_1
 62
7
100
AcDbSpline
 70
8
 71
3
 72
8
 73
4
 74
0
 40
0
 40
0
 40
0
 40
0
 40
1
 40
1
 40
1
 40
1
 10
259.413346
 20
18.880513
 30
0.0
 10
259.413346
 20
19.887399
 30
0.0
 10
259.687117
 20
20.686661
 30
0.0
 10
260.234658
 20
21.278298
 30
0.0
  0
SPLINE
  5
4e3
100
AcDbEntity
  8
Layer_1
 62
7
100
AcDbSpline
 70
8
 71
3
 72
8
 73
4
 74
0
 40
0
 40
0
 40
0
 40
0
 40
1
 40
1
 40
1
 40
1
 10
260.234658
 20
21.278298
 30
0.0
 10
260.785874
 20
21.869936
 30
0.0
 10
261.509803
 20
22.165755
 30
0.0
 10
262.406446
 20
22.165755
 30
0.0
  0
SPLINE
  5
4e4
100
AcDbEntity
  8
Layer_1
 62
7
100
AcDbSpline
 70
8
 71
3
 72
8
 73
4
 74
0
 40
0
 40
0
 40
0
 40
0
 40
1
 40
1
 40
1
 40
1
 10
262.406446
 20
22.165755
 30
0.0
 10
263.236943
 20
22.165755
 30
0.0
 10
263.876353
 20
21.923220
 30
0.0
 10
264.324676
 20
21.438151
 30
0.0
  0
SPLINE
  5
4e5
100
AcDbEntity
  8
Layer_1
 62
7
100
AcDbSpline
 70
8
 71
3
 72
8
 73
4
 74
0
 40
0
 40
0
 40
0
 40
0
 40
1
 40
1
 40
1
 40
1
 10
264.324676
 20
21.438151
 30
0.0
 10
264.776672
 20
20.953081
 30
0.0
 10
265.002670
 20
20.264062
 30
0.0
 10
265.002670
 20
19.371094
 30
0.0
  0
LINE
  5
4e6
100
AcDbEntity
  8
Layer_1
 62
7
100
AcDbLine
 10
265.002670
 20
19.371094
 30
0.0
 11
265.002670
 21
18.808854
 31
0.0
  0
LINE
  5
4e7
100
AcDbEntity
  8
Layer_1
 62
7
100
AcDbLine
 10
265.002670
 20
18.808854
 30
0.0
 11
265.002670
 21
18.808854
 31
0.0
  0
SPLINE
  5
4e8
100
AcDbEntity
  8
Layer_1
 62
7
100
AcDbSpline
 70
8
 71
3
 72
8
 73
4
 74
0
 40
0
 40
0
 40
0
 40
0
 40
1
 40
1
 40
1
 40
1
 10
263.993946
 20
19.602604
 30
0.0
 10
263.990277
 20
20.146470
 30
0.0
 10
263.852473
 20
20.567231
 30
0.0
 10
263.580535
 20
20.864887
 30
0.0
  0
SPLINE
  5
4e9
100
AcDbEntity
  8
Layer_1
 62
7
100
AcDbSpline
 70
8
 71
3
 72
8
 73
4
 74
0
 40
0
 40
0
 40
0
 40
0
 40
1
 40
1
 40
1
 40
1
 10
263.580535
 20
20.864887
 30
0.0
 10
263.312278
 20
21.162543
 30
0.0
 10
262.902541
 20
21.311371
 30
0.0
 10
262.351325
 20
21.311371
 30
0.0
  0
SPLINE
  5
4ea
100
AcDbEntity
  8
Layer_1
 62
7
100
AcDbSpline
 70
8
 71
3
 72
8
 73
4
 74
0
 40
0
 40
0
 40
0
 40
0
 40
1
 40
1
 40
1
 40
1
 10
262.351325
 20
21.311371
 30
0.0
 10
261.796435
 20
21.311371
 30
0.0
 10
261.353625
 20
21.147844
 30
0.0
 10
261.022897
 20
20.820790
 30
0.0
  0
SPLINE
  5
4eb
100
AcDbEntity
  8
Layer_1
 62
7
100
AcDbSpline
 70
8
 71
3
 72
8
 73
4
 74
0
 40
0
 40
0
 40
0
 40
0
 40
1
 40
1
 40
1
 40
1
 10
261.022897
 20
20.820790
 30
0.0
 10
260.695842
 20
20.493735
 30
0.0
 10
260.510266
 20
20.087673
 30
0.0
 10
260.466168
 20
19.602604
 30
0.0
  0
LINE
  5
4ec
100
AcDbEntity
  8
Layer_1
 62
7
100
AcDbLine
 10
260.466168
 20
19.602604
 30
0.0
 11
263.993946
 21
19.602604
 31
0.0
  0
LINE
  5
4ed
100
AcDbEntity
  8
Layer_1
 62
7
100
AcDbLine
 10
263.993946
 20
19.602604
 30
0.0
 11
263.993946
 21
19.602604
 31
0.0
  0
LINE
  5
4ee
100
AcDbEntity
  8
Layer_1
 62
7
100
AcDbLine
 10
270.415605
 20
20.864887
 30
0.0
 11
270.360481
 21
20.864887
 31
0.0
  0
SPLINE
  5
4ef
100
AcDbEntity
  8
Layer_1
 62
7
100
AcDbSpline
 70
8
 71
3
 72
8
 73
4
 74
0
 40
0
 40
0
 40
0
 40
0
 40
1
 40
1
 40
1
 40
1
 10
270.360481
 20
20.864887
 30
0.0
 10
270.206141
 20
20.901635
 30
0.0
 10
270.055476
 20
20.927358
 30
0.0
 10
269.908485
 20
20.942057
 30
0.0
  0
SPLINE
  5
4f0
100
AcDbEntity
  8
Layer_1
 62
7
100
AcDbSpline
 70
8
 71
3
 72
8
 73
4
 74
0
 40
0
 40
0
 40
0
 40
0
 40
1
 40
1
 40
1
 40
1
 10
269.908485
 20
20.942057
 30
0.0
 10
269.765169
 20
20.960432
 30
0.0
 10
269.594293
 20
20.969619
 30
0.0
 10
269.395857
 20
20.969619
 30
0.0
  0
SPLINE
  5
4f1
100
AcDbEntity
  8
Layer_1
 62
7
100
AcDbSpline
 70
8
 71
3
 72
8
 73
4
 74
0
 40
0
 40
0
 40
0
 40
0
 40
1
 40
1
 40
1
 40
1
 10
269.395857
 20
20.969619
 30
0.0
 10
269.076152
 20
20.969619
 30
0.0
 10
268.767471
 20
20.897961
 30
0.0
 10
268.469815
 20
20.754645
 30
0.0
  0
SPLINE
  5
4f2
100
AcDbEntity
  8
Layer_1
 62
7
100
AcDbSpline
 70
8
 71
3
 72
8
 73
4
 74
0
 40
0
 40
0
 40
0
 40
0
 40
1
 40
1
 40
1
 40
1
 10
268.469815
 20
20.754645
 30
0.0
 10
268.172157
 20
20.615004
 30
0.0
 10
267.885525
 20
20.433103
 30
0.0
 10
267.609918
 20
20.208942
 30
0.0
  0
LINE
  5
4f3
100
AcDbEntity
  8
Layer_1
 62
7
100
AcDbLine
 10
267.609918
 20
20.208942
 30
0.0
 11
267.609918
 21
15.837804
 31
0.0
  0
LINE
  5
4f4
100
AcDbEntity
  8
Layer_1
 62
7
100
AcDbLine
 10
267.609918
 20
15.837804
 30
0.0
 11
266.573635
 21
15.837804
 31
0.0
  0
LINE
  5
4f5
100
AcDbEntity
  8
Layer_1
 62
7
100
AcDbLine
 10
266.573635
 20
15.837804
 30
0.0
 11
266.573635
 21
21.994879
 31
0.0
  0
LINE
  5
4f6
100
AcDbEntity
  8
Layer_1
 62
7
100
AcDbLine
 10
266.573635
 20
21.994879
 30
0.0
 11
267.609918
 21
21.994879
 31
0.0
  0
LINE
  5
4f7
100
AcDbEntity
  8
Layer_1
 62
7
100
AcDbLine
 10
267.609918
 20
21.994879
 30
0.0
 11
267.609918
 21
21.085374
 31
0.0
  0
SPLINE
  5
4f8
100
AcDbEntity
  8
Layer_1
 62
7
100
AcDbSpline
 70
8
 71
3
 72
8
 73
4
 74
0
 40
0
 40
0
 40
0
 40
0
 40
1
 40
1
 40
1
 40
1
 10
267.609918
 20
21.085374
 30
0.0
 10
268.021492
 20
21.416103
 30
0.0
 10
268.383457
 20
21.649451
 30
0.0
 10
268.695813
 20
21.785418
 30
0.0
  0
SPLINE
  5
4f9
100
AcDbEntity
  8
Layer_1
 62
7
100
AcDbSpline
 70
8
 71
3
 72
8
 73
4
 74
0
 40
0
 40
0
 40
0
 40
0
 40
1
 40
1
 40
1
 40
1
 10
268.695813
 20
21.785418
 30
0.0
 10
269.011842
 20
21.925059
 30
0.0
 10
269.333384
 20
21.994879
 30
0.0
 10
269.660440
 20
21.994879
 30
0.0
  0
SPLINE
  5
4fa
100
AcDbEntity
  8
Layer_1
 62
7
100
AcDbSpline
 70
8
 71
3
 72
8
 73
4
 74
0
 40
0
 40
0
 40
0
 40
0
 40
1
 40
1
 40
1
 40
1
 10
269.660440
 20
21.994879
 30
0.0
 10
269.840504
 20
21.994879
 30
0.0
 10
269.970957
 20
21.989367
 30
0.0
 10
270.051801
 20
21.978344
 30
0.0
  0
SPLINE
  5
4fb
100
AcDbEntity
  8
Layer_1
 62
7
100
AcDbSpline
 70
8
 71
3
 72
8
 73
4
 74
0
 40
0
 40
0
 40
0
 40
0
 40
1
 40
1
 40
1
 40
1
 10
270.051801
 20
21.978344
 30
0.0
 10
270.132646
 20
21.970995
 30
0.0
 10
270.253914
 20
21.954458
 30
0.0
 10
270.415605
 20
21.928734
 30
0.0
  0
LINE
  5
4fc
100
AcDbEntity
  8
Layer_1
 62
7
100
AcDbLine
 10
270.415605
 20
21.928734
 30
0.0
 11
270.415605
 21
20.864889
 31
0.0
  0
LINE
  5
4fd
100
AcDbEntity
  8
Layer_1
 62
7
100
AcDbLine
 10
270.415605
 20
20.864889
 30
0.0
 11
270.415605
 21
20.864887
 31
0.0
  0
LINE
  5
4fe
100
AcDbEntity
  8
Layer_1
 62
7
100
AcDbLine
 10
276.556142
 20
18.808854
 30
0.0
 11
272.019640
 21
18.808854
 31
0.0
  0
SPLINE
  5
4ff
100
AcDbEntity
  8
Layer_1
 62
7
100
AcDbSpline
 70
8
 71
3
 72
8
 73
4
 74
0
 40
0
 40
0
 40
0
 40
0
 40
1
 40
1
 40
1
 40
1
 10
272.019640
 20
18.808854
 30
0.0
 10
272.019640
 20
18.430352
 30
0.0
 10
272.076599
 20
18.099624
 30
0.0
 10
272.190517
 20
17.816668
 30
0.0
  0
SPLINE
  5
500
100
AcDbEntity
  8
Layer_1
 62
7
100
AcDbSpline
 70
8
 71
3
 72
8
 73
4
 74
0
 40
0
 40
0
 40
0
 40
0
 40
1
 40
1
 40
1
 40
1
 10
272.190517
 20
17.816668
 30
0.0
 10
272.304435
 20
17.537384
 30
0.0
 10
272.460613
 20
17.307711
 30
0.0
 10
272.659051
 20
17.127647
 30
0.0
  0
SPLINE
  5
501
100
AcDbEntity
  8
Layer_1
 62
7
100
AcDbSpline
 70
8
 71
3
 72
8
 73
4
 74
0
 40
0
 40
0
 40
0
 40
0
 40
1
 40
1
 40
1
 40
1
 10
272.659051
 20
17.127647
 30
0.0
 10
272.850138
 20
16.951259
 30
0.0
 10
273.076136
 20
16.818967
 30
0.0
 10
273.337045
 20
16.730772
 30
0.0
  0
SPLINE
  5
502
100
AcDbEntity
  8
Layer_1
 62
7
100
AcDbSpline
 70
8
 71
3
 72
8
 73
4
 74
0
 40
0
 40
0
 40
0
 40
0
 40
1
 40
1
 40
1
 40
1
 10
273.337045
 20
16.730772
 30
0.0
 10
273.601628
 20
16.642578
 30
0.0
 10
273.891935
 20
16.598481
 30
0.0
 10
274.207966
 20
16.598481
 30
0.0
  0
SPLINE
  5
503
100
AcDbEntity
  8
Layer_1
 62
7
100
AcDbSpline
 70
8
 71
3
 72
8
 73
4
 74
0
 40
0
 40
0
 40
0
 40
0
 40
1
 40
1
 40
1
 40
1
 10
274.207966
 20
16.598481
 30
0.0
 10
274.626889
 20
16.598481
 30
0.0
 10
275.047650
 20
16.681163
 30
0.0
 10
275.470247
 20
16.846529
 30
0.0
  0
SPLINE
  5
504
100
AcDbEntity
  8
Layer_1
 62
7
100
AcDbSpline
 70
8
 71
3
 72
8
 73
4
 74
0
 40
0
 40
0
 40
0
 40
0
 40
1
 40
1
 40
1
 40
1
 10
275.470247
 20
16.846529
 30
0.0
 10
275.896521
 20
17.015567
 30
0.0
 10
276.199690
 20
17.180931
 30
0.0
 10
276.379753
 20
17.342622
 30
0.0
  0
LINE
  5
505
100
AcDbEntity
  8
Layer_1
 62
7
100
AcDbLine
 10
276.379753
 20
17.342622
 30
0.0
 11
276.434874
 21
17.342622
 31
0.0
  0
LINE
  5
506
100
AcDbEntity
  8
Layer_1
 62
7
100
AcDbLine
 10
276.434874
 20
17.342622
 30
0.0
 11
276.434874
 21
16.212629
 31
0.0
  0
SPLINE
  5
507
100
AcDbEntity
  8
Layer_1
 62
7
100
AcDbSpline
 70
8
 71
3
 72
8
 73
4
 74
0
 40
0
 40
0
 40
0
 40
0
 40
1
 40
1
 40
1
 40
1
 10
276.434874
 20
16.212629
 30
0.0
 10
276.085771
 20
16.065639
 30
0.0
 10
275.729319
 20
15.942534
 30
0.0
 10
275.365517
 20
15.843316
 30
0.0
  0
SPLINE
  5
508
100
AcDbEntity
  8
Layer_1
 62
7
100
AcDbSpline
 70
8
 71
3
 72
8
 73
4
 74
0
 40
0
 40
0
 40
0
 40
0
 40
1
 40
1
 40
1
 40
1
 10
275.365517
 20
15.843316
 30
0.0
 10
275.001716
 20
15.744096
 30
0.0
 10
274.619540
 20
15.694486
 30
0.0
 10
274.218990
 20
15.694486
 30
0.0
  0
SPLINE
  5
509
100
AcDbEntity
  8
Layer_1
 62
7
100
AcDbSpline
 70
8
 71
3
 72
8
 73
4
 74
0
 40
0
 40
0
 40
0
 40
0
 40
1
 40
1
 40
1
 40
1
 10
274.218990
 20
15.694486
 30
0.0
 10
273.197403
 20
15.694486
 30
0.0
 10
272.399979
 20
15.970094
 30
0.0
 10
271.826716
 20
16.521310
 30
0.0
  0
SPLINE
  5
50a
100
AcDbEntity
  8
Layer_1
 62
7
100
AcDbSpline
 70
8
 71
3
 72
8
 73
4
 74
0
 40
0
 40
0
 40
0
 40
0
 40
1
 40
1
 40
1
 40
1
 10
271.826716
 20
16.521310
 30
0.0
 10
271.253451
 20
17.076200
 30
0.0
 10
270.966819
 20
17.862601
 30
0.0
 10
270.966819
 20
18.880513
 30
0.0
  0
SPLINE
  5
50b
100
AcDbEntity
  8
Layer_1
 62
7
100
AcDbSpline
 70
8
 71
3
 72
8
 73
4
 74
0
 40
0
 40
0
 40
0
 40
0
 40
1
 40
1
 40
1
 40
1
 10
270.966819
 20
18.880513
 30
0.0
 10
270.966819
 20
19.887399
 30
0.0
 10
271.240589
 20
20.686661
 30
0.0
 10
271.788131
 20
21.278298
 30
0.0
  0
SPLINE
  5
50c
100
AcDbEntity
  8
Layer_1
 62
7
100
AcDbSpline
 70
8
 71
3
 72
8
 73
4
 74
0
 40
0
 40
0
 40
0
 40
0
 40
1
 40
1
 40
1
 40
1
 10
271.788131
 20
21.278298
 30
0.0
 10
272.339346
 20
21.869936
 30
0.0
 10
273.063275
 20
22.165755
 30
0.0
 10
273.959918
 20
22.165755
 30
0.0
  0
SPLINE
  5
50d
100
AcDbEntity
  8
Layer_1
 62
7
100
AcDbSpline
 70
8
 71
3
 72
8
 73
4
 74
0
 40
0
 40
0
 40
0
 40
0
 40
1
 40
1
 40
1
 40
1
 10
273.959918
 20
22.165755
 30
0.0
 10
274.790415
 20
22.165755
 30
0.0
 10
275.429825
 20
21.923220
 30
0.0
 10
275.878149
 20
21.438151
 30
0.0
  0
SPLINE
  5
50e
100
AcDbEntity
  8
Layer_1
 62
7
100
AcDbSpline
 70
8
 71
3
 72
8
 73
4
 74
0
 40
0
 40
0
 40
0
 40
0
 40
1
 40
1
 40
1
 40
1
 10
275.878149
 20
21.438151
 30
0.0
 10
276.330144
 20
20.953081
 30
0.0
 10
276.556142
 20
20.264062
 30
0.0
 10
276.556142
 20
19.371094
 30
0.0
  0
LINE
  5
50f
100
AcDbEntity
  8
Layer_1
 62
7
100
AcDbLine
 10
276.556142
 20
19.371094
 30
0.0
 11
276.556142
 21
18.808854
 31
0.0
  0
LINE
  5
510
100
AcDbEntity
  8
Layer_1
 62
7
100
AcDbLine
 10
276.556142
 20
18.808854
 30
0.0
 11
276.556142
 21
18.808854
 31
0.0
  0
SPLINE
  5
511
100
AcDbEntity
  8
Layer_1
 62
7
100
AcDbSpline
 70
8
 71
3
 72
8
 73
4
 74
0
 40
0
 40
0
 40
0
 40
0
 40
1
 40
1
 40
1
 40
1
 10
275.547418
 20
19.602604
 30
0.0
 10
275.543749
 20
20.146470
 30
0.0
 10
275.405946
 20
20.567231
 30
0.0
 10
275.134008
 20
20.864887
 30
0.0
  0
SPLINE
  5
512
100
AcDbEntity
  8
Layer_1
 62
7
100
AcDbSpline
 70
8
 71
3
 72
8
 73
4
 74
0
 40
0
 40
0
 40
0
 40
0
 40
1
 40
1
 40
1
 40
1
 10
275.134008
 20
20.864887
 30
0.0
 10
274.865750
 20
21.162543
 30
0.0
 10
274.456013
 20
21.311371
 30
0.0
 10
273.904797
 20
21.311371
 30
0.0
  0
SPLINE
  5
513
100
AcDbEntity
  8
Layer_1
 62
7
100
AcDbSpline
 70
8
 71
3
 72
8
 73
4
 74
0
 40
0
 40
0
 40
0
 40
0
 40
1
 40
1
 40
1
 40
1
 10
273.904797
 20
21.311371
 30
0.0
 10
273.349907
 20
21.311371
 30
0.0
 10
272.907097
 20
21.147844
 30
0.0
 10
272.576369
 20
20.820790
 30
0.0
  0
SPLINE
  5
514
100
AcDbEntity
  8
Layer_1
 62
7
100
AcDbSpline
 70
8
 71
3
 72
8
 73
4
 74
0
 40
0
 40
0
 40
0
 40
0
 40
1
 40
1
 40
1
 40
1
 10
272.576369
 20
20.820790
 30
0.0
 10
272.249315
 20
20.493735
 30
0.0
 10
272.063738
 20
20.087673
 30
0.0
 10
272.019640
 20
19.602604
 30
0.0
  0
LINE
  5
515
100
AcDbEntity
  8
Layer_1
 62
7
100
AcDbLine
 10
272.019640
 20
19.602604
 30
0.0
 11
275.547418
 21
19.602604
 31
0.0
  0
LINE
  5
516
100
AcDbEntity
  8
Layer_1
 62
7
100
AcDbLine
 10
275.547418
 20
19.602604
 30
0.0
 11
275.547418
 21
19.602604
 31
0.0
  0
LINE
  5
517
100
AcDbEntity
  8
Layer_1
 62
7
100
AcDbLine
 10
283.275456
 20
15.837804
 30
0.0
 11
282.239164
 21
15.837804
 31
0.0
  0
LINE
  5
518
100
AcDbEntity
  8
Layer_1
 62
7
100
AcDbLine
 10
282.239164
 20
15.837804
 30
0.0
 11
282.239164
 21
19.343532
 31
0.0
  0
SPLINE
  5
519
100
AcDbEntity
  8
Layer_1
 62
7
100
AcDbSpline
 70
8
 71
3
 72
8
 73
4
 74
0
 40
0
 40
0
 40
0
 40
0
 40
1
 40
1
 40
1
 40
1
 10
282.239164
 20
19.343532
 30
0.0
 10
282.239164
 20
19.626490
 30
0.0
 10
282.222626
 20
19.891074
 30
0.0
 10
282.189549
 20
20.137283
 30
0.0
  0
SPLINE
  5
51a
100
AcDbEntity
  8
Layer_1
 62
7
100
AcDbSpline
 70
8
 71
3
 72
8
 73
4
 74
0
 40
0
 40
0
 40
0
 40
0
 40
1
 40
1
 40
1
 40
1
 10
282.189549
 20
20.137283
 30
0.0
 10
282.156491
 20
20.387167
 30
0.0
 10
282.095861
 20
20.581930
 30
0.0
 10
282.007657
 20
20.721571
 30
0.0
  0
SPLINE
  5
51b
100
AcDbEntity
  8
Layer_1
 62
7
100
AcDbSpline
 70
8
 71
3
 72
8
 73
4
 74
0
 40
0
 40
0
 40
0
 40
0
 40
1
 40
1
 40
1
 40
1
 10
282.007657
 20
20.721571
 30
0.0
 10
281.915784
 20
20.875911
 30
0.0
 10
281.783497
 20
20.989829
 30
0.0
 10
281.610796
 20
21.063324
 30
0.0
  0
SPLINE
  5
51c
100
AcDbEntity
  8
Layer_1
 62
7
100
AcDbSpline
 70
8
 71
3
 72
8
 73
4
 74
0
 40
0
 40
0
 40
0
 40
0
 40
1
 40
1
 40
1
 40
1
 10
281.610796
 20
21.063324
 30
0.0
 10
281.438076
 20
21.140494
 30
0.0
 10
281.213916
 20
21.179080
 30
0.0
 10
280.938317
 20
21.179080
 30
0.0
  0
SPLINE
  5
51d
100
AcDbEntity
  8
Layer_1
 62
7
100
AcDbSpline
 70
8
 71
3
 72
8
 73
4
 74
0
 40
0
 40
0
 40
0
 40
0
 40
1
 40
1
 40
1
 40
1
 10
280.938317
 20
21.179080
 30
0.0
 10
280.655342
 20
21.179080
 30
0.0
 10
280.359517
 20
21.109259
 30
0.0
 10
280.050841
 20
20.969618
 30
0.0
  0
SPLINE
  5
51e
100
AcDbEntity
  8
Layer_1
 62
7
100
AcDbSpline
 70
8
 71
3
 72
8
 73
4
 74
0
 40
0
 40
0
 40
0
 40
0
 40
1
 40
1
 40
1
 40
1
 10
280.050841
 20
20.969618
 30
0.0
 10
279.742165
 20
20.829977
 30
0.0
 10
279.446349
 20
20.651750
 30
0.0
 10
279.163393
 20
20.434939
 30
0.0
  0
LINE
  5
51f
100
AcDbEntity
  8
Layer_1
 62
7
100
AcDbLine
 10
279.163393
 20
20.434939
 30
0.0
 11
279.163393
 21
15.837804
 31
0.0
  0
LINE
  5
520
100
AcDbEntity
  8
Layer_1
 62
7
100
AcDbLine
 10
279.163393
 20
15.837804
 30
0.0
 11
278.127101
 21
15.837804
 31
0.0
  0
LINE
  5
521
100
AcDbEntity
  8
Layer_1
 62
7
100
AcDbLine
 10
278.127101
 20
15.837804
 30
0.0
 11
278.127101
 21
21.994878
 31
0.0
  0
LINE
  5
522
100
AcDbEntity
  8
Layer_1
 62
7
100
AcDbLine
 10
278.127101
 20
21.994878
 30
0.0
 11
279.163393
 21
21.994878
 31
0.0
  0
LINE
  5
523
100
AcDbEntity
  8
Layer_1
 62
7
100
AcDbLine
 10
279.163393
 20
21.994878
 30
0.0
 11
279.163393
 21
21.311371
 31
0.0
  0
SPLINE
  5
524
100
AcDbEntity
  8
Layer_1
 62
7
100
AcDbSpline
 70
8
 71
3
 72
8
 73
4
 74
0
 40
0
 40
0
 40
0
 40
0
 40
1
 40
1
 40
1
 40
1
 10
279.163393
 20
21.311371
 30
0.0
 10
279.486763
 20
21.579629
 30
0.0
 10
279.821168
 20
21.789091
 30
0.0
 10
280.166608
 20
21.939757
 30
0.0
  0
SPLINE
  5
525
100
AcDbEntity
  8
Layer_1
 62
7
100
AcDbSpline
 70
8
 71
3
 72
8
 73
4
 74
0
 40
0
 40
0
 40
0
 40
0
 40
1
 40
1
 40
1
 40
1
 10
280.166608
 20
21.939757
 30
0.0
 10
280.512030
 20
22.090422
 30
0.0
 10
280.866642
 20
22.165755
 30
0.0
 10
281.230445
 20
22.165755
 30
0.0
  0
SPLINE
  5
526
100
AcDbEntity
  8
Layer_1
 62
7
100
AcDbSpline
 70
8
 71
3
 72
8
 73
4
 74
0
 40
0
 40
0
 40
0
 40
0
 40
1
 40
1
 40
1
 40
1
 10
281.230445
 20
22.165755
 30
0.0
 10
281.895586
 20
22.165755
 30
0.0
 10
282.402702
 20
21.965480
 30
0.0
 10
282.751792
 20
21.564930
 30
0.0
  0
SPLINE
  5
527
100
AcDbEntity
  8
Layer_1
 62
7
100
AcDbSpline
 70
8
 71
3
 72
8
 73
4
 74
0
 40
0
 40
0
 40
0
 40
0
 40
1
 40
1
 40
1
 40
1
 10
282.751792
 20
21.564930
 30
0.0
 10
283.100901
 20
21.164381
 30
0.0
 10
283.275456
 20
20.587442
 30
0.0
 10
283.275456
 20
19.834113
 30
0.0
  0
LINE
  5
528
100
AcDbEntity
  8
Layer_1
 62
7
100
AcDbLine
 10
283.275456
 20
19.834113
 30
0.0
 11
283.275456
 21
15.837804
 31
0.0
  0
LINE
  5
529
100
AcDbEntity
  8
Layer_1
 62
7
100
AcDbLine
 10
283.275456
 20
15.837804
 30
0.0
 11
283.275456
 21
15.837804
 31
0.0
  0
SPLINE
  5
52a
100
AcDbEntity
  8
Layer_1
 62
7
100
AcDbSpline
 70
8
 71
3
 72
8
 73
4
 74
0
 40
0
 40
0
 40
0
 40
0
 40
1
 40
1
 40
1
 40
1
 10
289.823886
 20
16.223653
 30
0.0
 10
289.478465
 20
16.058290
 30
0.0
 10
289.149572
 20
15.929673
 30
0.0
 10
288.837209
 20
15.837804
 30
0.0
  0
SPLINE
  5
52b
100
AcDbEntity
  8
Layer_1
 62
7
100
AcDbSpline
 70
8
 71
3
 72
8
 73
4
 74
0
 40
0
 40
0
 40
0
 40
0
 40
1
 40
1
 40
1
 40
1
 10
288.837209
 20
15.837804
 30
0.0
 10
288.528533
 20
15.745935
 30
0.0
 10
288.199641
 20
15.700001
 30
0.0
 10
287.850532
 20
15.700001
 30
0.0
  0
SPLINE
  5
52c
100
AcDbEntity
  8
Layer_1
 62
7
100
AcDbSpline
 70
8
 71
3
 72
8
 73
4
 74
0
 40
0
 40
0
 40
0
 40
0
 40
1
 40
1
 40
1
 40
1
 10
287.850532
 20
15.700001
 30
0.0
 10
287.405900
 20
15.700001
 30
0.0
 10
286.998004
 20
15.764309
 30
0.0
 10
286.626844
 20
15.892925
 30
0.0
  0
SPLINE
  5
52d
100
AcDbEntity
  8
Layer_1
 62
7
100
AcDbSpline
 70
8
 71
3
 72
8
 73
4
 74
0
 40
0
 40
0
 40
0
 40
0
 40
1
 40
1
 40
1
 40
1
 10
286.626844
 20
15.892925
 30
0.0
 10
286.255685
 20
16.025216
 30
0.0
 10
285.937818
 20
16.223653
 30
0.0
 10
285.673244
 20
16.488236
 30
0.0
  0
SPLINE
  5
52e
100
AcDbEntity
  8
Layer_1
 62
7
100
AcDbSpline
 70
8
 71
3
 72
8
 73
4
 74
0
 40
0
 40
0
 40
0
 40
0
 40
1
 40
1
 40
1
 40
1
 10
285.673244
 20
16.488236
 30
0.0
 10
285.404982
 20
16.752820
 30
0.0
 10
285.197361
 20
17.087224
 30
0.0
 10
285.050379
 20
17.491449
 30
0.0
  0
SPLINE
  5
52f
100
AcDbEntity
  8
Layer_1
 62
7
100
AcDbSpline
 70
8
 71
3
 72
8
 73
4
 74
0
 40
0
 40
0
 40
0
 40
0
 40
1
 40
1
 40
1
 40
1
 10
285.050379
 20
17.491449
 30
0.0
 10
284.903379
 20
17.895674
 30
0.0
 10
284.829879
 20
18.367881
 30
0.0
 10
284.829879
 20
18.908072
 30
0.0
  0
SPLINE
  5
530
100
AcDbEntity
  8
Layer_1
 62
7
100
AcDbSpline
 70
8
 71
3
 72
8
 73
4
 74
0
 40
0
 40
0
 40
0
 40
0
 40
1
 40
1
 40
1
 40
1
 10
284.829879
 20
18.908072
 30
0.0
 10
284.829879
 20
19.914959
 30
0.0
 10
285.105488
 20
20.705035
 30
0.0
 10
285.656706
 20
21.278298
 30
0.0
  0
SPLINE
  5
531
100
AcDbEntity
  8
Layer_1
 62
7
100
AcDbSpline
 70
8
 71
3
 72
8
 73
4
 74
0
 40
0
 40
0
 40
0
 40
0
 40
1
 40
1
 40
1
 40
1
 10
285.656706
 20
21.278298
 30
0.0
 10
286.211592
 20
21.851562
 30
0.0
 10
286.942867
 20
22.138194
 30
0.0
 10
287.850532
 20
22.138194
 30
0.0
  0
SPLINE
  5
532
100
AcDbEntity
  8
Layer_1
 62
7
100
AcDbSpline
 70
8
 71
3
 72
8
 73
4
 74
0
 40
0
 40
0
 40
0
 40
0
 40
1
 40
1
 40
1
 40
1
 10
287.850532
 20
22.138194
 30
0.0
 10
288.203310
 20
22.138194
 30
0.0
 10
288.548740
 20
22.088585
 30
0.0
 10
288.886824
 20
21.989366
 30
0.0
  0
SPLINE
  5
533
100
AcDbEntity
  8
Layer_1
 62
7
100
AcDbSpline
 70
8
 71
3
 72
8
 73
4
 74
0
 40
0
 40
0
 40
0
 40
0
 40
1
 40
1
 40
1
 40
1
 10
288.886824
 20
21.989366
 30
0.0
 10
289.228576
 20
21.890147
 30
0.0
 10
289.540930
 20
21.768880
 30
0.0
 10
289.823886
 20
21.625564
 30
0.0
  0
LINE
  5
534
100
AcDbEntity
  8
Layer_1
 62
7
100
AcDbLine
 10
289.823886
 20
21.625564
 30
0.0
 11
289.823886
 21
20.473524
 31
0.0
  0
LINE
  5
535
100
AcDbEntity
  8
Layer_1
 62
7
100
AcDbLine
 10
289.823886
 20
20.473524
 30
0.0
 11
289.768768
 21
20.473524
 31
0.0
  0
SPLINE
  5
536
100
AcDbEntity
  8
Layer_1
 62
7
100
AcDbSpline
 70
8
 71
3
 72
8
 73
4
 74
0
 40
0
 40
0
 40
0
 40
0
 40
1
 40
1
 40
1
 40
1
 10
289.768768
 20
20.473524
 30
0.0
 10
289.452736
 20
20.719734
 30
0.0
 10
289.125687
 20
20.908984
 30
0.0
 10
288.787622
 20
21.041276
 30
0.0
  0
SPLINE
  5
537
100
AcDbEntity
  8
Layer_1
 62
7
100
AcDbSpline
 70
8
 71
3
 72
8
 73
4
 74
0
 40
0
 40
0
 40
0
 40
0
 40
1
 40
1
 40
1
 40
1
 10
288.787622
 20
21.041276
 30
0.0
 10
288.453208
 20
21.173567
 30
0.0
 10
288.126150
 20
21.239713
 30
0.0
 10
287.806449
 20
21.239713
 30
0.0
  0
SPLINE
  5
538
100
AcDbEntity
  8
Layer_1
 62
7
100
AcDbSpline
 70
8
 71
3
 72
8
 73
4
 74
0
 40
0
 40
0
 40
0
 40
0
 40
1
 40
1
 40
1
 40
1
 10
287.806449
 20
21.239713
 30
0.0
 10
287.218486
 20
21.239713
 30
0.0
 10
286.753628
 20
21.041276
 30
0.0
 10
286.411876
 20
20.644401
 30
0.0
  0
SPLINE
  5
539
100
AcDbEntity
  8
Layer_1
 62
7
100
AcDbSpline
 70
8
 71
3
 72
8
 73
4
 74
0
 40
0
 40
0
 40
0
 40
0
 40
1
 40
1
 40
1
 40
1
 10
286.411876
 20
20.644401
 30
0.0
 10
286.073792
 20
20.251200
 30
0.0
 10
285.904751
 20
19.672424
 30
0.0
 10
285.904751
 20
18.908072
 30
0.0
  0
SPLINE
  5
53a
100
AcDbEntity
  8
Layer_1
 62
7
100
AcDbSpline
 70
8
 71
3
 72
8
 73
4
 74
0
 40
0
 40
0
 40
0
 40
0
 40
1
 40
1
 40
1
 40
1
 10
285.904751
 20
18.908072
 30
0.0
 10
285.904751
 20
18.165769
 30
0.0
 10
286.070114
 20
17.594342
 30
0.0
 10
286.400841
 20
17.193792
 30
0.0
  0
SPLINE
  5
53b
100
AcDbEntity
  8
Layer_1
 62
7
100
AcDbSpline
 70
8
 71
3
 72
8
 73
4
 74
0
 40
0
 40
0
 40
0
 40
0
 40
1
 40
1
 40
1
 40
1
 10
286.400841
 20
17.193792
 30
0.0
 10
286.735255
 20
16.796918
 30
0.0
 10
287.203791
 20
16.598481
 30
0.0
 10
287.806449
 20
16.598481
 30
0.0
  0
SPLINE
  5
53c
100
AcDbEntity
  8
Layer_1
 62
7
100
AcDbSpline
 70
8
 71
3
 72
8
 73
4
 74
0
 40
0
 40
0
 40
0
 40
0
 40
1
 40
1
 40
1
 40
1
 10
287.806449
 20
16.598481
 30
0.0
 10
288.015914
 20
16.598481
 30
0.0
 10
288.229048
 20
16.626042
 30
0.0
 10
288.445851
 20
16.681163
 30
0.0
  0
SPLINE
  5
53d
100
AcDbEntity
  8
Layer_1
 62
7
100
AcDbSpline
 70
8
 71
3
 72
8
 73
4
 74
0
 40
0
 40
0
 40
0
 40
0
 40
1
 40
1
 40
1
 40
1
 10
288.445851
 20
16.681163
 30
0.0
 10
288.662673
 20
16.736285
 30
0.0
 10
288.857435
 20
16.807943
 30
0.0
 10
289.030136
 20
16.896138
 30
0.0
  0
SPLINE
  5
53e
100
AcDbEntity
  8
Layer_1
 62
7
100
AcDbSpline
 70
8
 71
3
 72
8
 73
4
 74
0
 40
0
 40
0
 40
0
 40
0
 40
1
 40
1
 40
1
 40
1
 10
289.030136
 20
16.896138
 30
0.0
 10
289.180805
 20
16.973307
 30
0.0
 10
289.322283
 20
17.054151
 30
0.0
 10
289.454570
 20
17.138671
 30
0.0
  0
SPLINE
  5
53f
100
AcDbEntity
  8
Layer_1
 62
7
100
AcDbSpline
 70
8
 71
3
 72
8
 73
4
 74
0
 40
0
 40
0
 40
0
 40
0
 40
1
 40
1
 40
1
 40
1
 10
289.454570
 20
17.138671
 30
0.0
 10
289.586876
 20
17.226866
 30
0.0
 10
289.691608
 20
17.302198
 30
0.0
 10
289.768768
 20
17.364669
 30
0.0
  0
LINE
  5
540
100
AcDbEntity
  8
Layer_1
 62
7
100
AcDbLine
 10
289.768768
 20
17.364669
 30
0.0
 11
289.823886
 21
17.364669
 31
0.0
  0
LINE
  5
541
100
AcDbEntity
  8
Layer_1
 62
7
100
AcDbLine
 10
289.823886
 20
17.364669
 30
0.0
 11
289.823886
 21
16.223653
 31
0.0
  0
LINE
  5
542
100
AcDbEntity
  8
Layer_1
 62
7
100
AcDbLine
 10
289.823886
 20
16.223653
 30
0.0
 11
289.823886
 21
16.223653
 31
0.0
  0
LINE
  5
543
100
AcDbEntity
  8
Layer_1
 62
7
100
AcDbLine
 10
296.311695
 20
18.808854
 30
0.0
 11
291.775199
 21
18.808854
 31
0.0
  0
SPLINE
  5
544
100
AcDbEntity
  8
Layer_1
 62
7
100
AcDbSpline
 70
8
 71
3
 72
8
 73
4
 74
0
 40
0
 40
0
 40
0
 40
0
 40
1
 40
1
 40
1
 40
1
 10
291.775199
 20
18.808854
 30
0.0
 10
291.775199
 20
18.430352
 30
0.0
 10
291.832160
 20
18.099624
 30
0.0
 10
291.946084
 20
17.816668
 30
0.0
  0
SPLINE
  5
545
100
AcDbEntity
  8
Layer_1
 62
7
100
AcDbSpline
 70
8
 71
3
 72
8
 73
4
 74
0
 40
0
 40
0
 40
0
 40
0
 40
1
 40
1
 40
1
 40
1
 10
291.946084
 20
17.816668
 30
0.0
 10
292.059989
 20
17.537384
 30
0.0
 10
292.216161
 20
17.307711
 30
0.0
 10
292.414601
 20
17.127647
 30
0.0
  0
SPLINE
  5
546
100
AcDbEntity
  8
Layer_1
 62
7
100
AcDbSpline
 70
8
 71
3
 72
8
 73
4
 74
0
 40
0
 40
0
 40
0
 40
0
 40
1
 40
1
 40
1
 40
1
 10
292.414601
 20
17.127647
 30
0.0
 10
292.605685
 20
16.951259
 30
0.0
 10
292.831688
 20
16.818967
 30
0.0
 10
293.092612
 20
16.730772
 30
0.0
  0
SPLINE
  5
547
100
AcDbEntity
  8
Layer_1
 62
7
100
AcDbSpline
 70
8
 71
3
 72
8
 73
4
 74
0
 40
0
 40
0
 40
0
 40
0
 40
1
 40
1
 40
1
 40
1
 10
293.092612
 20
16.730772
 30
0.0
 10
293.357186
 20
16.642578
 30
0.0
 10
293.647489
 20
16.598481
 30
0.0
 10
293.963522
 20
16.598481
 30
0.0
  0
SPLINE
  5
548
100
AcDbEntity
  8
Layer_1
 62
7
100
AcDbSpline
 70
8
 71
3
 72
8
 73
4
 74
0
 40
0
 40
0
 40
0
 40
0
 40
1
 40
1
 40
1
 40
1
 10
293.963522
 20
16.598481
 30
0.0
 10
294.382452
 20
16.598481
 30
0.0
 10
294.803217
 20
16.681163
 30
0.0
 10
295.225817
 20
16.846529
 30
0.0
  0
SPLINE
  5
549
100
AcDbEntity
  8
Layer_1
 62
7
100
AcDbSpline
 70
8
 71
3
 72
8
 73
4
 74
0
 40
0
 40
0
 40
0
 40
0
 40
1
 40
1
 40
1
 40
1
 10
295.225817
 20
16.846529
 30
0.0
 10
295.652085
 20
17.015567
 30
0.0
 10
295.955248
 20
17.180931
 30
0.0
 10
296.135306
 20
17.342622
 30
0.0
  0
LINE
  5
54a
100
AcDbEntity
  8
Layer_1
 62
7
100
AcDbLine
 10
296.135306
 20
17.342622
 30
0.0
 11
296.190424
 21
17.342622
 31
0.0
  0
LINE
  5
54b
100
AcDbEntity
  8
Layer_1
 62
7
100
AcDbLine
 10
296.190424
 20
17.342622
 30
0.0
 11
296.190424
 21
16.212629
 31
0.0
  0
SPLINE
  5
54c
100
AcDbEntity
  8
Layer_1
 62
7
100
AcDbSpline
 70
8
 71
3
 72
8
 73
4
 74
0
 40
0
 40
0
 40
0
 40
0
 40
1
 40
1
 40
1
 40
1
 10
296.190424
 20
16.212629
 30
0.0
 10
295.841334
 20
16.065639
 30
0.0
 10
295.484887
 20
15.942534
 30
0.0
 10
295.121084
 20
15.843316
 30
0.0
  0
SPLINE
  5
54d
100
AcDbEntity
  8
Layer_1
 62
7
100
AcDbSpline
 70
8
 71
3
 72
8
 73
4
 74
0
 40
0
 40
0
 40
0
 40
0
 40
1
 40
1
 40
1
 40
1
 10
295.121084
 20
15.843316
 30
0.0
 10
294.757281
 20
15.744096
 30
0.0
 10
294.375105
 20
15.694486
 30
0.0
 10
293.974556
 20
15.694486
 30
0.0
  0
SPLINE
  5
54e
100
AcDbEntity
  8
Layer_1
 62
7
100
AcDbSpline
 70
8
 71
3
 72
8
 73
4
 74
0
 40
0
 40
0
 40
0
 40
0
 40
1
 40
1
 40
1
 40
1
 10
293.974556
 20
15.694486
 30
0.0
 10
292.952968
 20
15.694486
 30
0.0
 10
292.155540
 20
15.970094
 30
0.0
 10
291.582272
 20
16.521310
 30
0.0
  0
SPLINE
  5
54f
100
AcDbEntity
  8
Layer_1
 62
7
100
AcDbSpline
 70
8
 71
3
 72
8
 73
4
 74
0
 40
0
 40
0
 40
0
 40
0
 40
1
 40
1
 40
1
 40
1
 10
291.582272
 20
16.521310
 30
0.0
 10
291.009003
 20
17.076200
 30
0.0
 10
290.722369
 20
17.862601
 30
0.0
 10
290.722369
 20
18.880513
 30
0.0
  0
SPLINE
  5
550
100
AcDbEntity
  8
Layer_1
 62
7
100
AcDbSpline
 70
8
 71
3
 72
8
 73
4
 74
0
 40
0
 40
0
 40
0
 40
0
 40
1
 40
1
 40
1
 40
1
 10
290.722369
 20
18.880513
 30
0.0
 10
290.722369
 20
19.887399
 30
0.0
 10
290.996143
 20
20.686661
 30
0.0
 10
291.543692
 20
21.278298
 30
0.0
  0
SPLINE
  5
551
100
AcDbEntity
  8
Layer_1
 62
7
100
AcDbSpline
 70
8
 71
3
 72
8
 73
4
 74
0
 40
0
 40
0
 40
0
 40
0
 40
1
 40
1
 40
1
 40
1
 10
291.543692
 20
21.278298
 30
0.0
 10
292.094909
 20
21.869936
 30
0.0
 10
292.818838
 20
22.165755
 30
0.0
 10
293.715476
 20
22.165755
 30
0.0
  0
SPLINE
  5
552
100
AcDbEntity
  8
Layer_1
 62
7
100
AcDbSpline
 70
8
 71
3
 72
8
 73
4
 74
0
 40
0
 40
0
 40
0
 40
0
 40
1
 40
1
 40
1
 40
1
 10
293.715476
 20
22.165755
 30
0.0
 10
294.545981
 20
22.165755
 30
0.0
 10
295.185393
 20
21.923220
 30
0.0
 10
295.633713
 20
21.438151
 30
0.0
  0
SPLINE
  5
553
100
AcDbEntity
  8
Layer_1
 62
7
100
AcDbSpline
 70
8
 71
3
 72
8
 73
4
 74
0
 40
0
 40
0
 40
0
 40
0
 40
1
 40
1
 40
1
 40
1
 10
295.633713
 20
21.438151
 30
0.0
 10
296.085701
 20
20.953081
 30
0.0
 10
296.311695
 20
20.264062
 30
0.0
 10
296.311695
 20
19.371094
 30
0.0
  0
LINE
  5
554
100
AcDbEntity
  8
Layer_1
 62
7
100
AcDbLine
 10
296.311695
 20
19.371094
 30
0.0
 11
296.311695
 21
18.808854
 31
0.0
  0
LINE
  5
555
100
AcDbEntity
  8
Layer_1
 62
7
100
AcDbLine
 10
296.311695
 20
18.808854
 30
0.0
 11
296.311695
 21
18.808854
 31
0.0
  0
SPLINE
  5
556
100
AcDbEntity
  8
Layer_1
 62
7
100
AcDbSpline
 70
8
 71
3
 72
8
 73
4
 74
0
 40
0
 40
0
 40
0
 40
0
 40
1
 40
1
 40
1
 40
1
 10
295.302976
 20
19.602604
 30
0.0
 10
295.299402
 20
20.146470
 30
0.0
 10
295.161592
 20
20.567231
 30
0.0
 10
294.889549
 20
20.864887
 30
0.0
  0
SPLINE
  5
557
100
AcDbEntity
  8
Layer_1
 62
7
100
AcDbSpline
 70
8
 71
3
 72
8
 73
4
 74
0
 40
0
 40
0
 40
0
 40
0
 40
1
 40
1
 40
1
 40
1
 10
294.889549
 20
20.864887
 30
0.0
 10
294.621306
 20
21.162543
 30
0.0
 10
294.211576
 20
21.311371
 30
0.0
 10
293.660358
 20
21.311371
 30
0.0
  0
SPLINE
  5
558
100
AcDbEntity
  8
Layer_1
 62
7
100
AcDbSpline
 70
8
 71
3
 72
8
 73
4
 74
0
 40
0
 40
0
 40
0
 40
0
 40
1
 40
1
 40
1
 40
1
 10
293.660358
 20
21.311371
 30
0.0
 10
293.105472
 20
21.311371
 30
0.0
 10
292.662656
 20
21.147844
 30
0.0
 10
292.331910
 20
20.820790
 30
0.0
  0
SPLINE
  5
559
100
AcDbEntity
  8
Layer_1
 62
7
100
AcDbSpline
 70
8
 71
3
 72
8
 73
4
 74
0
 40
0
 40
0
 40
0
 40
0
 40
1
 40
1
 40
1
 40
1
 10
292.331910
 20
20.820790
 30
0.0
 10
292.004871
 20
20.493735
 30
0.0
 10
291.819301
 20
20.087673
 30
0.0
 10
291.775199
 20
19.602604
 30
0.0
  0
LINE
  5
55a
100
AcDbEntity
  8
Layer_1
 62
7
100
AcDbLine
 10
291.775199
 20
19.602604
 30
0.0
 11
295.302976
 21
19.602604
 31
0.0
  0
LINE
  5
55b
100
AcDbEntity
  8
Layer_1
 62
7
100
AcDbLine
 10
295.302976
 20
19.602604
 30
0.0
 11
295.302976
 21
19.602604
 31
0.0
  0
LINE
  5
55c
100
AcDbEntity
  8
Layer_1
 62
7
100
AcDbLine
 10
302.898734
 20
15.837804
 30
0.0
 11
301.862442
 21
15.837804
 31
0.0
  0
LINE
  5
55d
100
AcDbEntity
  8
Layer_1
 62
7
100
AcDbLine
 10
301.862442
 20
15.837804
 30
0.0
 11
301.862442
 21
24.414713
 31
0.0
  0
LINE
  5
55e
100
AcDbEntity
  8
Layer_1
 62
7
100
AcDbLine
 10
301.862442
 20
24.414713
 30
0.0
 11
302.898734
 21
24.414713
 31
0.0
  0
LINE
  5
55f
100
AcDbEntity
  8
Layer_1
 62
7
100
AcDbLine
 10
302.898734
 20
24.414713
 30
0.0
 11
302.898734
 21
15.837804
 31
0.0
  0
LINE
  5
560
100
AcDbEntity
  8
Layer_1
 62
7
100
AcDbLine
 10
302.898734
 20
15.837804
 30
0.0
 11
302.898734
 21
15.837804
 31
0.0
  0
LINE
  5
561
100
AcDbEntity
  8
Layer_1
 62
7
100
AcDbLine
 10
306.029622
 20
23.025651
 30
0.0
 11
304.861053
 21
23.025651
 31
0.0
  0
LINE
  5
562
100
AcDbEntity
  8
Layer_1
 62
7
100
AcDbLine
 10
304.861053
 20
23.025651
 30
0.0
 11
304.861053
 21
24.100521
 31
0.0
  0
LINE
  5
563
100
AcDbEntity
  8
Layer_1
 62
7
100
AcDbLine
 10
304.861053
 20
24.100521
 30
0.0
 11
306.029622
 21
24.100521
 31
0.0
  0
LINE
  5
564
100
AcDbEntity
  8
Layer_1
 62
7
100
AcDbLine
 10
306.029622
 20
24.100521
 30
0.0
 11
306.029622
 21
23.025651
 31
0.0
  0
LINE
  5
565
100
AcDbEntity
  8
Layer_1
 62
7
100
AcDbLine
 10
306.029622
 20
23.025651
 30
0.0
 11
306.029622
 21
23.025651
 31
0.0
  0
LINE
  5
566
100
AcDbEntity
  8
Layer_1
 62
7
100
AcDbLine
 10
305.963469
 20
15.837804
 30
0.0
 11
304.927206
 21
15.837804
 31
0.0
  0
LINE
  5
567
100
AcDbEntity
  8
Layer_1
 62
7
100
AcDbLine
 10
304.927206
 20
15.837804
 30
0.0
 11
304.927206
 21
21.994878
 31
0.0
  0
LINE
  5
568
100
AcDbEntity
  8
Layer_1
 62
7
100
AcDbLine
 10
304.927206
 20
21.994878
 30
0.0
 11
305.963469
 21
21.994878
 31
0.0
  0
LINE
  5
569
100
AcDbEntity
  8
Layer_1
 62
7
100
AcDbLine
 10
305.963469
 20
21.994878
 30
0.0
 11
305.963469
 21
15.837804
 31
0.0
  0
LINE
  5
56a
100
AcDbEntity
  8
Layer_1
 62
7
100
AcDbLine
 10
305.963469
 20
15.837804
 30
0.0
 11
305.963469
 21
15.837804
 31
0.0
  0
LINE
  5
56b
100
AcDbEntity
  8
Layer_1
 62
7
100
AcDbLine
 10
313.129289
 20
15.837804
 30
0.0
 11
312.092997
 21
15.837804
 31
0.0
  0
LINE
  5
56c
100
AcDbEntity
  8
Layer_1
 62
7
100
AcDbLine
 10
312.092997
 20
15.837804
 30
0.0
 11
312.092997
 21
19.343532
 31
0.0
  0
SPLINE
  5
56d
100
AcDbEntity
  8
Layer_1
 62
7
100
AcDbSpline
 70
8
 71
3
 72
8
 73
4
 74
0
 40
0
 40
0
 40
0
 40
0
 40
1
 40
1
 40
1
 40
1
 10
312.092997
 20
19.343532
 30
0.0
 10
312.092997
 20
19.626490
 30
0.0
 10
312.076459
 20
19.891074
 30
0.0
 10
312.043383
 20
20.137283
 30
0.0
  0
SPLINE
  5
56e
100
AcDbEntity
  8
Layer_1
 62
7
100
AcDbSpline
 70
8
 71
3
 72
8
 73
4
 74
0
 40
0
 40
0
 40
0
 40
0
 40
1
 40
1
 40
1
 40
1
 10
312.043383
 20
20.137283
 30
0.0
 10
312.010306
 20
20.387167
 30
0.0
 10
311.949675
 20
20.581930
 30
0.0
 10
311.861490
 20
20.721571
 30
0.0
  0
SPLINE
  5
56f
100
AcDbEntity
  8
Layer_1
 62
7
100
AcDbSpline
 70
8
 71
3
 72
8
 73
4
 74
0
 40
0
 40
0
 40
0
 40
0
 40
1
 40
1
 40
1
 40
1
 10
311.861490
 20
20.721571
 30
0.0
 10
311.769618
 20
20.875911
 30
0.0
 10
311.637321
 20
20.989829
 30
0.0
 10
311.464601
 20
21.063324
 30
0.0
  0
SPLINE
  5
570
100
AcDbEntity
  8
Layer_1
 62
7
100
AcDbSpline
 70
8
 71
3
 72
8
 73
4
 74
0
 40
0
 40
0
 40
0
 40
0
 40
1
 40
1
 40
1
 40
1
 10
311.464601
 20
21.063324
 30
0.0
 10
311.291881
 20
21.140494
 30
0.0
 10
311.067722
 20
21.179080
 30
0.0
 10
310.792122
 20
21.179080
 30
0.0
  0
SPLINE
  5
571
100
AcDbEntity
  8
Layer_1
 62
7
100
AcDbSpline
 70
8
 71
3
 72
8
 73
4
 74
0
 40
0
 40
0
 40
0
 40
0
 40
1
 40
1
 40
1
 40
1
 10
310.792122
 20
21.179080
 30
0.0
 10
310.509166
 20
21.179080
 30
0.0
 10
310.213350
 20
21.109259
 30
0.0
 10
309.904674
 20
20.969618
 30
0.0
  0
SPLINE
  5
572
100
AcDbEntity
  8
Layer_1
 62
7
100
AcDbSpline
 70
8
 71
3
 72
8
 73
4
 74
0
 40
0
 40
0
 40
0
 40
0
 40
1
 40
1
 40
1
 40
1
 10
309.904674
 20
20.969618
 30
0.0
 10
309.595980
 20
20.829977
 30
0.0
 10
309.300154
 20
20.651750
 30
0.0
 10
309.017198
 20
20.434939
 30
0.0
  0
LINE
  5
573
100
AcDbEntity
  8
Layer_1
 62
7
100
AcDbLine
 10
309.017198
 20
20.434939
 30
0.0
 11
309.017198
 21
15.837804
 31
0.0
  0
LINE
  5
574
100
AcDbEntity
  8
Layer_1
 62
7
100
AcDbLine
 10
309.017198
 20
15.837804
 30
0.0
 11
307.980935
 21
15.837804
 31
0.0
  0
LINE
  5
575
100
AcDbEntity
  8
Layer_1
 62
7
100
AcDbLine
 10
307.980935
 20
15.837804
 30
0.0
 11
307.980935
 21
21.994878
 31
0.0
  0
LINE
  5
576
100
AcDbEntity
  8
Layer_1
 62
7
100
AcDbLine
 10
307.980935
 20
21.994878
 30
0.0
 11
309.017198
 21
21.994878
 31
0.0
  0
LINE
  5
577
100
AcDbEntity
  8
Layer_1
 62
7
100
AcDbLine
 10
309.017198
 20
21.994878
 30
0.0
 11
309.017198
 21
21.311371
 31
0.0
  0
SPLINE
  5
578
100
AcDbEntity
  8
Layer_1
 62
7
100
AcDbSpline
 70
8
 71
3
 72
8
 73
4
 74
0
 40
0
 40
0
 40
0
 40
0
 40
1
 40
1
 40
1
 40
1
 10
309.017198
 20
21.311371
 30
0.0
 10
309.340587
 20
21.579629
 30
0.0
 10
309.674993
 20
21.789091
 30
0.0
 10
310.020414
 20
21.939757
 30
0.0
  0
SPLINE
  5
579
100
AcDbEntity
  8
Layer_1
 62
7
100
AcDbSpline
 70
8
 71
3
 72
8
 73
4
 74
0
 40
0
 40
0
 40
0
 40
0
 40
1
 40
1
 40
1
 40
1
 10
310.020414
 20
21.939757
 30
0.0
 10
310.365854
 20
22.090422
 30
0.0
 10
310.720475
 20
22.165755
 30
0.0
 10
311.084279
 20
22.165755
 30
0.0
  0
SPLINE
  5
57a
100
AcDbEntity
  8
Layer_1
 62
7
100
AcDbSpline
 70
8
 71
3
 72
8
 73
4
 74
0
 40
0
 40
0
 40
0
 40
0
 40
1
 40
1
 40
1
 40
1
 10
311.084279
 20
22.165755
 30
0.0
 10
311.749401
 20
22.165755
 30
0.0
 10
312.256517
 20
21.965480
 30
0.0
 10
312.605626
 20
21.564930
 30
0.0
  0
SPLINE
  5
57b
100
AcDbEntity
  8
Layer_1
 62
7
100
AcDbSpline
 70
8
 71
3
 72
8
 73
4
 74
0
 40
0
 40
0
 40
0
 40
0
 40
1
 40
1
 40
1
 40
1
 10
312.605626
 20
21.564930
 30
0.0
 10
312.954735
 20
21.164381
 30
0.0
 10
313.129289
 20
20.587442
 30
0.0
 10
313.129289
 20
19.834113
 30
0.0
  0
LINE
  5
57c
100
AcDbEntity
  8
Layer_1
 62
7
100
AcDbLine
 10
313.129289
 20
19.834113
 30
0.0
 11
313.129289
 21
15.837804
 31
0.0
  0
LINE
  5
57d
100
AcDbEntity
  8
Layer_1
 62
7
100
AcDbLine
 10
313.129289
 20
15.837804
 30
0.0
 11
313.129289
 21
15.837804
 31
0.0
  0
LINE
  5
57e
100
AcDbEntity
  8
Layer_1
 62
7
100
AcDbLine
 10
320.278542
 20
18.808854
 30
0.0
 11
315.742046
 21
18.808854
 31
0.0
  0
SPLINE
  5
57f
100
AcDbEntity
  8
Layer_1
 62
7
100
AcDbSpline
 70
8
 71
3
 72
8
 73
4
 74
0
 40
0
 40
0
 40
0
 40
0
 40
1
 40
1
 40
1
 40
1
 10
315.742046
 20
18.808854
 30
0.0
 10
315.742046
 20
18.430352
 30
0.0
 10
315.798998
 20
18.099624
 30
0.0
 10
315.912903
 20
17.816668
 30
0.0
  0
SPLINE
  5
580
100
AcDbEntity
  8
Layer_1
 62
7
100
AcDbSpline
 70
8
 71
3
 72
8
 73
4
 74
0
 40
0
 40
0
 40
0
 40
0
 40
1
 40
1
 40
1
 40
1
 10
315.912903
 20
17.816668
 30
0.0
 10
316.026827
 20
17.537384
 30
0.0
 10
316.183009
 20
17.307711
 30
0.0
 10
316.381449
 20
17.127647
 30
0.0
  0
SPLINE
  5
581
100
AcDbEntity
  8
Layer_1
 62
7
100
AcDbSpline
 70
8
 71
3
 72
8
 73
4
 74
0
 40
0
 40
0
 40
0
 40
0
 40
1
 40
1
 40
1
 40
1
 10
316.381449
 20
17.127647
 30
0.0
 10
316.572532
 20
16.951259
 30
0.0
 10
316.798526
 20
16.818967
 30
0.0
 10
317.059431
 20
16.730772
 30
0.0
  0
SPLINE
  5
582
100
AcDbEntity
  8
Layer_1
 62
7
100
AcDbSpline
 70
8
 71
3
 72
8
 73
4
 74
0
 40
0
 40
0
 40
0
 40
0
 40
1
 40
1
 40
1
 40
1
 10
317.059431
 20
16.730772
 30
0.0
 10
317.324024
 20
16.642578
 30
0.0
 10
317.614336
 20
16.598481
 30
0.0
 10
317.930369
 20
16.598481
 30
0.0
  0
SPLINE
  5
583
100
AcDbEntity
  8
Layer_1
 62
7
100
AcDbSpline
 70
8
 71
3
 72
8
 73
4
 74
0
 40
0
 40
0
 40
0
 40
0
 40
1
 40
1
 40
1
 40
1
 10
317.930369
 20
16.598481
 30
0.0
 10
318.349281
 20
16.598481
 30
0.0
 10
318.770036
 20
16.681163
 30
0.0
 10
319.192636
 20
16.846529
 30
0.0
  0
SPLINE
  5
584
100
AcDbEntity
  8
Layer_1
 62
7
100
AcDbSpline
 70
8
 71
3
 72
8
 73
4
 74
0
 40
0
 40
0
 40
0
 40
0
 40
1
 40
1
 40
1
 40
1
 10
319.192636
 20
16.846529
 30
0.0
 10
319.618923
 20
17.015567
 30
0.0
 10
319.922096
 20
17.180931
 30
0.0
 10
320.102154
 20
17.342622
 30
0.0
  0
LINE
  5
585
100
AcDbEntity
  8
Layer_1
 62
7
100
AcDbLine
 10
320.102154
 20
17.342622
 30
0.0
 11
320.157272
 21
17.342622
 31
0.0
  0
LINE
  5
586
100
AcDbEntity
  8
Layer_1
 62
7
100
AcDbLine
 10
320.157272
 20
17.342622
 30
0.0
 11
320.157272
 21
16.212629
 31
0.0
  0
SPLINE
  5
587
100
AcDbEntity
  8
Layer_1
 62
7
100
AcDbSpline
 70
8
 71
3
 72
8
 73
4
 74
0
 40
0
 40
0
 40
0
 40
0
 40
1
 40
1
 40
1
 40
1
 10
320.157272
 20
16.212629
 30
0.0
 10
319.808163
 20
16.065639
 30
0.0
 10
319.451707
 20
15.942534
 30
0.0
 10
319.087903
 20
15.843316
 30
0.0
  0
SPLINE
  5
588
100
AcDbEntity
  8
Layer_1
 62
7
100
AcDbSpline
 70
8
 71
3
 72
8
 73
4
 74
0
 40
0
 40
0
 40
0
 40
0
 40
1
 40
1
 40
1
 40
1
 10
319.087903
 20
15.843316
 30
0.0
 10
318.724100
 20
15.744096
 30
0.0
 10
318.341924
 20
15.694486
 30
0.0
 10
317.941376
 20
15.694486
 30
0.0
  0
SPLINE
  5
589
100
AcDbEntity
  8
Layer_1
 62
7
100
AcDbSpline
 70
8
 71
3
 72
8
 73
4
 74
0
 40
0
 40
0
 40
0
 40
0
 40
1
 40
1
 40
1
 40
1
 10
317.941376
 20
15.694486
 30
0.0
 10
316.919788
 20
15.694486
 30
0.0
 10
316.122369
 20
15.970094
 30
0.0
 10
315.549119
 20
16.521310
 30
0.0
  0
SPLINE
  5
58a
100
AcDbEntity
  8
Layer_1
 62
7
100
AcDbSpline
 70
8
 71
3
 72
8
 73
4
 74
0
 40
0
 40
0
 40
0
 40
0
 40
1
 40
1
 40
1
 40
1
 10
315.549119
 20
16.521310
 30
0.0
 10
314.975850
 20
17.076200
 30
0.0
 10
314.689216
 20
17.862601
 30
0.0
 10
314.689216
 20
18.880513
 30
0.0
  0
SPLINE
  5
58b
100
AcDbEntity
  8
Layer_1
 62
7
100
AcDbSpline
 70
8
 71
3
 72
8
 73
4
 74
0
 40
0
 40
0
 40
0
 40
0
 40
1
 40
1
 40
1
 40
1
 10
314.689216
 20
18.880513
 30
0.0
 10
314.689216
 20
19.887399
 30
0.0
 10
314.962990
 20
20.686661
 30
0.0
 10
315.510539
 20
21.278298
 30
0.0
  0
SPLINE
  5
58c
100
AcDbEntity
  8
Layer_1
 62
7
100
AcDbSpline
 70
8
 71
3
 72
8
 73
4
 74
0
 40
0
 40
0
 40
0
 40
0
 40
1
 40
1
 40
1
 40
1
 10
315.510539
 20
21.278298
 30
0.0
 10
316.061738
 20
21.869936
 30
0.0
 10
316.785666
 20
22.165755
 30
0.0
 10
317.682324
 20
22.165755
 30
0.0
  0
SPLINE
  5
58d
100
AcDbEntity
  8
Layer_1
 62
7
100
AcDbSpline
 70
8
 71
3
 72
8
 73
4
 74
0
 40
0
 40
0
 40
0
 40
0
 40
1
 40
1
 40
1
 40
1
 10
317.682324
 20
22.165755
 30
0.0
 10
318.512810
 20
22.165755
 30
0.0
 10
319.152212
 20
21.923220
 30
0.0
 10
319.600532
 20
21.438151
 30
0.0
  0
SPLINE
  5
58e
100
AcDbEntity
  8
Layer_1
 62
7
100
AcDbSpline
 70
8
 71
3
 72
8
 73
4
 74
0
 40
0
 40
0
 40
0
 40
0
 40
1
 40
1
 40
1
 40
1
 10
319.600532
 20
21.438151
 30
0.0
 10
320.052539
 20
20.953081
 30
0.0
 10
320.278542
 20
20.264062
 30
0.0
 10
320.278542
 20
19.371094
 30
0.0
  0
LINE
  5
58f
100
AcDbEntity
  8
Layer_1
 62
7
100
AcDbLine
 10
320.278542
 20
19.371094
 30
0.0
 11
320.278542
 21
18.808854
 31
0.0
  0
LINE
  5
590
100
AcDbEntity
  8
Layer_1
 62
7
100
AcDbLine
 10
320.278542
 20
18.808854
 30
0.0
 11
320.278542
 21
18.808854
 31
0.0
  0
SPLINE
  5
591
100
AcDbEntity
  8
Layer_1
 62
7
100
AcDbSpline
 70
8
 71
3
 72
8
 73
4
 74
0
 40
0
 40
0
 40
0
 40
0
 40
1
 40
1
 40
1
 40
1
 10
319.269824
 20
19.602604
 30
0.0
 10
319.266061
 20
20.146470
 30
0.0
 10
319.128252
 20
20.567231
 30
0.0
 10
318.856396
 20
20.864887
 30
0.0
  0
SPLINE
  5
592
100
AcDbEntity
  8
Layer_1
 62
7
100
AcDbSpline
 70
8
 71
3
 72
8
 73
4
 74
0
 40
0
 40
0
 40
0
 40
0
 40
1
 40
1
 40
1
 40
1
 10
318.856396
 20
20.864887
 30
0.0
 10
318.588135
 20
21.162543
 30
0.0
 10
318.178405
 20
21.311371
 30
0.0
 10
317.627206
 20
21.311371
 30
0.0
  0
SPLINE
  5
593
100
AcDbEntity
  8
Layer_1
 62
7
100
AcDbSpline
 70
8
 71
3
 72
8
 73
4
 74
0
 40
0
 40
0
 40
0
 40
0
 40
1
 40
1
 40
1
 40
1
 10
317.627206
 20
21.311371
 30
0.0
 10
317.072300
 20
21.311371
 30
0.0
 10
316.629484
 20
21.147844
 30
0.0
 10
316.298758
 20
20.820790
 30
0.0
  0
SPLINE
  5
594
100
AcDbEntity
  8
Layer_1
 62
7
100
AcDbSpline
 70
8
 71
3
 72
8
 73
4
 74
0
 40
0
 40
0
 40
0
 40
0
 40
1
 40
1
 40
1
 40
1
 10
316.298758
 20
20.820790
 30
0.0
 10
315.971700
 20
20.493735
 30
0.0
 10
315.786129
 20
20.087673
 30
0.0
 10
315.742046
 20
19.602604
 30
0.0
  0
LINE
  5
595
100
AcDbEntity
  8
Layer_1
 62
7
100
AcDbLine
 10
315.742046
 20
19.602604
 30
0.0
 11
319.269824
 21
19.602604
 31
0.0
  0
LINE
  5
596
100
AcDbEntity
  8
Layer_1
 62
7
100
AcDbLine
 10
319.269824
 20
19.602604
 30
0.0
 11
319.269824
 21
19.602604
 31
0.0
  0
LINE
  5
597
100
AcDbEntity
  8
Layer_1
 62
7
100
AcDbLine
 10
329.114525
 20
13.566796
 30
0.0
 11
327.852230
 21
13.566796
 31
0.0
  0
SPLINE
  5
598
100
AcDbEntity
  8
Layer_1
 62
7
100
AcDbSpline
 70
8
 71
3
 72
8
 73
4
 74
0
 40
0
 40
0
 40
0
 40
0
 40
1
 40
1
 40
1
 40
1
 10
327.852230
 20
13.566796
 30
0.0
 10
327.201802
 20
14.312775
 30
0.0
 10
326.696520
 20
15.126737
 30
0.0
 10
326.336386
 20
16.008682
 30
0.0
  0
SPLINE
  5
599
100
AcDbEntity
  8
Layer_1
 62
7
100
AcDbSpline
 70
8
 71
3
 72
8
 73
4
 74
0
 40
0
 40
0
 40
0
 40
0
 40
1
 40
1
 40
1
 40
1
 10
326.336386
 20
16.008682
 30
0.0
 10
325.976270
 20
16.890626
 30
0.0
 10
325.796213
 20
17.884650
 30
0.0
 10
325.796213
 20
18.990754
 30
0.0
  0
SPLINE
  5
59a
100
AcDbEntity
  8
Layer_1
 62
7
100
AcDbSpline
 70
8
 71
3
 72
8
 73
4
 74
0
 40
0
 40
0
 40
0
 40
0
 40
1
 40
1
 40
1
 40
1
 10
325.796213
 20
18.990754
 30
0.0
 10
325.796213
 20
20.096860
 30
0.0
 10
325.976270
 20
21.090885
 30
0.0
 10
326.336386
 20
21.972830
 30
0.0
  0
SPLINE
  5
59b
100
AcDbEntity
  8
Layer_1
 62
7
100
AcDbSpline
 70
8
 71
3
 72
8
 73
4
 74
0
 40
0
 40
0
 40
0
 40
0
 40
1
 40
1
 40
1
 40
1
 10
326.336386
 20
21.972830
 30
0.0
 10
326.696520
 20
22.854774
 30
0.0
 10
327.201802
 20
23.668735
 30
0.0
 10
327.852230
 20
24.414713
 30
0.0
  0
LINE
  5
59c
100
AcDbEntity
  8
Layer_1
 62
7
100
AcDbLine
 10
327.852230
 20
24.414713
 30
0.0
 11
329.114525
 21
24.414713
 31
0.0
  0
LINE
  5
59d
100
AcDbEntity
  8
Layer_1
 62
7
100
AcDbLine
 10
329.114525
 20
24.414713
 30
0.0
 11
329.114525
 21
24.359592
 31
0.0
  0
SPLINE
  5
59e
100
AcDbEntity
  8
Layer_1
 62
7
100
AcDbSpline
 70
8
 71
3
 72
8
 73
4
 74
0
 40
0
 40
0
 40
0
 40
0
 40
1
 40
1
 40
1
 40
1
 10
329.114525
 20
24.359592
 30
0.0
 10
328.816856
 20
24.091334
 30
0.0
 10
328.532056
 20
23.780816
 30
0.0
 10
328.260126
 20
23.428038
 30
0.0
  0
SPLINE
  5
59f
100
AcDbEntity
  8
Layer_1
 62
7
100
AcDbSpline
 70
8
 71
3
 72
8
 73
4
 74
0
 40
0
 40
0
 40
0
 40
0
 40
1
 40
1
 40
1
 40
1
 10
328.260126
 20
23.428038
 30
0.0
 10
327.991883
 20
23.078935
 30
0.0
 10
327.742003
 20
22.671036
 30
0.0
 10
327.510487
 20
22.204340
 30
0.0
  0
SPLINE
  5
5a0
100
AcDbEntity
  8
Layer_1
 62
7
100
AcDbSpline
 70
8
 71
3
 72
8
 73
4
 74
0
 40
0
 40
0
 40
0
 40
0
 40
1
 40
1
 40
1
 40
1
 10
327.510487
 20
22.204340
 30
0.0
 10
327.289996
 20
21.752344
 30
0.0
 10
327.109929
 20
21.254412
 30
0.0
 10
326.970285
 20
20.710547
 30
0.0
  0
SPLINE
  5
5a1
100
AcDbEntity
  8
Layer_1
 62
7
100
AcDbSpline
 70
8
 71
3
 72
8
 73
4
 74
0
 40
0
 40
0
 40
0
 40
0
 40
1
 40
1
 40
1
 40
1
 10
326.970285
 20
20.710547
 30
0.0
 10
326.834329
 20
20.166681
 30
0.0
 10
326.766352
 20
19.593417
 30
0.0
 10
326.766352
 20
18.990754
 30
0.0
  0
SPLINE
  5
5a2
100
AcDbEntity
  8
Layer_1
 62
7
100
AcDbSpline
 70
8
 71
3
 72
8
 73
4
 74
0
 40
0
 40
0
 40
0
 40
0
 40
1
 40
1
 40
1
 40
1
 10
326.766352
 20
18.990754
 30
0.0
 10
326.766352
 20
18.362370
 30
0.0
 10
326.832495
 20
17.787269
 30
0.0
 10
326.964782
 20
17.265451
 30
0.0
  0
SPLINE
  5
5a3
100
AcDbEntity
  8
Layer_1
 62
7
100
AcDbSpline
 70
8
 71
3
 72
8
 73
4
 74
0
 40
0
 40
0
 40
0
 40
0
 40
1
 40
1
 40
1
 40
1
 10
326.964782
 20
17.265451
 30
0.0
 10
327.100738
 20
16.743633
 30
0.0
 10
327.282639
 20
16.247539
 30
0.0
 10
327.510487
 20
15.777169
 30
0.0
  0
SPLINE
  5
5a4
100
AcDbEntity
  8
Layer_1
 62
7
100
AcDbSpline
 70
8
 71
3
 72
8
 73
4
 74
0
 40
0
 40
0
 40
0
 40
0
 40
1
 40
1
 40
1
 40
1
 10
327.510487
 20
15.777169
 30
0.0
 10
327.730978
 20
15.325173
 30
0.0
 10
327.982701
 20
14.917275
 30
0.0
 10
328.265657
 20
14.553473
 30
0.0
  0
SPLINE
  5
5a5
100
AcDbEntity
  8
Layer_1
 62
7
100
AcDbSpline
 70
8
 71
3
 72
8
 73
4
 74
0
 40
0
 40
0
 40
0
 40
0
 40
1
 40
1
 40
1
 40
1
 10
328.265657
 20
14.553473
 30
0.0
 10
328.548613
 20
14.185995
 30
0.0
 10
328.831569
 20
13.875477
 30
0.0
 10
329.114525
 20
13.621917
 30
0.0
  0
LINE
  5
5a6
100
AcDbEntity
  8
Layer_1
 62
7
100
AcDbLine
 10
329.114525
 20
13.621917
 30
0.0
 11
329.114525
 21
13.566796
 31
0.0
  0
LINE
  5
5a7
100
AcDbEntity
  8
Layer_1
 62
7
100
AcDbLine
 10
329.114525
 20
13.566796
 30
0.0
 11
329.114525
 21
13.566796
 31
0.0
  0
LINE
  5
5a8
100
AcDbEntity
  8
Layer_1
 62
7
100
AcDbLine
 10
335.949580
 20
15.837804
 30
0.0
 11
334.913317
 21
15.837804
 31
0.0
  0
LINE
  5
5a9
100
AcDbEntity
  8
Layer_1
 62
7
100
AcDbLine
 10
334.913317
 20
15.837804
 30
0.0
 11
334.913317
 21
16.482725
 31
0.0
  0
SPLINE
  5
5aa
100
AcDbEntity
  8
Layer_1
 62
7
100
AcDbSpline
 70
8
 71
3
 72
8
 73
4
 74
0
 40
0
 40
0
 40
0
 40
0
 40
1
 40
1
 40
1
 40
1
 10
334.913317
 20
16.482725
 30
0.0
 10
334.615648
 20
16.225492
 30
0.0
 10
334.305128
 20
16.025218
 30
0.0
 10
333.981758
 20
15.881902
 30
0.0
  0
SPLINE
  5
5ab
100
AcDbEntity
  8
Layer_1
 62
7
100
AcDbSpline
 70
8
 71
3
 72
8
 73
4
 74
0
 40
0
 40
0
 40
0
 40
0
 40
1
 40
1
 40
1
 40
1
 10
333.981758
 20
15.881902
 30
0.0
 10
333.658369
 20
15.738585
 30
0.0
 10
333.307425
 20
15.666927
 30
0.0
 10
332.928928
 20
15.666927
 30
0.0
  0
SPLINE
  5
5ac
100
AcDbEntity
  8
Layer_1
 62
7
100
AcDbSpline
 70
8
 71
3
 72
8
 73
4
 74
0
 40
0
 40
0
 40
0
 40
0
 40
1
 40
1
 40
1
 40
1
 10
332.928928
 20
15.666927
 30
0.0
 10
332.193983
 20
15.666927
 30
0.0
 10
331.609699
 20
15.949884
 30
0.0
 10
331.176074
 20
16.515798
 30
0.0
  0
SPLINE
  5
5ad
100
AcDbEntity
  8
Layer_1
 62
7
100
AcDbSpline
 70
8
 71
3
 72
8
 73
4
 74
0
 40
0
 40
0
 40
0
 40
0
 40
1
 40
1
 40
1
 40
1
 10
331.176074
 20
16.515798
 30
0.0
 10
330.746118
 20
17.081712
 30
0.0
 10
330.531140
 20
17.866275
 30
0.0
 10
330.531140
 20
18.869486
 30
0.0
  0
SPLINE
  5
5ae
100
AcDbEntity
  8
Layer_1
 62
7
100
AcDbSpline
 70
8
 71
3
 72
8
 73
4
 74
0
 40
0
 40
0
 40
0
 40
0
 40
1
 40
1
 40
1
 40
1
 10
330.531140
 20
18.869486
 30
0.0
 10
330.531140
 20
19.391304
 30
0.0
 10
330.604640
 20
19.856163
 30
0.0
 10
330.751640
 20
20.264062
 30
0.0
  0
SPLINE
  5
5af
100
AcDbEntity
  8
Layer_1
 62
7
100
AcDbSpline
 70
8
 71
3
 72
8
 73
4
 74
0
 40
0
 40
0
 40
0
 40
0
 40
1
 40
1
 40
1
 40
1
 10
330.751640
 20
20.264062
 30
0.0
 10
330.902290
 20
20.671962
 30
0.0
 10
331.104399
 20
21.019227
 30
0.0
 10
331.357966
 20
21.305859
 30
0.0
  0
SPLINE
  5
5b0
100
AcDbEntity
  8
Layer_1
 62
7
100
AcDbSpline
 70
8
 71
3
 72
8
 73
4
 74
0
 40
0
 40
0
 40
0
 40
0
 40
1
 40
1
 40
1
 40
1
 10
331.357966
 20
21.305859
 30
0.0
 10
331.607846
 20
21.585142
 30
0.0
 10
331.898149
 20
21.798278
 30
0.0
 10
332.228876
 20
21.945269
 30
0.0
  0
SPLINE
  5
5b1
100
AcDbEntity
  8
Layer_1
 62
7
100
AcDbSpline
 70
8
 71
3
 72
8
 73
4
 74
0
 40
0
 40
0
 40
0
 40
0
 40
1
 40
1
 40
1
 40
1
 10
332.228876
 20
21.945269
 30
0.0
 10
332.563290
 20
22.092260
 30
0.0
 10
332.908721
 20
22.165755
 30
0.0
 10
333.265167
 20
22.165755
 30
0.0
  0
SPLINE
  5
5b2
100
AcDbEntity
  8
Layer_1
 62
7
100
AcDbSpline
 70
8
 71
3
 72
8
 73
4
 74
0
 40
0
 40
0
 40
0
 40
0
 40
1
 40
1
 40
1
 40
1
 10
333.265167
 20
22.165755
 30
0.0
 10
333.588556
 20
22.165755
 30
0.0
 10
333.875191
 20
22.130845
 30
0.0
 10
334.125070
 20
22.061024
 30
0.0
  0
SPLINE
  5
5b3
100
AcDbEntity
  8
Layer_1
 62
7
100
AcDbSpline
 70
8
 71
3
 72
8
 73
4
 74
0
 40
0
 40
0
 40
0
 40
0
 40
1
 40
1
 40
1
 40
1
 10
334.125070
 20
22.061024
 30
0.0
 10
334.374950
 20
21.994878
 30
0.0
 10
334.637699
 20
21.890147
 30
0.0
 10
334.913317
 20
21.746831
 30
0.0
  0
LINE
  5
5b4
100
AcDbEntity
  8
Layer_1
 62
7
100
AcDbLine
 10
334.913317
 20
21.746831
 30
0.0
 11
334.913317
 21
24.414713
 31
0.0
  0
LINE
  5
5b5
100
AcDbEntity
  8
Layer_1
 62
7
100
AcDbLine
 10
334.913317
 20
24.414713
 30
0.0
 11
335.949580
 21
24.414713
 31
0.0
  0
LINE
  5
5b6
100
AcDbEntity
  8
Layer_1
 62
7
100
AcDbLine
 10
335.949580
 20
24.414713
 30
0.0
 11
335.949580
 21
15.837804
 31
0.0
  0
LINE
  5
5b7
100
AcDbEntity
  8
Layer_1
 62
7
100
AcDbLine
 10
335.949580
 20
15.837804
 30
0.0
 11
335.949580
 21
15.837804
 31
0.0
  0
LINE
  5
5b8
100
AcDbEntity
  8
Layer_1
 62
7
100
AcDbLine
 10
334.913317
 20
17.353645
 30
0.0
 11
334.913317
 21
20.886936
 31
0.0
  0
SPLINE
  5
5b9
100
AcDbEntity
  8
Layer_1
 62
7
100
AcDbSpline
 70
8
 71
3
 72
8
 73
4
 74
0
 40
0
 40
0
 40
0
 40
0
 40
1
 40
1
 40
1
 40
1
 10
334.913317
 20
20.886936
 30
0.0
 10
334.634030
 20
21.011878
 30
0.0
 10
334.384141
 20
21.098235
 30
0.0
 10
334.163650
 20
21.146007
 30
0.0
  0
SPLINE
  5
5ba
100
AcDbEntity
  8
Layer_1
 62
7
100
AcDbSpline
 70
8
 71
3
 72
8
 73
4
 74
0
 40
0
 40
0
 40
0
 40
0
 40
1
 40
1
 40
1
 40
1
 10
334.163650
 20
21.146007
 30
0.0
 10
333.943159
 20
21.193779
 30
0.0
 10
333.702461
 20
21.217665
 30
0.0
 10
333.441556
 20
21.217665
 30
0.0
  0
SPLINE
  5
5bb
100
AcDbEntity
  8
Layer_1
 62
7
100
AcDbSpline
 70
8
 71
3
 72
8
 73
4
 74
0
 40
0
 40
0
 40
0
 40
0
 40
1
 40
1
 40
1
 40
1
 10
333.441556
 20
21.217665
 30
0.0
 10
332.860950
 20
21.217665
 30
0.0
 10
332.408952
 20
21.015552
 30
0.0
 10
332.085563
 20
20.611328
 30
0.0
  0
SPLINE
  5
5bc
100
AcDbEntity
  8
Layer_1
 62
7
100
AcDbSpline
 70
8
 71
3
 72
8
 73
4
 74
0
 40
0
 40
0
 40
0
 40
0
 40
1
 40
1
 40
1
 40
1
 10
332.085563
 20
20.611328
 30
0.0
 10
331.762193
 20
20.207103
 30
0.0
 10
331.600508
 20
19.633839
 30
0.0
 10
331.600508
 20
18.891536
 30
0.0
  0
SPLINE
  5
5bd
100
AcDbEntity
  8
Layer_1
 62
7
100
AcDbSpline
 70
8
 71
3
 72
8
 73
4
 74
0
 40
0
 40
0
 40
0
 40
0
 40
1
 40
1
 40
1
 40
1
 10
331.600508
 20
18.891536
 30
0.0
 10
331.600508
 20
18.160257
 30
0.0
 10
331.725448
 20
17.603530
 30
0.0
 10
331.975327
 20
17.221354
 30
0.0
  0
SPLINE
  5
5be
100
AcDbEntity
  8
Layer_1
 62
7
100
AcDbSpline
 70
8
 71
3
 72
8
 73
4
 74
0
 40
0
 40
0
 40
0
 40
0
 40
1
 40
1
 40
1
 40
1
 10
331.975327
 20
17.221354
 30
0.0
 10
332.225207
 20
16.842852
 30
0.0
 10
332.625755
 20
16.653602
 30
0.0
 10
333.176973
 20
16.653602
 30
0.0
  0
SPLINE
  5
5bf
100
AcDbEntity
  8
Layer_1
 62
7
100
AcDbSpline
 70
8
 71
3
 72
8
 73
4
 74
0
 40
0
 40
0
 40
0
 40
0
 40
1
 40
1
 40
1
 40
1
 10
333.176973
 20
16.653602
 30
0.0
 10
333.470954
 20
16.653602
 30
0.0
 10
333.768614
 20
16.717911
 30
0.0
 10
334.069952
 20
16.846529
 30
0.0
  0
SPLINE
  5
5c0
100
AcDbEntity
  8
Layer_1
 62
7
100
AcDbSpline
 70
8
 71
3
 72
8
 73
4
 74
0
 40
0
 40
0
 40
0
 40
0
 40
1
 40
1
 40
1
 40
1
 10
334.069952
 20
16.846529
 30
0.0
 10
334.371271
 20
16.978819
 30
0.0
 10
334.652393
 20
17.147858
 30
0.0
 10
334.913317
 20
17.353645
 30
0.0
  0
LINE
  5
5c1
100
AcDbEntity
  8
Layer_1
 62
7
100
AcDbLine
 10
334.913317
 20
17.353645
 30
0.0
 11
334.913317
 21
17.353645
 31
0.0
  0
SPLINE
  5
5c2
100
AcDbEntity
  8
Layer_1
 62
7
100
AcDbSpline
 70
8
 71
3
 72
8
 73
4
 74
0
 40
0
 40
0
 40
0
 40
0
 40
1
 40
1
 40
1
 40
1
 10
343.236643
 20
18.913584
 30
0.0
 10
343.236643
 20
17.910372
 30
0.0
 10
342.979416
 20
17.118460
 30
0.0
 10
342.464963
 20
16.537848
 30
0.0
  0
SPLINE
  5
5c3
100
AcDbEntity
  8
Layer_1
 62
7
100
AcDbSpline
 70
8
 71
3
 72
8
 73
4
 74
0
 40
0
 40
0
 40
0
 40
0
 40
1
 40
1
 40
1
 40
1
 10
342.464963
 20
16.537848
 30
0.0
 10
341.950490
 20
15.957234
 30
0.0
 10
341.261464
 20
15.666927
 30
0.0
 10
340.397882
 20
15.666927
 30
0.0
  0
SPLINE
  5
5c4
100
AcDbEntity
  8
Layer_1
 62
7
100
AcDbSpline
 70
8
 71
3
 72
8
 73
4
 74
0
 40
0
 40
0
 40
0
 40
0
 40
1
 40
1
 40
1
 40
1
 10
340.397882
 20
15.666927
 30
0.0
 10
339.526963
 20
15.666927
 30
0.0
 10
338.834277
 20
15.957234
 30
0.0
 10
338.319824
 20
16.537848
 30
0.0
  0
SPLINE
  5
5c5
100
AcDbEntity
  8
Layer_1
 62
7
100
AcDbSpline
 70
8
 71
3
 72
8
 73
4
 74
0
 40
0
 40
0
 40
0
 40
0
 40
1
 40
1
 40
1
 40
1
 10
338.319824
 20
16.537848
 30
0.0
 10
337.809020
 20
17.118460
 30
0.0
 10
337.553619
 20
17.910372
 30
0.0
 10
337.553619
 20
18.913584
 30
0.0
  0
SPLINE
  5
5c6
100
AcDbEntity
  8
Layer_1
 62
7
100
AcDbSpline
 70
8
 71
3
 72
8
 73
4
 74
0
 40
0
 40
0
 40
0
 40
0
 40
1
 40
1
 40
1
 40
1
 10
337.553619
 20
18.913584
 30
0.0
 10
337.553619
 20
19.916796
 30
0.0
 10
337.809020
 20
20.708709
 30
0.0
 10
338.319824
 20
21.289323
 30
0.0
  0
SPLINE
  5
5c7
100
AcDbEntity
  8
Layer_1
 62
7
100
AcDbSpline
 70
8
 71
3
 72
8
 73
4
 74
0
 40
0
 40
0
 40
0
 40
0
 40
1
 40
1
 40
1
 40
1
 10
338.319824
 20
21.289323
 30
0.0
 10
338.834277
 20
21.873611
 30
0.0
 10
339.526963
 20
22.165755
 30
0.0
 10
340.397882
 20
22.165755
 30
0.0
  0
SPLINE
  5
5c8
100
AcDbEntity
  8
Layer_1
 62
7
100
AcDbSpline
 70
8
 71
3
 72
8
 73
4
 74
0
 40
0
 40
0
 40
0
 40
0
 40
1
 40
1
 40
1
 40
1
 10
340.397882
 20
22.165755
 30
0.0
 10
341.261464
 20
22.165755
 30
0.0
 10
341.950490
 20
21.873611
 30
0.0
 10
342.464963
 20
21.289323
 30
0.0
  0
SPLINE
  5
5c9
100
AcDbEntity
  8
Layer_1
 62
7
100
AcDbSpline
 70
8
 71
3
 72
8
 73
4
 74
0
 40
0
 40
0
 40
0
 40
0
 40
1
 40
1
 40
1
 40
1
 10
342.464963
 20
21.289323
 30
0.0
 10
342.979416
 20
20.708709
 30
0.0
 10
343.236643
 20
19.916796
 30
0.0
 10
343.236643
 20
18.913584
 30
0.0
  0
LINE
  5
5ca
100
AcDbEntity
  8
Layer_1
 62
7
100
AcDbLine
 10
343.236643
 20
18.913584
 30
0.0
 11
343.236643
 21
18.913584
 31
0.0
  0
SPLINE
  5
5cb
100
AcDbEntity
  8
Layer_1
 62
7
100
AcDbSpline
 70
8
 71
3
 72
8
 73
4
 74
0
 40
0
 40
0
 40
0
 40
0
 40
1
 40
1
 40
1
 40
1
 10
342.167303
 20
18.913584
 30
0.0
 10
342.167303
 20
19.711009
 30
0.0
 10
342.011121
 20
20.302647
 30
0.0
 10
341.698758
 20
20.688498
 30
0.0
  0
SPLINE
  5
5cc
100
AcDbEntity
  8
Layer_1
 62
7
100
AcDbSpline
 70
8
 71
3
 72
8
 73
4
 74
0
 40
0
 40
0
 40
0
 40
0
 40
1
 40
1
 40
1
 40
1
 10
341.698758
 20
20.688498
 30
0.0
 10
341.386413
 20
21.078024
 30
0.0
 10
340.952788
 20
21.272786
 30
0.0
 10
340.397882
 20
21.272786
 30
0.0
  0
SPLINE
  5
5cd
100
AcDbEntity
  8
Layer_1
 62
7
100
AcDbSpline
 70
8
 71
3
 72
8
 73
4
 74
0
 40
0
 40
0
 40
0
 40
0
 40
1
 40
1
 40
1
 40
1
 10
340.397882
 20
21.272786
 30
0.0
 10
339.835658
 20
21.272786
 30
0.0
 10
339.398364
 20
21.078024
 30
0.0
 10
339.086001
 20
20.688498
 30
0.0
  0
SPLINE
  5
5ce
100
AcDbEntity
  8
Layer_1
 62
7
100
AcDbSpline
 70
8
 71
3
 72
8
 73
4
 74
0
 40
0
 40
0
 40
0
 40
0
 40
1
 40
1
 40
1
 40
1
 10
339.086001
 20
20.688498
 30
0.0
 10
338.777325
 20
20.302647
 30
0.0
 10
338.622987
 20
19.711009
 30
0.0
 10
338.622987
 20
18.913584
 30
0.0
  0
SPLINE
  5
5cf
100
AcDbEntity
  8
Layer_1
 62
7
100
AcDbSpline
 70
8
 71
3
 72
8
 73
4
 74
0
 40
0
 40
0
 40
0
 40
0
 40
1
 40
1
 40
1
 40
1
 10
338.622987
 20
18.913584
 30
0.0
 10
338.622987
 20
18.141883
 30
0.0
 10
338.779159
 20
17.555758
 30
0.0
 10
339.091504
 20
17.155209
 30
0.0
  0
SPLINE
  5
5d0
100
AcDbEntity
  8
Layer_1
 62
7
100
AcDbSpline
 70
8
 71
3
 72
8
 73
4
 74
0
 40
0
 40
0
 40
0
 40
0
 40
1
 40
1
 40
1
 40
1
 10
339.091504
 20
17.155209
 30
0.0
 10
339.403868
 20
16.758333
 30
0.0
 10
339.839327
 20
16.559895
 30
0.0
 10
340.397882
 20
16.559895
 30
0.0
  0
SPLINE
  5
5d1
100
AcDbEntity
  8
Layer_1
 62
7
100
AcDbSpline
 70
8
 71
3
 72
8
 73
4
 74
0
 40
0
 40
0
 40
0
 40
0
 40
1
 40
1
 40
1
 40
1
 10
340.397882
 20
16.559895
 30
0.0
 10
340.949100
 20
16.559895
 30
0.0
 10
341.380891
 20
16.756495
 30
0.0
 10
341.693254
 20
17.149695
 30
0.0
  0
SPLINE
  5
5d2
100
AcDbEntity
  8
Layer_1
 62
7
100
AcDbSpline
 70
8
 71
3
 72
8
 73
4
 74
0
 40
0
 40
0
 40
0
 40
0
 40
1
 40
1
 40
1
 40
1
 10
341.693254
 20
17.149695
 30
0.0
 10
342.009287
 20
17.546571
 30
0.0
 10
342.167303
 20
18.134534
 30
0.0
 10
342.167303
 20
18.913584
 30
0.0
  0
LINE
  5
5d3
100
AcDbEntity
  8
Layer_1
 62
7
100
AcDbLine
 10
342.167303
 20
18.913584
 30
0.0
 11
342.167303
 21
18.913584
 31
0.0
  0
LINE
  5
5d4
100
AcDbEntity
  8
Layer_1
 62
7
100
AcDbLine
 10
353.963317
 20
15.837804
 30
0.0
 11
352.927025
 21
15.837804
 31
0.0
  0
LINE
  5
5d5
100
AcDbEntity
  8
Layer_1
 62
7
100
AcDbLine
 10
352.927025
 20
15.837804
 30
0.0
 11
352.927025
 21
19.343532
 31
0.0
  0
SPLINE
  5
5d6
100
AcDbEntity
  8
Layer_1
 62
7
100
AcDbSpline
 70
8
 71
3
 72
8
 73
4
 74
0
 40
0
 40
0
 40
0
 40
0
 40
1
 40
1
 40
1
 40
1
 10
352.927025
 20
19.343532
 30
0.0
 10
352.927025
 20
19.626490
 30
0.0
 10
352.910487
 20
19.891074
 30
0.0
 10
352.877410
 20
20.137283
 30
0.0
  0
SPLINE
  5
5d7
100
AcDbEntity
  8
Layer_1
 62
7
100
AcDbSpline
 70
8
 71
3
 72
8
 73
4
 74
0
 40
0
 40
0
 40
0
 40
0
 40
1
 40
1
 40
1
 40
1
 10
352.877410
 20
20.137283
 30
0.0
 10
352.844334
 20
20.387167
 30
0.0
 10
352.783703
 20
20.581930
 30
0.0
 10
352.695518
 20
20.721571
 30
0.0
  0
SPLINE
  5
5d8
100
AcDbEntity
  8
Layer_1
 62
7
100
AcDbSpline
 70
8
 71
3
 72
8
 73
4
 74
0
 40
0
 40
0
 40
0
 40
0
 40
1
 40
1
 40
1
 40
1
 10
352.695518
 20
20.721571
 30
0.0
 10
352.603645
 20
20.875911
 30
0.0
 10
352.471349
 20
20.989829
 30
0.0
 10
352.298629
 20
21.063324
 30
0.0
  0
SPLINE
  5
5d9
100
AcDbEntity
  8
Layer_1
 62
7
100
AcDbSpline
 70
8
 71
3
 72
8
 73
4
 74
0
 40
0
 40
0
 40
0
 40
0
 40
1
 40
1
 40
1
 40
1
 10
352.298629
 20
21.063324
 30
0.0
 10
352.125909
 20
21.140494
 30
0.0
 10
351.901749
 20
21.179080
 30
0.0
 10
351.626150
 20
21.179080
 30
0.0
  0
SPLINE
  5
5da
100
AcDbEntity
  8
Layer_1
 62
7
100
AcDbSpline
 70
8
 71
3
 72
8
 73
4
 74
0
 40
0
 40
0
 40
0
 40
0
 40
1
 40
1
 40
1
 40
1
 10
351.626150
 20
21.179080
 30
0.0
 10
351.343194
 20
21.179080
 30
0.0
 10
351.047378
 20
21.109259
 30
0.0
 10
350.738702
 20
20.969618
 30
0.0
  0
SPLINE
  5
5db
100
AcDbEntity
  8
Layer_1
 62
7
100
AcDbSpline
 70
8
 71
3
 72
8
 73
4
 74
0
 40
0
 40
0
 40
0
 40
0
 40
1
 40
1
 40
1
 40
1
 10
350.738702
 20
20.969618
 30
0.0
 10
350.430008
 20
20.829977
 30
0.0
 10
350.134182
 20
20.651750
 30
0.0
 10
349.851226
 20
20.434939
 30
0.0
  0
LINE
  5
5dc
100
AcDbEntity
  8
Layer_1
 62
7
100
AcDbLine
 10
349.851226
 20
20.434939
 30
0.0
 11
349.851226
 21
15.837804
 31
0.0
  0
LINE
  5
5dd
100
AcDbEntity
  8
Layer_1
 62
7
100
AcDbLine
 10
349.851226
 20
15.837804
 30
0.0
 11
348.814963
 21
15.837804
 31
0.0
  0
LINE
  5
5de
100
AcDbEntity
  8
Layer_1
 62
7
100
AcDbLine
 10
348.814963
 20
15.837804
 30
0.0
 11
348.814963
 21
21.994878
 31
0.0
  0
LINE
  5
5df
100
AcDbEntity
  8
Layer_1
 62
7
100
AcDbLine
 10
348.814963
 20
21.994878
 30
0.0
 11
349.851226
 21
21.994878
 31
0.0
  0
LINE
  5
5e0
100
AcDbEntity
  8
Layer_1
 62
7
100
AcDbLine
 10
349.851226
 20
21.994878
 30
0.0
 11
349.851226
 21
21.311371
 31
0.0
  0
SPLINE
  5
5e1
100
AcDbEntity
  8
Layer_1
 62
7
100
AcDbSpline
 70
8
 71
3
 72
8
 73
4
 74
0
 40
0
 40
0
 40
0
 40
0
 40
1
 40
1
 40
1
 40
1
 10
349.851226
 20
21.311371
 30
0.0
 10
350.174615
 20
21.579629
 30
0.0
 10
350.509020
 20
21.789091
 30
0.0
 10
350.854442
 20
21.939757
 30
0.0
  0
SPLINE
  5
5e2
100
AcDbEntity
  8
Layer_1
 62
7
100
AcDbSpline
 70
8
 71
3
 72
8
 73
4
 74
0
 40
0
 40
0
 40
0
 40
0
 40
1
 40
1
 40
1
 40
1
 10
350.854442
 20
21.939757
 30
0.0
 10
351.199882
 20
22.090422
 30
0.0
 10
351.554503
 20
22.165755
 30
0.0
 10
351.918306
 20
22.165755
 30
0.0
  0
SPLINE
  5
5e3
100
AcDbEntity
  8
Layer_1
 62
7
100
AcDbSpline
 70
8
 71
3
 72
8
 73
4
 74
0
 40
0
 40
0
 40
0
 40
0
 40
1
 40
1
 40
1
 40
1
 10
351.918306
 20
22.165755
 30
0.0
 10
352.583429
 20
22.165755
 30
0.0
 10
353.090545
 20
21.965480
 30
0.0
 10
353.439654
 20
21.564930
 30
0.0
  0
SPLINE
  5
5e4
100
AcDbEntity
  8
Layer_1
 62
7
100
AcDbSpline
 70
8
 71
3
 72
8
 73
4
 74
0
 40
0
 40
0
 40
0
 40
0
 40
1
 40
1
 40
1
 40
1
 10
353.439654
 20
21.564930
 30
0.0
 10
353.788762
 20
21.164381
 30
0.0
 10
353.963317
 20
20.587442
 30
0.0
 10
353.963317
 20
19.834113
 30
0.0
  0
LINE
  5
5e5
100
AcDbEntity
  8
Layer_1
 62
7
100
AcDbLine
 10
353.963317
 20
19.834113
 30
0.0
 11
353.963317
 21
15.837804
 31
0.0
  0
LINE
  5
5e6
100
AcDbEntity
  8
Layer_1
 62
7
100
AcDbLine
 10
353.963317
 20
15.837804
 30
0.0
 11
353.963317
 21
15.837804
 31
0.0
  0
SPLINE
  5
5e7
100
AcDbEntity
  8
Layer_1
 62
7
100
AcDbSpline
 70
8
 71
3
 72
8
 73
4
 74
0
 40
0
 40
0
 40
0
 40
0
 40
1
 40
1
 40
1
 40
1
 10
361.206268
 20
18.913584
 30
0.0
 10
361.206268
 20
17.910372
 30
0.0
 10
360.949032
 20
17.118460
 30
0.0
 10
360.434560
 20
16.537848
 30
0.0
  0
SPLINE
  5
5e8
100
AcDbEntity
  8
Layer_1
 62
7
100
AcDbSpline
 70
8
 71
3
 72
8
 73
4
 74
0
 40
0
 40
0
 40
0
 40
0
 40
1
 40
1
 40
1
 40
1
 10
360.434560
 20
16.537848
 30
0.0
 10
359.920106
 20
15.957234
 30
0.0
 10
359.231089
 20
15.666927
 30
0.0
 10
358.367508
 20
15.666927
 30
0.0
  0
SPLINE
  5
5e9
100
AcDbEntity
  8
Layer_1
 62
7
100
AcDbSpline
 70
8
 71
3
 72
8
 73
4
 74
0
 40
0
 40
0
 40
0
 40
0
 40
1
 40
1
 40
1
 40
1
 10
358.367508
 20
15.666927
 30
0.0
 10
357.496589
 20
15.666927
 30
0.0
 10
356.803893
 20
15.957234
 30
0.0
 10
356.289421
 20
16.537848
 30
0.0
  0
SPLINE
  5
5ea
100
AcDbEntity
  8
Layer_1
 62
7
100
AcDbSpline
 70
8
 71
3
 72
8
 73
4
 74
0
 40
0
 40
0
 40
0
 40
0
 40
1
 40
1
 40
1
 40
1
 10
356.289421
 20
16.537848
 30
0.0
 10
355.778636
 20
17.118460
 30
0.0
 10
355.523244
 20
17.910372
 30
0.0
 10
355.523244
 20
18.913584
 30
0.0
  0
SPLINE
  5
5eb
100
AcDbEntity
  8
Layer_1
 62
7
100
AcDbSpline
 70
8
 71
3
 72
8
 73
4
 74
0
 40
0
 40
0
 40
0
 40
0
 40
1
 40
1
 40
1
 40
1
 10
355.523244
 20
18.913584
 30
0.0
 10
355.523244
 20
19.916796
 30
0.0
 10
355.778636
 20
20.708709
 30
0.0
 10
356.289421
 20
21.289323
 30
0.0
  0
SPLINE
  5
5ec
100
AcDbEntity
  8
Layer_1
 62
7
100
AcDbSpline
 70
8
 71
3
 72
8
 73
4
 74
0
 40
0
 40
0
 40
0
 40
0
 40
1
 40
1
 40
1
 40
1
 10
356.289421
 20
21.289323
 30
0.0
 10
356.803893
 20
21.873611
 30
0.0
 10
357.496589
 20
22.165755
 30
0.0
 10
358.367508
 20
22.165755
 30
0.0
  0
SPLINE
  5
5ed
100
AcDbEntity
  8
Layer_1
 62
7
100
AcDbSpline
 70
8
 71
3
 72
8
 73
4
 74
0
 40
0
 40
0
 40
0
 40
0
 40
1
 40
1
 40
1
 40
1
 10
358.367508
 20
22.165755
 30
0.0
 10
359.231089
 20
22.165755
 30
0.0
 10
359.920106
 20
21.873611
 30
0.0
 10
360.434560
 20
21.289323
 30
0.0
  0
SPLINE
  5
5ee
100
AcDbEntity
  8
Layer_1
 62
7
100
AcDbSpline
 70
8
 71
3
 72
8
 73
4
 74
0
 40
0
 40
0
 40
0
 40
0
 40
1
 40
1
 40
1
 40
1
 10
360.434560
 20
21.289323
 30
0.0
 10
360.949032
 20
20.708709
 30
0.0
 10
361.206268
 20
19.916796
 30
0.0
 10
361.206268
 20
18.913584
 30
0.0
  0
LINE
  5
5ef
100
AcDbEntity
  8
Layer_1
 62
7
100
AcDbLine
 10
361.206268
 20
18.913584
 30
0.0
 11
361.206268
 21
18.913584
 31
0.0
  0
SPLINE
  5
5f0
100
AcDbEntity
  8
Layer_1
 62
7
100
AcDbSpline
 70
8
 71
3
 72
8
 73
4
 74
0
 40
0
 40
0
 40
0
 40
0
 40
1
 40
1
 40
1
 40
1
 10
360.136928
 20
18.913584
 30
0.0
 10
360.136928
 20
19.711009
 30
0.0
 10
359.980746
 20
20.302647
 30
0.0
 10
359.668383
 20
20.688498
 30
0.0
  0
SPLINE
  5
5f1
100
AcDbEntity
  8
Layer_1
 62
7
100
AcDbSpline
 70
8
 71
3
 72
8
 73
4
 74
0
 40
0
 40
0
 40
0
 40
0
 40
1
 40
1
 40
1
 40
1
 10
359.668383
 20
20.688498
 30
0.0
 10
359.356019
 20
21.078024
 30
0.0
 10
358.922394
 20
21.272786
 30
0.0
 10
358.367508
 20
21.272786
 30
0.0
  0
SPLINE
  5
5f2
100
AcDbEntity
  8
Layer_1
 62
7
100
AcDbSpline
 70
8
 71
3
 72
8
 73
4
 74
0
 40
0
 40
0
 40
0
 40
0
 40
1
 40
1
 40
1
 40
1
 10
358.367508
 20
21.272786
 30
0.0
 10
357.805264
 20
21.272786
 30
0.0
 10
357.367970
 20
21.078024
 30
0.0
 10
357.055626
 20
20.688498
 30
0.0
  0
SPLINE
  5
5f3
100
AcDbEntity
  8
Layer_1
 62
7
100
AcDbSpline
 70
8
 71
3
 72
8
 73
4
 74
0
 40
0
 40
0
 40
0
 40
0
 40
1
 40
1
 40
1
 40
1
 10
357.055626
 20
20.688498
 30
0.0
 10
356.746950
 20
20.302647
 30
0.0
 10
356.592612
 20
19.711009
 30
0.0
 10
356.592612
 20
18.913584
 30
0.0
  0
SPLINE
  5
5f4
100
AcDbEntity
  8
Layer_1
 62
7
100
AcDbSpline
 70
8
 71
3
 72
8
 73
4
 74
0
 40
0
 40
0
 40
0
 40
0
 40
1
 40
1
 40
1
 40
1
 10
356.592612
 20
18.913584
 30
0.0
 10
356.592612
 20
18.141883
 30
0.0
 10
356.748784
 20
17.555758
 30
0.0
 10
357.061129
 20
17.155209
 30
0.0
  0
SPLINE
  5
5f5
100
AcDbEntity
  8
Layer_1
 62
7
100
AcDbSpline
 70
8
 71
3
 72
8
 73
4
 74
0
 40
0
 40
0
 40
0
 40
0
 40
1
 40
1
 40
1
 40
1
 10
357.061129
 20
17.155209
 30
0.0
 10
357.373493
 20
16.758333
 30
0.0
 10
357.808952
 20
16.559895
 30
0.0
 10
358.367508
 20
16.559895
 30
0.0
  0
SPLINE
  5
5f6
100
AcDbEntity
  8
Layer_1
 62
7
100
AcDbSpline
 70
8
 71
3
 72
8
 73
4
 74
0
 40
0
 40
0
 40
0
 40
0
 40
1
 40
1
 40
1
 40
1
 10
358.367508
 20
16.559895
 30
0.0
 10
358.918725
 20
16.559895
 30
0.0
 10
359.350516
 20
16.756495
 30
0.0
 10
359.662879
 20
17.149695
 30
0.0
  0
SPLINE
  5
5f7
100
AcDbEntity
  8
Layer_1
 62
7
100
AcDbSpline
 70
8
 71
3
 72
8
 73
4
 74
0
 40
0
 40
0
 40
0
 40
0
 40
1
 40
1
 40
1
 40
1
 10
359.662879
 20
17.149695
 30
0.0
 10
359.978912
 20
17.546571
 30
0.0
 10
360.136928
 20
18.134534
 30
0.0
 10
360.136928
 20
18.913584
 30
0.0
  0
LINE
  5
5f8
100
AcDbEntity
  8
Layer_1
 62
7
100
AcDbLine
 10
360.136928
 20
18.913584
 30
0.0
 11
360.136928
 21
18.913584
 31
0.0
  0
SPLINE
  5
5f9
100
AcDbEntity
  8
Layer_1
 62
7
100
AcDbSpline
 70
8
 71
3
 72
8
 73
4
 74
0
 40
0
 40
0
 40
0
 40
0
 40
1
 40
1
 40
1
 40
1
 10
371.337622
 20
16.223653
 30
0.0
 10
370.992182
 20
16.058290
 30
0.0
 10
370.663290
 20
15.929673
 30
0.0
 10
370.350945
 20
15.837804
 30
0.0
  0
SPLINE
  5
5fa
100
AcDbEntity
  8
Layer_1
 62
7
100
AcDbSpline
 70
8
 71
3
 72
8
 73
4
 74
0
 40
0
 40
0
 40
0
 40
0
 40
1
 40
1
 40
1
 40
1
 10
370.350945
 20
15.837804
 30
0.0
 10
370.042251
 20
15.745935
 30
0.0
 10
369.713358
 20
15.700001
 30
0.0
 10
369.364268
 20
15.700001
 30
0.0
  0
SPLINE
  5
5fb
100
AcDbEntity
  8
Layer_1
 62
7
100
AcDbSpline
 70
8
 71
3
 72
8
 73
4
 74
0
 40
0
 40
0
 40
0
 40
0
 40
1
 40
1
 40
1
 40
1
 10
369.364268
 20
15.700001
 30
0.0
 10
368.919618
 20
15.700001
 30
0.0
 10
368.511712
 20
15.764309
 30
0.0
 10
368.140553
 20
15.892925
 30
0.0
  0
SPLINE
  5
5fc
100
AcDbEntity
  8
Layer_1
 62
7
100
AcDbSpline
 70
8
 71
3
 72
8
 73
4
 74
0
 40
0
 40
0
 40
0
 40
0
 40
1
 40
1
 40
1
 40
1
 10
368.140553
 20
15.892925
 30
0.0
 10
367.769412
 20
16.025216
 30
0.0
 10
367.451545
 20
16.223653
 30
0.0
 10
367.186952
 20
16.488236
 30
0.0
  0
SPLINE
  5
5fd
100
AcDbEntity
  8
Layer_1
 62
7
100
AcDbSpline
 70
8
 71
3
 72
8
 73
4
 74
0
 40
0
 40
0
 40
0
 40
0
 40
1
 40
1
 40
1
 40
1
 10
367.186952
 20
16.488236
 30
0.0
 10
366.918690
 20
16.752820
 30
0.0
 10
366.711069
 20
17.087224
 30
0.0
 10
366.564088
 20
17.491449
 30
0.0
  0
SPLINE
  5
5fe
100
AcDbEntity
  8
Layer_1
 62
7
100
AcDbSpline
 70
8
 71
3
 72
8
 73
4
 74
0
 40
0
 40
0
 40
0
 40
0
 40
1
 40
1
 40
1
 40
1
 10
366.564088
 20
17.491449
 30
0.0
 10
366.417087
 20
17.895674
 30
0.0
 10
366.343587
 20
18.367881
 30
0.0
 10
366.343587
 20
18.908072
 30
0.0
  0
SPLINE
  5
5ff
100
AcDbEntity
  8
Layer_1
 62
7
100
AcDbSpline
 70
8
 71
3
 72
8
 73
4
 74
0
 40
0
 40
0
 40
0
 40
0
 40
1
 40
1
 40
1
 40
1
 10
366.343587
 20
18.908072
 30
0.0
 10
366.343587
 20
19.914959
 30
0.0
 10
366.619196
 20
20.705035
 30
0.0
 10
367.170414
 20
21.278298
 30
0.0
  0
SPLINE
  5
600
100
AcDbEntity
  8
Layer_1
 62
7
100
AcDbSpline
 70
8
 71
3
 72
8
 73
4
 74
0
 40
0
 40
0
 40
0
 40
0
 40
1
 40
1
 40
1
 40
1
 10
367.170414
 20
21.278298
 30
0.0
 10
367.725300
 20
21.851562
 30
0.0
 10
368.456585
 20
22.138194
 30
0.0
 10
369.364268
 20
22.138194
 30
0.0
  0
SPLINE
  5
601
100
AcDbEntity
  8
Layer_1
 62
7
100
AcDbSpline
 70
8
 71
3
 72
8
 73
4
 74
0
 40
0
 40
0
 40
0
 40
0
 40
1
 40
1
 40
1
 40
1
 10
369.364268
 20
22.138194
 30
0.0
 10
369.717046
 20
22.138194
 30
0.0
 10
370.062467
 20
22.088585
 30
0.0
 10
370.400532
 20
21.989366
 30
0.0
  0
SPLINE
  5
602
100
AcDbEntity
  8
Layer_1
 62
7
100
AcDbSpline
 70
8
 71
3
 72
8
 73
4
 74
0
 40
0
 40
0
 40
0
 40
0
 40
1
 40
1
 40
1
 40
1
 10
370.400532
 20
21.989366
 30
0.0
 10
370.742284
 20
21.890147
 30
0.0
 10
371.054648
 20
21.768880
 30
0.0
 10
371.337622
 20
21.625564
 30
0.0
  0
LINE
  5
603
100
AcDbEntity
  8
Layer_1
 62
7
100
AcDbLine
 10
371.337622
 20
21.625564
 30
0.0
 11
371.337622
 21
20.473524
 31
0.0
  0
LINE
  5
604
100
AcDbEntity
  8
Layer_1
 62
7
100
AcDbLine
 10
371.337622
 20
20.473524
 30
0.0
 11
371.282476
 21
20.473524
 31
0.0
  0
SPLINE
  5
605
100
AcDbEntity
  8
Layer_1
 62
7
100
AcDbSpline
 70
8
 71
3
 72
8
 73
4
 74
0
 40
0
 40
0
 40
0
 40
0
 40
1
 40
1
 40
1
 40
1
 10
371.282476
 20
20.473524
 30
0.0
 10
370.966463
 20
20.719734
 30
0.0
 10
370.639414
 20
20.908984
 30
0.0
 10
370.301331
 20
21.041276
 30
0.0
  0
SPLINE
  5
606
100
AcDbEntity
  8
Layer_1
 62
7
100
AcDbSpline
 70
8
 71
3
 72
8
 73
4
 74
0
 40
0
 40
0
 40
0
 40
0
 40
1
 40
1
 40
1
 40
1
 10
370.301331
 20
21.041276
 30
0.0
 10
369.966916
 20
21.173567
 30
0.0
 10
369.639858
 20
21.239713
 30
0.0
 10
369.320157
 20
21.239713
 30
0.0
  0
SPLINE
  5
607
100
AcDbEntity
  8
Layer_1
 62
7
100
AcDbSpline
 70
8
 71
3
 72
8
 73
4
 74
0
 40
0
 40
0
 40
0
 40
0
 40
1
 40
1
 40
1
 40
1
 10
369.320157
 20
21.239713
 30
0.0
 10
368.732194
 20
21.239713
 30
0.0
 10
368.267336
 20
21.041276
 30
0.0
 10
367.925584
 20
20.644401
 30
0.0
  0
SPLINE
  5
608
100
AcDbEntity
  8
Layer_1
 62
7
100
AcDbSpline
 70
8
 71
3
 72
8
 73
4
 74
0
 40
0
 40
0
 40
0
 40
0
 40
1
 40
1
 40
1
 40
1
 10
367.925584
 20
20.644401
 30
0.0
 10
367.587501
 20
20.251200
 30
0.0
 10
367.418459
 20
19.672424
 30
0.0
 10
367.418459
 20
18.908072
 30
0.0
  0
SPLINE
  5
609
100
AcDbEntity
  8
Layer_1
 62
7
100
AcDbSpline
 70
8
 71
3
 72
8
 73
4
 74
0
 40
0
 40
0
 40
0
 40
0
 40
1
 40
1
 40
1
 40
1
 10
367.418459
 20
18.908072
 30
0.0
 10
367.418459
 20
18.165769
 30
0.0
 10
367.583822
 20
17.594342
 30
0.0
 10
367.914549
 20
17.193792
 30
0.0
  0
SPLINE
  5
60a
100
AcDbEntity
  8
Layer_1
 62
7
100
AcDbSpline
 70
8
 71
3
 72
8
 73
4
 74
0
 40
0
 40
0
 40
0
 40
0
 40
1
 40
1
 40
1
 40
1
 10
367.914549
 20
17.193792
 30
0.0
 10
368.248964
 20
16.796918
 30
0.0
 10
368.717500
 20
16.598481
 30
0.0
 10
369.320157
 20
16.598481
 30
0.0
  0
SPLINE
  5
60b
100
AcDbEntity
  8
Layer_1
 62
7
100
AcDbSpline
 70
8
 71
3
 72
8
 73
4
 74
0
 40
0
 40
0
 40
0
 40
0
 40
1
 40
1
 40
1
 40
1
 10
369.320157
 20
16.598481
 30
0.0
 10
369.529622
 20
16.598481
 30
0.0
 10
369.742756
 20
16.626042
 30
0.0
 10
369.959560
 20
16.681163
 30
0.0
  0
SPLINE
  5
60c
100
AcDbEntity
  8
Layer_1
 62
7
100
AcDbSpline
 70
8
 71
3
 72
8
 73
4
 74
0
 40
0
 40
0
 40
0
 40
0
 40
1
 40
1
 40
1
 40
1
 10
369.959560
 20
16.681163
 30
0.0
 10
370.176381
 20
16.736285
 30
0.0
 10
370.371152
 20
16.807943
 30
0.0
 10
370.543872
 20
16.896138
 30
0.0
  0
SPLINE
  5
60d
100
AcDbEntity
  8
Layer_1
 62
7
100
AcDbSpline
 70
8
 71
3
 72
8
 73
4
 74
0
 40
0
 40
0
 40
0
 40
0
 40
1
 40
1
 40
1
 40
1
 10
370.543872
 20
16.896138
 30
0.0
 10
370.694523
 20
16.973307
 30
0.0
 10
370.836001
 20
17.054151
 30
0.0
 10
370.968306
 20
17.138671
 30
0.0
  0
SPLINE
  5
60e
100
AcDbEntity
  8
Layer_1
 62
7
100
AcDbSpline
 70
8
 71
3
 72
8
 73
4
 74
0
 40
0
 40
0
 40
0
 40
0
 40
1
 40
1
 40
1
 40
1
 10
370.968306
 20
17.138671
 30
0.0
 10
371.100593
 20
17.226866
 30
0.0
 10
371.205317
 20
17.302198
 30
0.0
 10
371.282476
 20
17.364669
 30
0.0
  0
LINE
  5
60f
100
AcDbEntity
  8
Layer_1
 62
7
100
AcDbLine
 10
371.282476
 20
17.364669
 30
0.0
 11
371.337622
 21
17.364669
 31
0.0
  0
LINE
  5
610
100
AcDbEntity
  8
Layer_1
 62
7
100
AcDbLine
 10
371.337622
 20
17.364669
 30
0.0
 11
371.337622
 21
16.223653
 31
0.0
  0
LINE
  5
611
100
AcDbEntity
  8
Layer_1
 62
7
100
AcDbLine
 10
371.337622
 20
16.223653
 30
0.0
 11
371.337622
 21
16.223653
 31
0.0
  0
LINE
  5
612
100
AcDbEntity
  8
Layer_1
 62
7
100
AcDbLine
 10
377.775817
 20
15.837804
 30
0.0
 11
376.739525
 21
15.837804
 31
0.0
  0
LINE
  5
613
100
AcDbEntity
  8
Layer_1
 62
7
100
AcDbLine
 10
376.739525
 20
15.837804
 30
0.0
 11
376.739525
 21
16.521310
 31
0.0
  0
SPLINE
  5
614
100
AcDbEntity
  8
Layer_1
 62
7
100
AcDbSpline
 70
8
 71
3
 72
8
 73
4
 74
0
 40
0
 40
0
 40
0
 40
0
 40
1
 40
1
 40
1
 40
1
 10
376.739525
 20
16.521310
 30
0.0
 10
376.390416
 20
16.245703
 30
0.0
 10
376.056011
 20
16.034404
 30
0.0
 10
375.736310
 20
15.887413
 30
0.0
  0
SPLINE
  5
615
100
AcDbEntity
  8
Layer_1
 62
7
100
AcDbSpline
 70
8
 71
3
 72
8
 73
4
 74
0
 40
0
 40
0
 40
0
 40
0
 40
1
 40
1
 40
1
 40
1
 10
375.736310
 20
15.887413
 30
0.0
 10
375.416608
 20
15.740423
 30
0.0
 10
375.063831
 20
15.666927
 30
0.0
 10
374.677976
 20
15.666927
 30
0.0
  0
SPLINE
  5
616
100
AcDbEntity
  8
Layer_1
 62
7
100
AcDbSpline
 70
8
 71
3
 72
8
 73
4
 74
0
 40
0
 40
0
 40
0
 40
0
 40
1
 40
1
 40
1
 40
1
 10
374.677976
 20
15.666927
 30
0.0
 10
374.031217
 20
15.666927
 30
0.0
 10
373.527770
 20
15.863527
 30
0.0
 10
373.167636
 20
16.256727
 30
0.0
  0
SPLINE
  5
617
100
AcDbEntity
  8
Layer_1
 62
7
100
AcDbSpline
 70
8
 71
3
 72
8
 73
4
 74
0
 40
0
 40
0
 40
0
 40
0
 40
1
 40
1
 40
1
 40
1
 10
373.167636
 20
16.256727
 30
0.0
 10
372.807520
 20
16.653603
 30
0.0
 10
372.627463
 20
17.234216
 30
0.0
 10
372.627463
 20
17.998568
 30
0.0
  0
LINE
  5
618
100
AcDbEntity
  8
Layer_1
 62
7
100
AcDbLine
 10
372.627463
 20
17.998568
 30
0.0
 11
372.627463
 21
21.994878
 31
0.0
  0
LINE
  5
619
100
AcDbEntity
  8
Layer_1
 62
7
100
AcDbLine
 10
372.627463
 20
21.994878
 30
0.0
 11
373.663726
 21
21.994878
 31
0.0
  0
LINE
  5
61a
100
AcDbEntity
  8
Layer_1
 62
7
100
AcDbLine
 10
373.663726
 20
21.994878
 30
0.0
 11
373.663726
 21
18.489150
 31
0.0
  0
SPLINE
  5
61b
100
AcDbEntity
  8
Layer_1
 62
7
100
AcDbSpline
 70
8
 71
3
 72
8
 73
4
 74
0
 40
0
 40
0
 40
0
 40
0
 40
1
 40
1
 40
1
 40
1
 10
373.663726
 20
18.489150
 30
0.0
 10
373.663726
 20
18.176794
 30
0.0
 10
373.678430
 20
17.908536
 30
0.0
 10
373.707838
 20
17.684376
 30
0.0
  0
SPLINE
  5
61c
100
AcDbEntity
  8
Layer_1
 62
7
100
AcDbSpline
 70
8
 71
3
 72
8
 73
4
 74
0
 40
0
 40
0
 40
0
 40
0
 40
1
 40
1
 40
1
 40
1
 10
373.707838
 20
17.684376
 30
0.0
 10
373.737226
 20
17.463889
 30
0.0
 10
373.799701
 20
17.274638
 30
0.0
 10
373.895261
 20
17.116624
 30
0.0
  0
SPLINE
  5
61d
100
AcDbEntity
  8
Layer_1
 62
7
100
AcDbSpline
 70
8
 71
3
 72
8
 73
4
 74
0
 40
0
 40
0
 40
0
 40
0
 40
1
 40
1
 40
1
 40
1
 10
373.895261
 20
17.116624
 30
0.0
 10
373.994472
 20
16.954933
 30
0.0
 10
374.123080
 20
16.837341
 30
0.0
 10
374.281087
 20
16.763846
 30
0.0
  0
SPLINE
  5
61e
100
AcDbEntity
  8
Layer_1
 62
7
100
AcDbSpline
 70
8
 71
3
 72
8
 73
4
 74
0
 40
0
 40
0
 40
0
 40
0
 40
1
 40
1
 40
1
 40
1
 10
374.281087
 20
16.763846
 30
0.0
 10
374.439113
 20
16.690350
 30
0.0
 10
374.668785
 20
16.653602
 30
0.0
 10
374.970105
 20
16.653602
 30
0.0
  0
SPLINE
  5
61f
100
AcDbEntity
  8
Layer_1
 62
7
100
AcDbSpline
 70
8
 71
3
 72
8
 73
4
 74
0
 40
0
 40
0
 40
0
 40
0
 40
1
 40
1
 40
1
 40
1
 10
374.970105
 20
16.653602
 30
0.0
 10
375.238366
 20
16.653602
 30
0.0
 10
375.530513
 20
16.723422
 30
0.0
 10
375.846546
 20
16.863064
 30
0.0
  0
SPLINE
  5
620
100
AcDbEntity
  8
Layer_1
 62
7
100
AcDbSpline
 70
8
 71
3
 72
8
 73
4
 74
0
 40
0
 40
0
 40
0
 40
0
 40
1
 40
1
 40
1
 40
1
 10
375.846546
 20
16.863064
 30
0.0
 10
376.166247
 20
17.002706
 30
0.0
 10
376.463907
 20
17.180932
 30
0.0
 10
376.739525
 20
17.397743
 30
0.0
  0
LINE
  5
621
100
AcDbEntity
  8
Layer_1
 62
7
100
AcDbLine
 10
376.739525
 20
17.397743
 30
0.0
 11
376.739525
 21
21.994878
 31
0.0
  0
LINE
  5
622
100
AcDbEntity
  8
Layer_1
 62
7
100
AcDbLine
 10
376.739525
 20
21.994878
 30
0.0
 11
377.775817
 21
21.994878
 31
0.0
  0
LINE
  5
623
100
AcDbEntity
  8
Layer_1
 62
7
100
AcDbLine
 10
377.775817
 20
21.994878
 30
0.0
 11
377.775817
 21
15.837804
 31
0.0
  0
LINE
  5
624
100
AcDbEntity
  8
Layer_1
 62
7
100
AcDbLine
 10
377.775817
 20
15.837804
 30
0.0
 11
377.775817
 21
15.837804
 31
0.0
  0
SPLINE
  5
625
100
AcDbEntity
  8
Layer_1
 62
7
100
AcDbSpline
 70
8
 71
3
 72
8
 73
4
 74
0
 40
0
 40
0
 40
0
 40
0
 40
1
 40
1
 40
1
 40
1
 10
383.012337
 20
15.892925
 30
0.0
 10
382.817585
 20
15.841478
 30
0.0
 10
382.604451
 20
15.799218
 30
0.0
 10
382.372935
 20
15.766145
 30
0.0
  0
SPLINE
  5
626
100
AcDbEntity
  8
Layer_1
 62
7
100
AcDbSpline
 70
8
 71
3
 72
8
 73
4
 74
0
 40
0
 40
0
 40
0
 40
0
 40
1
 40
1
 40
1
 40
1
 10
382.372935
 20
15.766145
 30
0.0
 10
382.145106
 20
15.733073
 30
0.0
 10
381.941153
 20
15.716536
 30
0.0
 10
381.761077
 20
15.716536
 30
0.0
  0
SPLINE
  5
627
100
AcDbEntity
  8
Layer_1
 62
7
100
AcDbSpline
 70
8
 71
3
 72
8
 73
4
 74
0
 40
0
 40
0
 40
0
 40
0
 40
1
 40
1
 40
1
 40
1
 10
381.761077
 20
15.716536
 30
0.0
 10
381.132700
 20
15.716536
 30
0.0
 10
380.654982
 20
15.885575
 30
0.0
 10
380.327924
 20
16.223653
 30
0.0
  0
SPLINE
  5
628
100
AcDbEntity
  8
Layer_1
 62
7
100
AcDbSpline
 70
8
 71
3
 72
8
 73
4
 74
0
 40
0
 40
0
 40
0
 40
0
 40
1
 40
1
 40
1
 40
1
 10
380.327924
 20
16.223653
 30
0.0
 10
380.000866
 20
16.561733
 30
0.0
 10
379.837337
 20
17.103761
 30
0.0
 10
379.837337
 20
17.849738
 30
0.0
  0
LINE
  5
629
100
AcDbEntity
  8
Layer_1
 62
7
100
AcDbLine
 10
379.837337
 20
17.849738
 30
0.0
 11
379.837337
 21
21.123958
 31
0.0
  0
LINE
  5
62a
100
AcDbEntity
  8
Layer_1
 62
7
100
AcDbLine
 10
379.837337
 20
21.123958
 30
0.0
 11
379.137313
 21
21.123958
 31
0.0
  0
LINE
  5
62b
100
AcDbEntity
  8
Layer_1
 62
7
100
AcDbLine
 10
379.137313
 20
21.123958
 30
0.0
 11
379.137313
 21
21.994878
 31
0.0
  0
LINE
  5
62c
100
AcDbEntity
  8
Layer_1
 62
7
100
AcDbLine
 10
379.137313
 20
21.994878
 30
0.0
 11
379.837337
 21
21.994878
 31
0.0
  0
LINE
  5
62d
100
AcDbEntity
  8
Layer_1
 62
7
100
AcDbLine
 10
379.837337
 20
21.994878
 30
0.0
 11
379.837337
 21
23.764279
 31
0.0
  0
LINE
  5
62e
100
AcDbEntity
  8
Layer_1
 62
7
100
AcDbLine
 10
379.837337
 20
23.764279
 30
0.0
 11
380.873629
 21
23.764279
 31
0.0
  0
LINE
  5
62f
100
AcDbEntity
  8
Layer_1
 62
7
100
AcDbLine
 10
380.873629
 20
23.764279
 30
0.0
 11
380.873629
 21
21.994878
 31
0.0
  0
LINE
  5
630
100
AcDbEntity
  8
Layer_1
 62
7
100
AcDbLine
 10
380.873629
 20
21.994878
 30
0.0
 11
383.012337
 21
21.994878
 31
0.0
  0
LINE
  5
631
100
AcDbEntity
  8
Layer_1
 62
7
100
AcDbLine
 10
383.012337
 20
21.994878
 30
0.0
 11
383.012337
 21
21.123958
 31
0.0
  0
LINE
  5
632
100
AcDbEntity
  8
Layer_1
 62
7
100
AcDbLine
 10
383.012337
 20
21.123958
 30
0.0
 11
380.873629
 21
21.123958
 31
0.0
  0
LINE
  5
633
100
AcDbEntity
  8
Layer_1
 62
7
100
AcDbLine
 10
380.873629
 20
21.123958
 30
0.0
 11
380.873629
 21
18.318272
 31
0.0
  0
SPLINE
  5
634
100
AcDbEntity
  8
Layer_1
 62
7
100
AcDbSpline
 70
8
 71
3
 72
8
 73
4
 74
0
 40
0
 40
0
 40
0
 40
0
 40
1
 40
1
 40
1
 40
1
 10
380.873629
 20
18.318272
 30
0.0
 10
380.873629
 20
17.994893
 30
0.0
 10
380.880967
 20
17.741334
 30
0.0
 10
380.895642
 20
17.557596
 30
0.0
  0
SPLINE
  5
635
100
AcDbEntity
  8
Layer_1
 62
7
100
AcDbSpline
 70
8
 71
3
 72
8
 73
4
 74
0
 40
0
 40
0
 40
0
 40
0
 40
1
 40
1
 40
1
 40
1
 10
380.895642
 20
17.557596
 30
0.0
 10
380.910318
 20
17.377533
 30
0.0
 10
380.961767
 20
17.208493
 30
0.0
 10
381.049990
 20
17.050477
 30
0.0
  0
SPLINE
  5
636
100
AcDbEntity
  8
Layer_1
 62
7
100
AcDbSpline
 70
8
 71
3
 72
8
 73
4
 74
0
 40
0
 40
0
 40
0
 40
0
 40
1
 40
1
 40
1
 40
1
 10
381.049990
 20
17.050477
 30
0.0
 10
381.130837
 20
16.903486
 30
0.0
 10
381.241082
 20
16.795081
 30
0.0
 10
381.380726
 20
16.725261
 30
0.0
  0
SPLINE
  5
637
100
AcDbEntity
  8
Layer_1
 62
7
100
AcDbSpline
 70
8
 71
3
 72
8
 73
4
 74
0
 40
0
 40
0
 40
0
 40
0
 40
1
 40
1
 40
1
 40
1
 10
381.380726
 20
16.725261
 30
0.0
 10
381.524038
 20
16.659115
 30
0.0
 10
381.740851
 20
16.626043
 30
0.0
 10
382.031164
 20
16.626043
 30
0.0
  0
SPLINE
  5
638
100
AcDbEntity
  8
Layer_1
 62
7
100
AcDbSpline
 70
8
 71
3
 72
8
 73
4
 74
0
 40
0
 40
0
 40
0
 40
0
 40
1
 40
1
 40
1
 40
1
 10
382.031164
 20
16.626043
 30
0.0
 10
382.200196
 20
16.626043
 30
0.0
 10
382.376585
 20
16.649928
 30
0.0
 10
382.560330
 20
16.697699
 30
0.0
  0
SPLINE
  5
639
100
AcDbEntity
  8
Layer_1
 62
7
100
AcDbSpline
 70
8
 71
3
 72
8
 73
4
 74
0
 40
0
 40
0
 40
0
 40
0
 40
1
 40
1
 40
1
 40
1
 10
382.560330
 20
16.697699
 30
0.0
 10
382.744057
 20
16.749146
 30
0.0
 10
382.876344
 20
16.791406
 30
0.0
 10
382.957191
 20
16.824479
 30
0.0
  0
LINE
  5
63a
100
AcDbEntity
  8
Layer_1
 62
7
100
AcDbLine
 10
382.957191
 20
16.824479
 30
0.0
 11
383.012309
 21
16.824479
 31
0.0
  0
LINE
  5
63b
100
AcDbEntity
  8
Layer_1
 62
7
100
AcDbLine
 10
383.012309
 20
16.824479
 30
0.0
 11
383.012309
 21
15.892925
 31
0.0
  0
LINE
  5
63c
100
AcDbEntity
  8
Layer_1
 62
7
100
AcDbLine
 10
383.012309
 20
15.892925
 30
0.0
 11
383.012337
 21
15.892925
 31
0.0
  0
SPLINE
  5
63d
100
AcDbEntity
  8
Layer_1
 62
7
100
AcDbSpline
 70
8
 71
3
 72
8
 73
4
 74
0
 40
0
 40
0
 40
0
 40
0
 40
1
 40
1
 40
1
 40
1
 10
387.377976
 20
18.990754
 30
0.0
 10
387.377976
 20
17.884650
 30
0.0
 10
387.197909
 20
16.890626
 30
0.0
 10
386.837775
 20
16.008682
 30
0.0
  0
SPLINE
  5
63e
100
AcDbEntity
  8
Layer_1
 62
7
100
AcDbSpline
 70
8
 71
3
 72
8
 73
4
 74
0
 40
0
 40
0
 40
0
 40
0
 40
1
 40
1
 40
1
 40
1
 10
386.837775
 20
16.008682
 30
0.0
 10
386.477659
 20
15.126737
 30
0.0
 10
385.972378
 20
14.312775
 30
0.0
 10
385.321931
 20
13.566796
 30
0.0
  0
LINE
  5
63f
100
AcDbEntity
  8
Layer_1
 62
7
100
AcDbLine
 10
385.321931
 20
13.566796
 30
0.0
 11
384.059664
 21
13.566796
 31
0.0
  0
LINE
  5
640
100
AcDbEntity
  8
Layer_1
 62
7
100
AcDbLine
 10
384.059664
 20
13.566796
 30
0.0
 11
384.059664
 21
13.621917
 31
0.0
  0
SPLINE
  5
641
100
AcDbEntity
  8
Layer_1
 62
7
100
AcDbSpline
 70
8
 71
3
 72
8
 73
4
 74
0
 40
0
 40
0
 40
0
 40
0
 40
1
 40
1
 40
1
 40
1
 10
384.059664
 20
13.621917
 30
0.0
 10
384.342620
 20
13.875477
 30
0.0
 10
384.625576
 20
14.185995
 30
0.0
 10
384.908532
 20
14.553473
 30
0.0
  0
SPLINE
  5
642
100
AcDbEntity
  8
Layer_1
 62
7
100
AcDbSpline
 70
8
 71
3
 72
8
 73
4
 74
0
 40
0
 40
0
 40
0
 40
0
 40
1
 40
1
 40
1
 40
1
 10
384.908532
 20
14.553473
 30
0.0
 10
385.195157
 20
14.917275
 30
0.0
 10
385.446880
 20
15.325173
 30
0.0
 10
385.663702
 20
15.777169
 30
0.0
  0
SPLINE
  5
643
100
AcDbEntity
  8
Layer_1
 62
7
100
AcDbSpline
 70
8
 71
3
 72
8
 73
4
 74
0
 40
0
 40
0
 40
0
 40
0
 40
1
 40
1
 40
1
 40
1
 10
385.663702
 20
15.777169
 30
0.0
 10
385.891531
 20
16.247539
 30
0.0
 10
386.071589
 20
16.743633
 30
0.0
 10
386.203876
 20
17.265451
 30
0.0
  0
SPLINE
  5
644
100
AcDbEntity
  8
Layer_1
 62
7
100
AcDbSpline
 70
8
 71
3
 72
8
 73
4
 74
0
 40
0
 40
0
 40
0
 40
0
 40
1
 40
1
 40
1
 40
1
 10
386.203876
 20
17.265451
 30
0.0
 10
386.339850
 20
17.787269
 30
0.0
 10
386.407838
 20
18.362370
 30
0.0
 10
386.407838
 20
18.990754
 30
0.0
  0
SPLINE
  5
645
100
AcDbEntity
  8
Layer_1
 62
7
100
AcDbSpline
 70
8
 71
3
 72
8
 73
4
 74
0
 40
0
 40
0
 40
0
 40
0
 40
1
 40
1
 40
1
 40
1
 10
386.407838
 20
18.990754
 30
0.0
 10
386.407838
 20
19.593417
 30
0.0
 10
386.339850
 20
20.166681
 30
0.0
 10
386.203876
 20
20.710547
 30
0.0
  0
SPLINE
  5
646
100
AcDbEntity
  8
Layer_1
 62
7
100
AcDbSpline
 70
8
 71
3
 72
8
 73
4
 74
0
 40
0
 40
0
 40
0
 40
0
 40
1
 40
1
 40
1
 40
1
 10
386.203876
 20
20.710547
 30
0.0
 10
386.067920
 20
21.254412
 30
0.0
 10
385.887862
 20
21.752344
 30
0.0
 10
385.663702
 20
22.204340
 30
0.0
  0
SPLINE
  5
647
100
AcDbEntity
  8
Layer_1
 62
7
100
AcDbSpline
 70
8
 71
3
 72
8
 73
4
 74
0
 40
0
 40
0
 40
0
 40
0
 40
1
 40
1
 40
1
 40
1
 10
385.663702
 20
22.204340
 30
0.0
 10
385.432186
 20
22.671036
 30
0.0
 10
385.180462
 20
23.078935
 30
0.0
 10
384.908532
 20
23.428038
 30
0.0
  0
SPLINE
  5
648
100
AcDbEntity
  8
Layer_1
 62
7
100
AcDbSpline
 70
8
 71
3
 72
8
 73
4
 74
0
 40
0
 40
0
 40
0
 40
0
 40
1
 40
1
 40
1
 40
1
 10
384.908532
 20
23.428038
 30
0.0
 10
384.640270
 20
23.780816
 30
0.0
 10
384.357314
 20
24.091334
 30
0.0
 10
384.059664
 20
24.359592
 30
0.0
  0
LINE
  5
649
100
AcDbEntity
  8
Layer_1
 62
7
100
AcDbLine
 10
384.059664
 20
24.359592
 30
0.0
 11
384.059664
 21
24.414713
 31
0.0
  0
LINE
  5
64a
100
AcDbEntity
  8
Layer_1
 62
7
100
AcDbLine
 10
384.059664
 20
24.414713
 30
0.0
 11
385.321931
 21
24.414713
 31
0.0
  0
SPLINE
  5
64b
100
AcDbEntity
  8
Layer_1
 62
7
100
AcDbSpline
 70
8
 71
3
 72
8
 73
4
 74
0
 40
0
 40
0
 40
0
 40
0
 40
1
 40
1
 40
1
 40
1
 10
385.321931
 20
24.414713
 30
0.0
 10
385.972378
 20
23.668735
 30
0.0
 10
386.477659
 20
22.854774
 30
0.0
 10
386.837775
 20
21.972830
 30
0.0
  0
SPLINE
  5
64c
100
AcDbEntity
  8
Layer_1
 62
7
100
AcDbSpline
 70
8
 71
3
 72
8
 73
4
 74
0
 40
0
 40
0
 40
0
 40
0
 40
1
 40
1
 40
1
 40
1
 10
386.837775
 20
21.972830
 30
0.0
 10
387.197909
 20
21.090885
 30
0.0
 10
387.377976
 20
20.096860
 30
0.0
 10
387.377976
 20
18.990754
 30
0.0
  0
LINE
  5
64d
100
AcDbEntity
  8
Layer_1
 62
7
100
AcDbLine
 10
387.377976
 20
18.990754
 30
0.0
 11
387.377976
 21
18.990754
 31
0.0
  0
LINE
  5
64e
100
AcDbEntity
  8
Layer_1
 62
7
100
AcDbLine
 10
507.756019
 20
288.751624
 30
0.0
 11
505.780661
 21
288.751624
 31
0.0
  0
LINE
  5
64f
100
AcDbEntity
  8
Layer_1
 62
7
100
AcDbLine
 10
505.780661
 20
288.751624
 30
0.0
 11
505.780661
 21
289.324603
 31
0.0
  0
LINE
  5
650
100
AcDbEntity
  8
Layer_1
 62
7
100
AcDbLine
 10
505.780661
 20
289.324603
 30
0.0
 11
507.756019
 21
289.324603
 31
0.0
  0
LINE
  5
651
100
AcDbEntity
  8
Layer_1
 62
7
100
AcDbLine
 10
507.756019
 20
289.324603
 30
0.0
 11
507.756019
 21
288.751624
 31
0.0
  0
LINE
  5
652
100
AcDbEntity
  8
Layer_1
 62
7
100
AcDbLine
 10
507.756019
 20
288.751624
 30
0.0
 11
507.756019
 21
288.751624
 31
0.0
  0
LINE
  5
653
100
AcDbEntity
  8
Layer_1
 62
7
100
AcDbLine
 10
516.037576
 20
288.784864
 30
0.0
 11
514.312323
 21
288.784864
 31
0.0
  0
LINE
  5
654
100
AcDbEntity
  8
Layer_1
 62
7
100
AcDbLine
 10
514.312323
 20
288.784864
 30
0.0
 11
514.312323
 21
287.059600
 31
0.0
  0
LINE
  5
655
100
AcDbEntity
  8
Layer_1
 62
7
100
AcDbLine
 10
514.312323
 20
287.059600
 30
0.0
 11
513.786826
 21
287.059600
 31
0.0
  0
LINE
  5
656
100
AcDbEntity
  8
Layer_1
 62
7
100
AcDbLine
 10
513.786826
 20
287.059600
 30
0.0
 11
513.786826
 21
288.784864
 31
0.0
  0
LINE
  5
657
100
AcDbEntity
  8
Layer_1
 62
7
100
AcDbLine
 10
513.786826
 20
288.784864
 30
0.0
 11
512.061573
 21
288.784864
 31
0.0
  0
LINE
  5
658
100
AcDbEntity
  8
Layer_1
 62
7
100
AcDbLine
 10
512.061573
 20
288.784864
 30
0.0
 11
512.061573
 21
289.291365
 31
0.0
  0
LINE
  5
659
100
AcDbEntity
  8
Layer_1
 62
7
100
AcDbLine
 10
512.061573
 20
289.291365
 30
0.0
 11
513.786826
 21
289.291365
 31
0.0
  0
LINE
  5
65a
100
AcDbEntity
  8
Layer_1
 62
7
100
AcDbLine
 10
513.786826
 20
289.291365
 30
0.0
 11
513.786826
 21
291.016626
 31
0.0
  0
LINE
  5
65b
100
AcDbEntity
  8
Layer_1
 62
7
100
AcDbLine
 10
513.786826
 20
291.016626
 30
0.0
 11
514.312323
 21
291.016626
 31
0.0
  0
LINE
  5
65c
100
AcDbEntity
  8
Layer_1
 62
7
100
AcDbLine
 10
514.312323
 20
291.016626
 30
0.0
 11
514.312323
 21
289.291365
 31
0.0
  0
LINE
  5
65d
100
AcDbEntity
  8
Layer_1
 62
7
100
AcDbLine
 10
514.312323
 20
289.291365
 30
0.0
 11
516.037576
 21
289.291365
 31
0.0
  0
LINE
  5
65e
100
AcDbEntity
  8
Layer_1
 62
7
100
AcDbLine
 10
516.037576
 20
289.291365
 30
0.0
 11
516.037576
 21
288.784864
 31
0.0
  0
LINE
  5
65f
100
AcDbEntity
  8
Layer_1
 62
7
100
AcDbLine
 10
516.037576
 20
288.784864
 30
0.0
 11
516.037576
 21
288.784864
 31
0.0
  0
ENDSEC
  0
SECTION
  2
OBJECTS
  0
DICTIONARY
  5
C
330
0
100
AcDbDictionary
  3
ACAD_GROUP
350
D
  3
ACAD_MLINESTYLE
350
17
  0
DICTIONARY
  5
D
330
C
100
AcDbDictionary
  0
DICTIONARY
  5
1A
330
C
100
AcDbDictionary
  0
DICTIONARY
  5
17
330
C
100
AcDbDictionary
  3
STANDARD
350
18
  0
DICTIONARY
  5
19
330
C
100
AcDbDictionary
  0
ENDSEC
  0
EOF
