  0
SECTION
  2
HEADER
  0
ENDSEC
  0
SECTION
  2
TABLES
  0
TABLE
  2
LTYPE
 70
5
  0
LTYPE
  2
CONTINUOUS
 70
0
  3
CONTINUOUS
 72
65
 73
0
 40
0.0
  0
LTYPE
  2
DASHED
 70
0
  3
DASHED
 72
65
 73
2
 40
0.75
 49
0.5
 49
-0.25
  0
LTYPE
  2
DOT
 70
0
  3
DOT
 72
65
 73
2
 40
0.25
 49
0.0
 49
-0.25
  0
LTYPE
  2
CENTRE
 70
0
  3
CENTRE
 72
65
 73
4
 40
2.0
 49
1.25
 49
-0.25
 49
0.25
 49
-0.25
  0
LTYPE
  2
DASHDOT
 70
0
  3
DASHDOT
 72
65
 73
4
 40
1.0
 49
0.5
 49
-0.25
 49
0.0
 49
-0.25
  0
ENDTAB
  0
TABLE
  2
LAYER
 70
17
  0
LAYER
  2
0
 70
0
 62
7
  6
CONTINUOUS
  0
LAYER
  2
WHITE
 70
0
 62
7
  6
CONTINUOUS
  0
LAYER
  2
BLUE
 70
0
 62
5
  6
CONTINUOUS
  0
LAYER
  2
GREEN
 70
0
 62
3
  6
CONTINUOUS
  0
LAYER
  2
CYAN
 70
0
 62
4
  6
CONTINUOUS
  0
LAYER
  2
RED
 70
0
 62
1
  6
CONTINUOUS
  0
LAYER
  2
MAGENTA
 70
0
 62
6
  6
CONTINUOUS
  0
LAYER
  2
YELLOW
 70
0
 62
2
  6
CONTINUOUS
  0
ENDTAB
  0
ENDSEC
  0
SECTION
  2
BLOCKS
  0
ENDSEC
  0
SECTION
  2
ENTITIES
  0
TEXT
  8
GREEN
  1
1
 10
-89.196411
 20
420.928345
 40
12.0
 50
0.0
  0
TEXT
  8
GREEN
  1
2a
 10
15.788971
 20
420.928345
 40
12.0
 50
0.0
  0
TEXT
  8
GREEN
  1
2b
 10
80.294373
 20
420.928345
 40
12.0
 50
0.0
  0
TEXT
  8
GREEN
  1
3
 10
198.714142
 20
420.928345
 40
12.0
 50
0.0
  0
TEXT
  8
GREEN
  1
4
 10
313.471558
 20
420.928345
 40
12.0
 50
0.0
  0
TEXT
  8
GREEN
  1
5
 10
407.072601
 20
420.928345
 40
12.0
 50
0.0
  0
TEXT
  8
GREEN
  1
7
 10
592.451721
 20
420.928345
 40
12.0
 50
0.0
  0
TEXT
  8
GREEN
  1
6
 10
488.727295
 20
420.928345
 40
12.0
 50
0.0
  0
TEXT
  8
GREEN
  1
9a
 10
-92.352432
 20
240.854431
 40
12.0
 50
0.0
  0
TEXT
  8
GREEN
  1
9b
 10
44.531075
 20
240.854431
 40
12.0
 50
0.0
  0
TEXT
  8
GREEN
  1
10a
 10
175.867783
 20
240.854431
 40
12.0
 50
0.0
  0
TEXT
  8
GREEN
  1
10b
 10
312.751251
 20
240.854431
 40
12.0
 50
0.0
  0
TEXT
  8
GREEN
  1
12
 10
-92.352432
 20
80.118866
 40
12.0
 50
0.0
  0
TEXT
  8
GREEN
  1
13
 10
92.130241
 20
80.118866
 40
12.0
 50
0.0
  0
TEXT
  8
GREEN
  1
8
 10
695.971252
 20
420.928345
 40
12.0
 50
0.0
  0
TEXT
  8
GREEN
  1
11a
 10
458.02887
 20
240.854431
 40
12.0
 50
0.0
  0
TEXT
  8
GREEN
  1
11b
 10
594.912354
 20
240.854431
 40
12.0
 50
0.0
  0
TEXT
  8
GREEN
  1
21a
 10
-7.930076
 20
-82.256874
 40
12.0
 50
0.0
  0
TEXT
  8
GREEN
  1
15
 10
278.821594
 20
80.118866
 40
12.0
 50
0.0
  0
TEXT
  8
GREEN
  1
16
 10
363.264282
 20
80.118866
 40
12.0
 50
0.0
  0
TEXT
  8
GREEN
  1
17
 10
444.198334
 20
80.118866
 40
12.0
 50
0.0
  0
TEXT
  8
GREEN
  1
18
 10
528.153748
 20
80.118866
 40
12.0
 50
0.0
  0
TEXT
  8
GREEN
  1
19
 10
613.425903
 20
80.118866
 40
12.0
 50
0.0
  0
TEXT
  8
GREEN
  1
20
 10
698.69812
 20
80.118866
 40
12.0
 50
0.0
  0
TEXT
  8
GREEN
  1
14
 10
198.393372
 20
80.118866
 40
12.0
 50
0.0
  0
TEXT
  8
GREEN
  1
21b
 10
82.940468
 20
-82.256874
 40
12.0
 50
0.0
  0
TEXT
  8
GREEN
  1
22a
 10
210.515305
 20
-82.256874
 40
12.0
 50
0.0
  0
TEXT
  8
GREEN
  1
22b
 10
375.29599
 20
-82.256874
 40
12.0
 50
0.0
  0
TEXT
  8
GREEN
  1
23a
 10
502.87085
 20
-82.256874
 40
12.0
 50
0.0
  0
TEXT
  8
GREEN
  1
23b
 10
593.741394
 20
-82.256874
 40
12.0
 50
0.0
  0
TEXT
  8
GREEN
  1
14
 10
-408.106201
 20
-158.202942
 40
4.5
 50
270.3118944415
  0
TEXT
  8
GREEN
  1
15
 10
-426.83374
 20
-80.97094
 40
4.5
 50
270.3102825169
  0
TEXT
  8
GREEN
  1
16
 10
-575.039429
 20
-161.359528
 40
4.5
 50
288.5008521258
  0
TEXT
  8
GREEN
  1
17
 10
-531.878723
 20
-99.549751
 40
4.5
 50
287.2692050939
  0
TEXT
  8
GREEN
  1
18
 10
-477.039673
 20
-88.716034
 40
4.5
 50
318.713674825
  0
TEXT
  8
GREEN
  1
19
 10
-492.031097
 20
-166.54155
 40
4.5
 50
321.2481394599
  0
TEXT
  8
GREEN
  1
20
 10
-605.541443
 20
-120.85775
 40
4.5
 50
267.7799159954
  0
TEXT
  8
GREEN
  1
1
 10
-415.900635
 20
-34.676785
 40
4.5
 50
270.3102825169
  0
TEXT
  8
GREEN
  1
2
 10
-411.673523
 20
-18.246937
 40
4.5
 50
270.3102825169
  0
TEXT
  8
GREEN
  1
2
 10
-411.601227
 20
-51.465004
 40
4.5
 50
270.3102825169
  0
TEXT
  8
GREEN
  1
2
 10
-568.854126
 20
287.153351
 40
4.5
 50
319.0374531124
  0
TEXT
  8
GREEN
  1
2
 10
-470.414795
 20
331.102203
 40
4.5
 50
270.3102825169
  0
TEXT
  8
GREEN
  1
1
 10
-596.255249
 20
-48.491348
 40
4.5
 50
270.3102825169
  0
TEXT
  8
GREEN
  1
4
 10
-593.69989
 20
133.2948
 40
4.5
 50
292.4233204831
  0
TEXT
  8
GREEN
  1
4
 10
-610.572937
 20
-47.334187
 40
4.5
 50
267.7799159954
  0
TEXT
  8
GREEN
  1
5
 10
-606.782837
 20
179.4991
 40
4.5
 50
270.3102825169
  0
TEXT
  8
GREEN
  1
5
 10
-618.18396
 20
-54.443783
 40
4.5
 50
270.3102825169
  0
TEXT
  8
GREEN
  1
6
 10
-548.353638
 20
-53.440464
 40
4.5
 50
280.8634985204
  0
TEXT
  8
GREEN
  1
6
 10
-582.574646
 20
-18.286833
 40
4.5
 50
270.3102825169
  0
TEXT
  8
GREEN
  1
3
 10
-561.862122
 20
-12.046624
 40
4.5
 50
270.3102825169
  0
TEXT
  8
GREEN
  1
3
 10
-423.462372
 20
242.311905
 40
4.5
 50
270.3102825169
  0
TEXT
  8
GREEN
  1
7
 10
-413.916992
 20
231.237442
 40
4.5
 50
270.3102825169
  0
TEXT
  8
GREEN
  1
7
 10
-615.040222
 20
231.868423
 40
4.5
 50
247.7719696521
  0
TEXT
  8
GREEN
  1
8
 10
-422.796082
 20
354.984528
 40
4.5
 50
270.3102825169
  0
TEXT
  8
GREEN
  1
8
 10
-594.83374
 20
220.198135
 40
4.5
 50
247.7719696521
  0
TEXT
  8
GREEN
  1
9
 10
-428.63681
 20
172.530258
 40
4.5
 50
270.3102825169
  0
TEXT
  8
GREEN
  1
9
 10
-457.249603
 20
173.586227
 40
4.5
 50
270.3102825169
  0
TEXT
  8
GREEN
  1
10
 10
-479.052643
 20
169.060486
 40
4.5
 50
270.3102825169
  0
TEXT
  8
GREEN
  1
10
 10
-510.747131
 20
169.060486
 40
4.5
 50
270.3102825169
  0
TEXT
  8
GREEN
  1
11
 10
-537.453369
 20
167.1875
 40
4.5
 50
270.3102825169
  0
TEXT
  8
GREEN
  1
11
 10
-566.269958
 20
167.1875
 40
4.5
 50
270.3102825169
  0
TEXT
  8
GREEN
  1
9
 10
-428.580139
 20
361.7789
 40
4.5
 50
270.3102825169
  0
TEXT
  8
GREEN
  1
10
 10
-428.11969
 20
371.758942
 40
4.5
 50
270.3102825169
  0
TEXT
  8
GREEN
  1
11
 10
-415.549652
 20
369.331848
 40
4.5
 50
270.3102825169
  0
TEXT
  8
GREEN
  1
11
 10
-408.091797
 20
355.852081
 40
4.5
 50
270.3102825169
  0
TEXT
  8
GREEN
  1
10
 10
-415.765991
 20
346.827545
 40
4.5
 50
270.3102825169
  0
TEXT
  8
GREEN
  1
9
 10
-426.257416
 20
347.421692
 40
4.5
 50
270.3102825169
  0
TEXT
  8
GREEN
  1
12
 10
-468.587189
 20
265.447906
 40
4.5
 50
257.2051165941
  0
TEXT
  8
GREEN
  1
12
 10
-576.679993
 20
254.456589
 40
4.5
 50
247.7719696521
  0
TEXT
  8
GREEN
  1
21
 10
-411.164246
 20
252.336868
 40
4.5
 50
270.3102825169
  0
TEXT
  8
GREEN
  1
21
 10
-434.545654
 20
230.626282
 40
4.5
 50
270.3102825169
  0
TEXT
  8
GREEN
  1
21
 10
-407.092896
 20
302.613831
 40
4.5
 50
270.3102825169
  0
TEXT
  8
GREEN
  1
21
 10
-528.279785
 20
312.197174
 40
4.5
 50
248.3341761831
  0
TEXT
  8
GREEN
  1
22
 10
-495.381775
 20
364.680603
 40
4.5
 50
270.3102825169
  0
TEXT
  8
GREEN
  1
23
 10
-396.97403
 20
58.779686
 40
4.5
 50
270.3102825169
  0
TEXT
  8
GREEN
  1
22
 10
-486.802979
 20
41.568745
 40
4.5
 50
270.3102825169
  0
TEXT
  8
GREEN
  1
23
 10
-611.859863
 20
343.750122
 40
4.5
 50
270.3102825169
  0
TEXT
  8
GREEN
  1
14
 10
-519.52771
 20
238.509308
 40
4.5
 50
247.7719696521
  0
TEXT
  8
GREEN
  1
15
 10
-510.928894
 20
245.39064
 40
4.5
 50
247.7719696521
  0
TEXT
  8
GREEN
  1
16
 10
-500.431854
 20
246.781693
 40
4.5
 50
247.7719696521
  0
TEXT
  8
GREEN
  1
17
 10
-490.431305
 20
244.460251
 40
4.5
 50
247.7719696521
  0
TEXT
  8
GREEN
  1
18
 10
-481.893555
 20
239.872086
 40
4.5
 50
247.7719696521
  0
TEXT
  8
GREEN
  1
19
 10
-474.390137
 20
231.533356
 40
4.5
 50
247.7719696521
  0
TEXT
  8
GREEN
  1
20
 10
-467.571899
 20
222.172653
 40
4.5
 50
247.7719696521
  0
TEXT
  8
GREEN
  1
22
 10
-509.868011
 20
322.879883
 40
4.5
 50
248.3341761831
  0
TEXT
  8
GREEN
  1
23
 10
-516.589478
 20
324.011871
 40
4.5
 50
248.3341761831
  0
TEXT
  8
GREEN
  1
22
 10
-424.575256
 20
305.218903
 40
4.5
 50
270.3102825169
  0
TEXT
  8
GREEN
  1
23
 10
-431.231964
 20
303.753296
 40
4.5
 50
270.3102825169
  0
CIRCLE
  8
CYAN
 10
-86.040428
 20
426.928314
 40
11.383296
  0
CIRCLE
  8
CYAN
 10
22.100977
 20
426.928314
 40
11.383296
  0
CIRCLE
  8
CYAN
 10
86.606377
 20
426.928314
 40
11.383296
  0
CIRCLE
  8
CYAN
 10
201.870132
 20
426.928314
 40
11.383296
  0
CIRCLE
  8
CYAN
 10
316.627563
 20
426.928314
 40
11.383296
  0
CIRCLE
  8
CYAN
 10
410.228607
 20
426.928314
 40
11.383296
  0
CIRCLE
  8
CYAN
 10
595.607666
 20
426.928314
 40
11.383296
  0
CIRCLE
  8
CYAN
 10
491.883301
 20
426.928314
 40
11.383296
  0
CIRCLE
  8
CYAN
 10
-86.040428
 20
246.854431
 40
11.383296
  0
CIRCLE
  8
CYAN
 10
50.843082
 20
246.854431
 40
11.383296
  0
CIRCLE
  8
CYAN
 10
185.335785
 20
246.854431
 40
13.963728
  0
CIRCLE
  8
CYAN
 10
322.219238
 20
246.854431
 40
13.963728
  0
CIRCLE
  8
CYAN
 10
-86.040428
 20
86.118858
 40
13.963728
  0
CIRCLE
  8
CYAN
 10
98.442245
 20
86.118858
 40
13.963728
  0
CIRCLE
  8
CYAN
 10
699.127319
 20
426.928314
 40
11.383296
  0
CIRCLE
  8
CYAN
 10
467.496857
 20
246.854431
 40
13.963728
  0
CIRCLE
  8
CYAN
 10
604.380371
 20
246.854431
 40
13.963728
  0
LINE
  8
CYAN
 10
733.688049
 20
66.355057
 11
177.058563
 21
66.355057
  0
CIRCLE
  8
CYAN
 10
1.537915
 20
-76.256874
 40
13.963728
  0
CIRCLE
  8
CYAN
 10
285.133606
 20
86.118858
 40
13.963728
  0
CIRCLE
  8
CYAN
 10
369.576294
 20
86.118858
 40
13.963728
  0
CIRCLE
  8
CYAN
 10
450.510345
 20
86.118858
 40
13.963728
  0
CIRCLE
  8
CYAN
 10
534.465759
 20
86.118858
 40
13.963728
  0
CIRCLE
  8
CYAN
 10
619.737976
 20
86.118858
 40
13.963728
  0
CIRCLE
  8
CYAN
 10
705.010132
 20
86.118858
 40
13.963728
  0
CIRCLE
  8
CYAN
 10
204.705383
 20
86.118858
 40
13.963728
  0
CIRCLE
  8
CYAN
 10
92.408455
 20
-76.256874
 40
13.963728
  0
CIRCLE
  8
CYAN
 10
219.983322
 20
-76.256874
 40
13.963728
  0
CIRCLE
  8
CYAN
 10
384.763977
 20
-76.256874
 40
13.963728
  0
CIRCLE
  8
CYAN
 10
512.338806
 20
-76.256874
 40
13.963728
  0
CIRCLE
  8
CYAN
 10
603.209412
 20
-76.256874
 40
13.963728
  0
LINE
  8
CYAN
 10
-633.389954
 20
200.05162
 11
-633.389954
 21
8.051641
  0
LINE
  8
CYAN
 10
-633.389954
 20
8.051641
 11
-381.389954
 21
8.051641
  0
LINE
  8
CYAN
 10
-381.389954
 20
8.051641
 11
-381.389954
 21
200.05162
  0
LINE
  8
CYAN
 10
-381.389954
 20
200.05162
 11
-633.389954
 21
200.05162
  0
LINE
  8
CYAN
 10
-381.389954
 20
8.051641
 11
-381.389954
 21
-183.948364
  0
LINE
  8
CYAN
 10
-381.389954
 20
-183.948364
 11
-633.389954
 21
-183.948364
  0
LINE
  8
CYAN
 10
-633.389954
 20
-183.948364
 11
-633.389954
 21
8.051641
  0
LINE
  8
CYAN
 10
412.251831
 20
391.970154
 11
412.251923
 21
377.007172
  0
LINE
  8
CYAN
 10
412.251923
 20
377.007172
 11
409.251923
 21
377.007172
  0
LINE
  8
CYAN
 10
409.251923
 20
377.007172
 11
409.25177
 21
391.970154
  0
LINE
  8
CYAN
 10
409.25177
 20
391.970154
 11
401.937134
 21
391.887451
  0
ARC
  8
CYAN
 10
401.9830306128
 20
389.5112687026
 40
2.3766255089
 50
91.1065460992
 51
163.953408583
  0
ARC
  8
CYAN
 10
409.4911470015
 20
387.3516380629
 40
10.1891677459
 50
163.9528467679
 51
193.3124794665
  0
LINE
  8
CYAN
 10
399.575775
 20
385.005463
 11
402.283234
 21
373.56488
  0
ARC
  8
CYAN
 10
412.2556483851
 20
375.9244573141
 40
10.2477633545
 50
193.3119619577
 51
225.319426009
  0
ARC
  8
CYAN
 10
399.5956362617
 20
363.1224984847
 40
7.7568487445
 50
8.5278755172
 51
45.3193938437
  0
LINE
  8
CYAN
 10
407.266724
 20
364.272766
 11
408.634735
 21
355.149628
  0
ARC
  8
CYAN
 10
410.7520583063
 20
355.0907769967
 40
2.1181410302
 50
178.4078736749
 51
1.5888249495
  0
LINE
  8
CYAN
 10
412.869385
 20
355.149506
 11
414.237396
 21
364.272766
  0
ARC
  8
CYAN
 10
421.9084785523
 20
363.1225011184
 40
7.7568432253
 50
134.680592598
 51
171.4721380411
  0
ARC
  8
CYAN
 10
409.2484871794
 20
375.9245113195
 40
10.2477908102
 50
314.6802998005
 51
346.6877640801
  0
LINE
  8
CYAN
 10
419.220917
 20
373.56488
 11
421.927917
 21
385.005585
  0
ARC
  8
CYAN
 10
412.0124630054
 20
387.3516587744
 40
10.1892242136
 50
346.6881809562
 51
16.0478300917
  0
ARC
  8
CYAN
 10
419.5206213517
 20
389.5113577327
 40
2.3766227683
 50
16.0481900563
 51
89.4678634784
  0
LINE
  8
CYAN
 10
419.542694
 20
391.887878
 11
412.251831
 21
391.970154
  0
ARC
  8
CYAN
 10
336.2555868517
 20
398.0677340161
 40
4.7154113416
 50
1.8167196691
 51
165.811508734
  0
ARC
  8
CYAN
 10
397.0510838062
 20
382.6962401471
 40
67.4240652393
 50
165.8107993241
 51
182.245708499
  0
ARC
  8
CYAN
 10
332.0302309748
 20
380.1464380091
 40
2.3532361846
 50
182.2456235518
 51
317.9787445995
  0
ARC
  8
CYAN
 10
312.9610180466
 20
397.3288401273
 40
28.0216959017
 50
317.9793645238
 51
1.8167771608
  0
ARC
  8
CYAN
 10
304.6482673601
 20
380.1466731303
 40
2.3532357176
 50
222.018975482
 51
357.7538369897
  0
ARC
  8
CYAN
 10
239.6275810706
 20
382.6976173251
 40
67.4239431199
 50
357.7532973711
 51
14.1882073615
  0
ARC
  8
CYAN
 10
300.4232204483
 20
398.0680220486
 40
4.7154181119
 50
14.1875426158
 51
178.1823351015
  0
ARC
  8
CYAN
 10
323.717729694
 20
397.3287387787
 40
28.0216554906
 50
178.1822641513
 51
222.019591543
  0
LINE
  8
CYAN
 10
-87.484848
 20
383.742371
 11
-84.484848
 21
383.748108
  0
LINE
  8
CYAN
 10
-84.484848
 20
383.748108
 11
-84.484848
 21
363.963348
  0
ARC
  8
CYAN
 10
-85.933344845
 20
355.9304891905
 40
8.1624116389
 50
59.0481640246
 51
79.7781868887
  0
LINE
  8
CYAN
 10
-81.735275
 20
362.930573
 11
-79.351624
 21
361.501007
  0
ARC
  8
CYAN
 10
-82.5418479039
 20
356.1815783855
 40
6.202729185
 50
318.7337820977
 51
59.0475961066
  0
ARC
  8
CYAN
 10
-64.6684609049
 20
340.4978723521
 40
17.5761815925
 50
138.7332577604
 51
191.0417024202
  0
ARC
  8
CYAN
 10
-79.5253786936
 20
337.5987470339
 40
2.4390440233
 50
191.041486748
 51
1.5825596048
  0
ARC
  8
CYAN
 10
-63.9453978007
 20
338.0290414008
 40
13.146877761
 50
125.5281757896
 51
181.5819156414
  0
ARC
  8
CYAN
 10
-76.9247349124
 20
356.2065704245
 40
9.1888728033
 50
305.5278708444
 51
31.1469916336
  0
LINE
  8
CYAN
 10
-69.060501
 20
360.959381
 11
-70.894257
 21
363.993652
  0
ARC
  8
CYAN
 10
-65.760372022
 20
367.096384881
 40
5.9986437049
 50
127.9159061568
 51
211.1472352068
  0
LINE
  8
CYAN
 10
-69.446564
 20
371.828796
 11
-65.421913
 21
374.963623
  0
ARC
  8
CYAN
 10
-81.0740443063
 20
395.0584084313
 40
25.4713489231
 50
307.9155624327
 51
355.4684316434
  0
LINE
  8
CYAN
 10
-55.68232
 20
393.045959
 11
-55.299824
 21
397.871826
  0
ARC
  8
CYAN
 10
-67.3067770715
 20
398.8234371806
 40
12.0446040159
 50
355.4684946062
 51
47.7310255106
  0
ARC
  8
CYAN
 10
-67.7154097905
 20
395.7366712567
 40
14.7109799434
 50
54.6564426768
 51
89.3647402806
  0
ARC
  8
CYAN
 10
-68.2822139011
 20
406.584570081
 40
3.9305438095
 50
79.2979804253
 51
179.2900801119
  0
LINE
  8
CYAN
 10
-72.212456
 20
406.63327
 11
-74.038651
 21
391.760925
  0
LINE
  8
CYAN
 10
-74.038651
 20
391.760925
 11
-77.016304
 21
392.126587
  0
LINE
  8
CYAN
 10
-77.016304
 20
392.126587
 11
-75.679977
 21
403.009521
  0
LINE
  8
CYAN
 10
-75.679977
 20
403.009521
 11
-96.371956
 21
403.009521
  0
LINE
  8
CYAN
 10
-96.371956
 20
403.009521
 11
-95.035622
 21
392.126587
  0
LINE
  8
CYAN
 10
-95.035622
 20
392.126587
 11
-98.013275
 21
391.760925
  0
LINE
  8
CYAN
 10
-98.013275
 20
391.760925
 11
-99.856079
 21
406.768585
  0
ARC
  8
CYAN
 10
-103.7785488379
 20
406.5166428747
 40
3.9305526919
 50
3.6750871144
 51
100.921281738
  0
ARC
  8
CYAN
 10
-104.3036879431
 20
395.6665823477
 40
14.7110629526
 50
90.8550989749
 51
125.5633381654
  0
ARC
  8
CYAN
 10
-104.7242288768
 20
398.7517733146
 40
12.0446274222
 50
132.4885085334
 51
184.7510945669
  0
LINE
  8
CYAN
 10
-116.72747
 20
397.75415
 11
-116.326477
 21
392.92981
  0
ARC
  8
CYAN
 10
-90.9427059398
 20
395.0395078892
 40
25.4712908668
 50
184.7510517318
 51
232.3038409062
  0
LINE
  8
CYAN
 10
-106.517738
 20
374.884979
 11
-102.481133
 21
371.765564
  0
ARC
  8
CYAN
 10
-106.1492009068
 20
367.0190025062
 40
5.9987138774
 50
329.0724854592
 51
52.3037159787
  0
LINE
  8
CYAN
 10
-101.003395
 20
363.935944
 11
-102.825516
 21
360.894714
  0
ARC
  8
CYAN
 10
-94.943141838
 20
356.1720302298
 40
9.1888826537
 50
149.0722845021
 51
234.6914406901
  0
ARC
  8
CYAN
 10
-107.8527146535
 20
337.9449193101
 40
13.1468430512
 50
358.6378034699
 51
54.6915455526
  0
ARC
  8
CYAN
 10
-92.27127557
 20
337.5743909541
 40
2.4390010125
 50
178.6375047652
 51
349.1774534803
  0
ARC
  8
CYAN
 10
-107.1391900577
 20
340.4166462106
 40
17.5761505513
 50
349.1775020353
 51
41.4859300449
  0
ARC
  8
CYAN
 10
-89.3259899759
 20
356.1686161577
 40
6.2027193623
 50
121.1720220677
 51
221.4857805427
  0
LINE
  8
CYAN
 10
-92.536575
 20
361.475769
 11
-90.158379
 21
362.914429
  0
ARC
  8
CYAN
 10
-85.9334565428
 20
355.9306047909
 40
8.1623385345
 50
100.9566961184
 51
121.1721893432
  0
LINE
  8
CYAN
 10
-87.484848
 20
363.944153
 11
-87.484848
 21
383.742371
  0
ARC
  8
CYAN
 10
330.3850848646
 20
395.4402257515
 40
15.1040335571
 50
350.7885676375
 51
29.6348284512
  0
ARC
  8
CYAN
 10
336.2555851827
 20
398.0677230138
 40
8.7241935756
 50
33.703384995
 51
154.9369296227
  0
LINE
  8
CYAN
 10
328.352844
 20
401.763428
 11
319.472992
 21
401.763428
  0
LINE
  8
CYAN
 10
319.472992
 20
401.763428
 11
319.46225
 21
381.66983
  0
LINE
  8
CYAN
 10
319.46225
 20
381.66983
 11
316.46228
 21
381.671417
  0
LINE
  8
CYAN
 10
316.46228
 20
381.671417
 11
316.472992
 21
401.763428
  0
LINE
  8
CYAN
 10
316.472992
 20
401.763428
 11
307.659943
 21
401.763428
  0
ARC
  8
CYAN
 10
299.7572018173
 20
398.0677230138
 40
8.7241935756
 50
25.0630703773
 51
146.296615005
  0
ARC
  8
CYAN
 10
305.6108861205
 20
395.3422226445
 40
15.1381655404
 50
150.0112898499
 51
188.8132929272
  0
ARC
  8
CYAN
 10
332.0917008068
 20
399.4480388042
 40
41.9353906353
 50
188.8133986481
 51
198.2055646179
  0
ARC
  8
CYAN
 10
315.4240695975
 20
393.9661606899
 40
24.3894247802
 50
198.205461998
 51
222.3201136006
  0
ARC
  8
CYAN
 10
325.2691637596
 20
402.9305137287
 40
37.7042850661
 50
222.319761847
 51
245.9844004683
  0
ARC
  8
CYAN
 10
307.5989496017
 20
363.2715591543
 40
5.7130979311
 50
4.8747920919
 51
65.9846725206
  0
LINE
  8
CYAN
 10
313.291382
 20
363.75705
 11
315.851562
 21
333.738525
  0
ARC
  8
CYAN
 10
317.9724305387
 20
333.9194004236
 40
2.1285674237
 50
184.8745982639
 51
269.999500984
  0
ARC
  8
CYAN
 10
317.9724533539
 20
333.919376325
 40
2.1285433254
 50
269.9988868435
 51
355.1235390363
  0
LINE
  8
CYAN
 10
320.093292
 20
333.738434
 11
322.653931
 21
363.756958
  0
ARC
  8
CYAN
 10
328.3463445183
 20
363.2713697284
 40
5.7130873993
 50
114.014168142
 51
175.1242182815
  0
ARC
  8
CYAN
 10
310.6768447314
 20
402.9306942509
 40
37.7043427907
 50
294.0145548099
 51
317.679192754
  0
ARC
  8
CYAN
 10
320.5216855728
 20
393.9660692679
 40
24.3894867165
 50
317.679143319
 51
341.7937559718
  0
ARC
  8
CYAN
 10
303.8540535143
 20
399.4481659783
 40
41.9355216754
 50
341.7936972065
 51
351.185862905
  0
ARC
  8
CYAN
 10
597.6961953477
 20
340.8652194683
 40
43.761440032
 50
110.1659440578
 51
115.3379466087
  0
ARC
  8
CYAN
 10
580.5565180979
 20
377.062319144
 40
3.7114892064
 50
115.3372809562
 51
176.2378579017
  0
ARC
  8
CYAN
 10
794.4655706268
 20
349.9618199851
 40
219.3237674242
 50
172.8380552629
 51
176.906088689
  0
ARC
  8
CYAN
 10
581.7184994572
 20
360.1772515665
 40
6.4638454433
 50
165.4666087242
 51
287.579015431
  0
ARC
  8
CYAN
 10
584.9474985251
 20
349.8305497001
 40
4.3751534938
 50
13.5639808194
 51
106.9673073952
  0
ARC
  8
CYAN
 10
597.6960677831
 20
352.9062562034
 40
8.7391893651
 50
193.5638866091
 51
260.1170316566
  0
LINE
  8
CYAN
 10
596.196106
 20
344.296753
 11
596.196045
 21
357.184753
  0
LINE
  8
CYAN
 10
596.196045
 20
357.184753
 11
599.196106
 21
357.184845
  0
LINE
  8
CYAN
 10
599.196106
 20
357.184845
 11
599.196106
 21
344.296753
  0
ARC
  8
CYAN
 10
597.696078846
 20
352.9063068556
 40
8.7392504859
 50
279.8833335665
 51
346.4362798549
  0
ARC
  8
CYAN
 10
610.444728253
 20
349.8306245733
 40
4.3751646061
 50
73.0329393407
 51
166.4362411813
  0
ARC
  8
CYAN
 10
613.6736504494
 20
360.1773654779
 40
6.4638485316
 50
252.4215706013
 51
14.5334582471
  0
ARC
  8
CYAN
 10
400.9273185762
 20
349.9610305801
 40
219.3230794902
 50
3.0941594672
 51
7.1621912253
  0
ARC
  8
CYAN
 10
614.8354896412
 20
377.0624235277
 40
3.7115674458
 50
3.7613915154
 51
64.661885897
  0
ARC
  8
CYAN
 10
597.6965523699
 20
340.864723361
 40
43.7617443251
 50
64.6631948181
 51
69.8352046966
  0
LINE
  8
CYAN
 10
612.782166
 20
381.944092
 11
613.623779
 21
369.907898
  0
LINE
  8
CYAN
 10
613.623779
 20
369.907898
 11
610.631042
 21
369.698608
  0
LINE
  8
CYAN
 10
610.631042
 20
369.698608
 11
609.242126
 21
389.563324
  0
ARC
  8
CYAN
 10
603.8080184333
 20
387.2737214463
 40
5.8967622387
 50
22.8475995461
 51
80.7117335863
  0
ARC
  8
CYAN
 10
597.6958894267
 20
349.905185155
 40
43.7618599606
 50
80.7108883545
 51
88.0355970037
  0
LINE
  8
CYAN
 10
599.195984
 20
393.641327
 11
599.196045
 21
381.176819
  0
LINE
  8
CYAN
 10
599.196045
 20
381.176819
 11
596.196045
 21
381.176819
  0
LINE
  8
CYAN
 10
596.196045
 20
381.176819
 11
596.196045
 21
393.641327
  0
ARC
  8
CYAN
 10
597.6960666501
 20
349.9043531626
 40
43.7626889645
 50
91.9642702396
 51
99.2889992292
  0
ARC
  8
CYAN
 10
591.5839643509
 20
387.2738114889
 40
5.8966856091
 50
99.2891343367
 51
157.1530361291
  0
LINE
  8
CYAN
 10
586.149902
 20
389.563324
 11
584.760986
 21
369.698547
  0
LINE
  8
CYAN
 10
584.760986
 20
369.698547
 11
581.768372
 21
369.907837
  0
LINE
  8
CYAN
 10
581.768372
 20
369.907837
 11
582.609863
 21
381.944
  0
ARC
  8
CYAN
 10
88.412661123
 20
-124.9849101816
 40
2.8512476849
 50
280.1970072142
 51
62.7071141411
  0
LINE
  8
CYAN
 10
89.72007
 20
-122.45108
 11
87.709869
 21
-121.413857
  0
ARC
  8
CYAN
 10
88.9927070762
 20
-118.9276341138
 40
2.7976736353
 50
184.8860477221
 51
242.7072293246
  0
ARC
  8
CYAN
 10
102.5614958736
 20
-117.7677043181
 40
16.415950566
 50
164.1631097731
 51
184.8860569225
  0
LINE
  8
CYAN
 10
86.768654
 20
-113.287796
 11
101.683762
 21
-121.555458
  0
LINE
  8
CYAN
 10
101.683762
 20
-121.555458
 11
104.592674
 21
-116.307777
  0
LINE
  8
CYAN
 10
104.592674
 20
-116.307777
 11
89.437164
 21
-107.906837
  0
ARC
  8
CYAN
 10
102.5613676233
 20
-117.7679058801
 40
16.4160104838
 50
134.8561560063
 51
143.0800770143
  0
ARC
  8
CYAN
 10
95.0175891234
 20
-110.1860209789
 40
5.7205173823
 50
64.5369505039
 51
134.8570948822
  0
ARC
  8
CYAN
 10
72.148143639
 20
-158.2121114392
 40
58.9137209112
 50
46.4524534451
 51
64.5367902359
  0
ARC
  8
CYAN
 10
108.3738706815
 20
-120.1015601782
 40
6.3331406825
 50
355.9115966217
 51
46.4525254126
  0
LINE
  8
CYAN
 10
114.690895
 20
-120.553085
 11
114.389275
 21
-124.772705
  0
ARC
  8
CYAN
 10
119.4881203641
 20
-125.1371393171
 40
5.1118525427
 50
175.9117997968
 51
281.9853071045
  0
LINE
  8
CYAN
 10
120.549652
 20
-130.137558
 11
125.177025
 21
-129.155243
  0
ARC
  8
CYAN
 10
126.3332780553
 20
-134.6019740498
 40
5.5681056255
 50
353.9535163417
 51
101.9850495614
  0
LINE
  8
CYAN
 10
131.870407
 20
-135.188492
 11
131.513336
 21
-138.559647
  0
ARC
  8
CYAN
 10
141.736885012
 20
-139.6425845717
 40
10.2807445346
 50
173.9534463153
 51
188.448469206
  0
LINE
  8
CYAN
 10
131.567703
 20
-141.15303
 11
131.852997
 21
-143.073898
  0
ARC
  8
CYAN
 10
127.4354692901
 20
-143.7300135114
 40
4.4659868598
 50
290.1591655658
 51
8.4481241889
  0
LINE
  8
CYAN
 10
128.974579
 20
-147.922409
 11
122.502518
 21
-139.930069
  0
LINE
  8
CYAN
 10
122.502518
 20
-139.930069
 11
120.171082
 21
-141.818024
  0
LINE
  8
CYAN
 10
120.171082
 20
-141.818024
 11
126.564987
 21
-149.713852
  0
ARC
  8
CYAN
 10
114.2071108208
 20
-127.6586876339
 40
25.2813642606
 50
292.4194257856
 51
299.2626366373
  0
ARC
  8
CYAN
 10
121.8967719325
 20
-146.297298988
 40
5.1188068528
 50
227.4741226248
 51
292.4195707938
  0
LINE
  8
CYAN
 10
118.436852
 20
-150.069717
 11
117.623123
 21
-149.323471
  0
ARC
  8
CYAN
 10
115.4404220728
 20
-151.7033439839
 40
3.2292381078
 50
47.4745028014
 51
157.5376348998
  0
LINE
  8
CYAN
 10
112.456184
 20
-150.469528
 11
111.074615
 21
-153.811188
  0
ARC
  8
CYAN
 10
102.989622967
 20
-150.4685000241
 40
8.7487518582
 50
274.8557751667
 51
337.5376666926
  0
ARC
  8
CYAN
 10
89.8791031514
 20
3.8614490275
 40
163.6345772397
 50
267.8791843558
 51
274.8556935483
  0
ARC
  8
CYAN
 10
84.0760202109
 20
-152.8433431823
 40
6.8223721245
 50
190.4510219648
 51
267.878938144
  0
LINE
  8
CYAN
 10
77.366829
 20
-154.080887
 11
76.441704
 21
-149.065811
  0
ARC
  8
CYAN
 10
71.8824658499
 20
-149.9068108257
 40
4.6361550034
 50
10.4513329075
 51
71.0052448531
  0
LINE
  8
CYAN
 10
73.391449
 20
-145.523102
 11
66.574059
 21
-143.176392
  0
ARC
  8
CYAN
 10
68.3462470075
 20
-138.0279897657
 40
5.4448779509
 50
105.3291900258
 51
251.0054627756
  0
ARC
  8
CYAN
 10
133.5332710217
 20
-375.837218874
 40
252.0266646849
 50
100.1967124522
 51
105.3290893018
  0
LINE
  8
CYAN
 10
349.365204
 20
-156.036667
 11
363.064911
 21
-159.632401
  0
ARC
  8
CYAN
 10
432.5591922237
 20
135.9208921093
 40
303.6135770854
 50
256.7682369059
 51
267.1950670202
  0
ARC
  8
CYAN
 10
420.8581537635
 20
-123.9362799518
 40
43.5073105078
 50
265.8394456724
 51
281.390584013
  0
ARC
  8
CYAN
 10
427.8327289206
 20
-153.8668752829
 40
12.822268703
 50
277.2490900392
 51
51.4087517441
  0
ARC
  8
CYAN
 10
283.3163088152
 20
-334.9553042011
 40
244.5074317328
 50
51.4086219089
 51
61.6048960794
  0
ARC
  8
CYAN
 10
385.5472563135
 20
-145.8445429402
 40
29.5329061464
 50
61.6049367686
 51
108.4310825294
  0
ARC
  8
CYAN
 10
442.1248500267
 20
-315.6163474657
 40
208.4839880717
 50
108.4310097734
 51
122.7112280527
  0
ARC
  8
CYAN
 10
327.4365940442
 20
-137.0480060235
 40
3.7424208074
 50
181.2094578707
 51
302.7111775323
  0
LINE
  8
CYAN
 10
323.695007
 20
-137.126999
 11
323.58136
 21
-131.745285
  0
ARC
  8
CYAN
 10
319.2844410563
 20
-131.835995052
 40
4.2978763038
 50
1.2093621844
 51
93.323902593
  0
LINE
  8
CYAN
 10
319.035248
 20
-127.545349
 11
315.817841
 21
-127.732224
  0
ARC
  8
CYAN
 10
316.0741129607
 20
-132.1660940416
 40
4.4412699607
 50
93.3079417131
 51
179.9997801497
  0
LINE
  8
CYAN
 10
311.632843
 20
-132.166077
 11
311.632843
 21
-152.008377
  0
ARC
  8
CYAN
 10
315.7095678895
 20
-152.0083709021
 40
4.0767248895
 50
180.0000857022
 51
276.9281910407
  0
LINE
  8
CYAN
 10
316.201324
 20
-156.055328
 11
328.198364
 21
-154.59761
  0
ARC
  8
CYAN
 10
335.0160541043
 20
-210.7066068711
 40
56.5216810458
 50
75.293372051
 51
96.9279317669
  0
LINE
  8
CYAN
 10
394.486664
 20
-122.427063
 11
392.745972
 21
-121.99086
  0
ARC
  8
CYAN
 10
390.0782979092
 20
-132.6361740079
 40
10.9744792761
 50
75.9316165083
 51
103.0697687707
  0
ARC
  8
CYAN
 10
415.9391669391
 20
-244.0291476168
 40
125.3299737499
 50
103.0701526569
 51
110.2531484585
  0
ARC
  8
CYAN
 10
373.6610669086
 20
-129.4487886997
 40
3.1985020002
 50
110.2528031208
 51
283.6074564165
  0
ARC
  8
CYAN
 10
415.4717416363
 20
-302.172811977
 40
174.5139644682
 50
97.0394558053
 51
103.6076291438
  0
ARC
  8
CYAN
 10
393.6757019804
 20
-125.6632413194
 40
3.3362418246
 50
277.0393899081
 51
75.9318100978
  0
ARC
  8
CYAN
 10
363.1161529916
 20
-133.4786899718
 40
4.5746389118
 50
287.3968547406
 51
105.832897551
  0
ARC
  8
CYAN
 10
386.1195809305
 20
-214.5944330286
 40
88.8890592005
 50
105.8326957085
 51
118.9644784816
  0
ARC
  8
CYAN
 10
344.3117459157
 20
-139.0606347146
 40
2.5568534118
 50
118.9652068865
 51
273.9433044063
  0
ARC
  8
CYAN
 10
338.5159984993
 20
-54.9638634711
 40
86.8531025671
 50
273.9424786542
 51
287.3967493695
  0
ARC
  8
CYAN
 10
363.4569750044
 20
-148.2631271047
 40
5.3255839993
 50
270.593906322
 51
94.2709296626
  0
ARC
  8
CYAN
 10
373.5510349067
 20
-283.4217680141
 40
140.8606283892
 50
94.2710884962
 51
102.9808909383
  0
ARC
  8
CYAN
 10
342.4275540108
 20
-148.4056836118
 40
2.3037299308
 50
102.9811768321
 51
253.8375801181
  0
ARC
  8
CYAN
 10
362.732140334
 20
-78.3473151824
 40
75.2451530917
 50
253.8371640719
 51
270.5939732664
  0
ARC
  8
CYAN
 10
374.4040339909
 20
-139.4959392955
 40
2.4966459625
 50
101.8146942324
 51
254.6550417337
  0
ARC
  8
CYAN
 10
394.552711685
 20
-66.0737707213
 40
78.6332603536
 50
254.6545441477
 51
271.6153788932
  0
ARC
  8
CYAN
 10
396.6576200263
 20
-140.7128136679
 40
3.9645428669
 50
271.6153604857
 51
79.3336095614
  0
ARC
  8
CYAN
 10
386.2344095721
 20
-196.0543689943
 40
60.279115245
 50
79.3336716376
 51
101.814289536
  0
ARC
  8
CYAN
 10
373.8436020936
 20
-290.8631049203
 40
142.7189980638
 50
81.0157542434
 51
88.9343131157
  0
ARC
  8
CYAN
 10
376.4453800503
 20
-150.9978077725
 40
2.8295038379
 50
88.934699249
 51
246.122559096
  0
ARC
  8
CYAN
 10
395.0661827875
 20
-108.9336521622
 40
48.8308894886
 50
246.122188376
 51
270.6025963931
  0
ARC
  8
CYAN
 10
395.5478893328
 20
-154.7331266909
 40
3.0288818
 50
270.6025514234
 51
355.1688098914
  0
LINE
  8
CYAN
 10
398.56601
 20
-154.98822
 11
398.71759
 21
-153.194748
  0
ARC
  8
CYAN
 10
395.6503191671
 20
-152.9355222132
 40
3.0782053815
 50
355.1692127892
 51
81.0159160754
  0
LINE
  8
CYAN
 10
405.672913
 20
-153.565704
 11
405.886078
 21
-155.635361
  0
ARC
  8
CYAN
 10
408.7076559018
 20
-155.3447328928
 40
2.8365060467
 50
185.8808397715
 51
259.1033419866
  0
ARC
  8
CYAN
 10
427.7556664155
 20
-56.3969714338
 40
103.6010146908
 50
259.1035263947
 51
269.6753476194
  0
ARC
  8
CYAN
 10
427.1804989781
 20
-157.904196108
 40
2.0921605024
 50
269.6752290113
 51
67.4319582665
  0
ARC
  8
CYAN
 10
391.0186944983
 20
-244.9156957508
 40
96.3188932978
 50
67.4323196209
 51
79.1164782635
  0
ARC
  8
CYAN
 10
408.6414995724
 20
-153.2599053918
 40
2.9842953987
 50
79.1168186581
 51
185.8813805723
  0
ARC
  8
CYAN
 10
383.7317303088
 20
-229.011658708
 40
89.3042103873
 50
60.4872764319
 51
73.7136272609
  0
ARC
  8
CYAN
 10
428.8227344013
 20
-149.3548216998
 40
2.2294464403
 50
240.4877320523
 51
13.10234177
  0
ARC
  8
CYAN
 10
424.8602381364
 20
-150.2769992128
 40
6.2978353121
 50
13.101500183
 51
52.2264749674
  0
ARC
  8
CYAN
 10
366.9065506792
 20
-225.0626694231
 40
100.9103416665
 50
52.226787279
 51
63.9374641558
  0
ARC
  8
CYAN
 10
409.9111611981
 20
-137.1338638934
 40
3.0284160226
 50
63.9375161969
 51
172.6373108813
  0
LINE
  8
CYAN
 10
406.907715
 20
-136.745773
 11
406.509888
 21
-139.824661
  0
ARC
  8
CYAN
 10
409.6695358826
 20
-140.2329748205
 40
3.1859213609
 50
172.6366100152
 51
253.7132688654
  0
LINE
  8
CYAN
 10
255.7435
 20
-156.036667
 11
242.04393
 21
-159.632355
  0
ARC
  8
CYAN
 10
172.5494520179
 20
135.9220372843
 40
303.6146921157
 50
272.804931127
 51
283.2317517609
  0
ARC
  8
CYAN
 10
184.2504514197
 20
-123.9363269002
 40
43.5072388459
 50
258.609571368
 51
274.1606718647
  0
ARC
  8
CYAN
 10
177.2759570798
 20
-153.8668632845
 40
12.8222744227
 50
128.5914736911
 51
262.7511339283
  0
ARC
  8
CYAN
 10
321.7926577251
 20
-334.9561148436
 40
244.5082554307
 50
118.3950615215
 51
128.5913210531
  0
ARC
  8
CYAN
 10
219.5614710907
 20
-145.8445359921
 40
29.5328968976
 50
71.5689286771
 51
118.3950583849
  0
ARC
  8
CYAN
 10
162.9837116168
 20
-315.6166007736
 40
208.4842781364
 50
57.2887766493
 51
71.5689712094
  0
ARC
  8
CYAN
 10
277.6721265875
 20
-137.0480006871
 40
3.7424342854
 50
237.2886523738
 51
358.7904647678
  0
LINE
  8
CYAN
 10
281.413727
 20
-137.126999
 11
281.527344
 21
-131.745285
  0
ARC
  8
CYAN
 10
285.8242738806
 20
-131.8360051103
 40
4.2978874505
 50
86.6758514756
 51
178.7905068337
  0
LINE
  8
CYAN
 10
286.073486
 20
-127.545349
 11
289.290894
 21
-127.732224
  0
ARC
  8
CYAN
 10
289.0345854484
 20
-132.1660664751
 40
4.4412445516
 50
359.9998642195
 51
86.6915664991
  0
LINE
  8
CYAN
 10
293.47583
 20
-132.166077
 11
293.47583
 21
-152.008377
  0
ARC
  8
CYAN
 10
289.3991119831
 20
-152.008375015
 40
4.0767180169
 50
263.0721246553
 51
359.9999721019
  0
LINE
  8
CYAN
 10
288.907379
 20
-156.055328
 11
276.91037
 21
-154.59761
  0
ARC
  8
CYAN
 10
270.0926620055
 20
-210.7066428637
 40
56.5217189335
 50
83.0720546313
 51
104.7066305599
  0
LINE
  8
CYAN
 10
210.62207
 20
-122.427063
 11
212.362747
 21
-121.99086
  0
ARC
  8
CYAN
 10
215.0304211518
 20
-132.6361810074
 40
10.9744860805
 50
76.9302398032
 51
104.0683749177
  0
ARC
  8
CYAN
 10
189.1694255533
 20
-244.0294257641
 40
125.3302733005
 50
69.7468477346
 51
76.9298197632
  0
ARC
  8
CYAN
 10
231.4476370571
 20
-129.4487888124
 40
3.1985021179
 50
256.3925262953
 51
69.7471970016
  0
ARC
  8
CYAN
 10
189.6370405936
 20
-302.1723770189
 40
174.5135230789
 50
76.3923625408
 51
82.9605525102
  0
ARC
  8
CYAN
 10
211.4330239846
 20
-125.6632437488
 40
3.336242228
 50
104.0680459076
 51
262.9602135573
  0
ARC
  8
CYAN
 10
241.9925470414
 20
-133.4786908612
 40
4.5746323922
 50
74.1674312225
 51
252.6033686177
  0
ARC
  8
CYAN
 10
218.9890500367
 20
-214.5945350151
 40
88.8891687856
 50
61.0355296487
 51
74.1672961612
  0
ARC
  8
CYAN
 10
260.796987019
 20
-139.0606479356
 40
2.5568359546
 50
266.058062739
 51
61.0361116593
  0
ARC
  8
CYAN
 10
266.5927076457
 20
-54.9638112374
 40
86.8531485681
 50
252.6032690253
 51
266.0575821926
  0
ARC
  8
CYAN
 10
241.6517369874
 20
-148.2631342968
 40
5.325576735
 50
85.7289888929
 51
269.4061682699
  0
ARC
  8
CYAN
 10
231.5578007913
 20
-283.4212018166
 40
140.8600401147
 50
77.0191218165
 51
85.7289412332
  0
ARC
  8
CYAN
 10
262.6811420084
 20
-148.4056843024
 40
2.303725433
 50
286.163435793
 51
77.0193849036
  0
ARC
  8
CYAN
 10
242.3765430855
 20
-78.347314125
 40
75.2451537801
 50
269.4060538334
 51
286.1628758759
  0
ARC
  8
CYAN
 10
230.7047129981
 20
-139.4959409379
 40
2.4966449108
 50
285.3450127469
 51
78.1856052558
  0
ARC
  8
CYAN
 10
210.555978482
 20
-66.0733428216
 40
78.6336885672
 50
268.3846173923
 51
285.3454146817
  0
ARC
  8
CYAN
 10
208.4510659558
 20
-140.7128154414
 40
3.9645414601
 50
100.666144
 51
268.3844512486
  0
ARC
  8
CYAN
 10
218.8743092568
 20
-196.0544141528
 40
60.279162553
 50
78.1857051375
 51
100.6663352033
  0
ARC
  8
CYAN
 10
231.2650675899
 20
-290.8632608602
 40
142.719153915
 50
91.0656843887
 51
98.9842406131
  0
ARC
  8
CYAN
 10
228.6633351591
 20
-150.9978147192
 40
2.8295115686
 50
293.8781420359
 51
91.066152701
  0
ARC
  8
CYAN
 10
210.042555101
 20
-108.9336009792
 40
48.8309411935
 50
269.3973457051
 51
293.877800309
  0
ARC
  8
CYAN
 10
209.5608032176
 20
-154.7331392021
 40
3.0288693374
 50
184.8309725221
 51
269.3973600152
  0
LINE
  8
CYAN
 10
206.542694
 20
-154.98822
 11
206.391129
 21
-153.194748
  0
ARC
  8
CYAN
 10
209.4583853639
 20
-152.9355019844
 40
3.0781926675
 50
98.9849982002
 51
184.8311850819
  0
LINE
  8
CYAN
 10
199.435791
 20
-153.565704
 11
199.22261
 21
-155.635361
  0
ARC
  8
CYAN
 10
196.4010639836
 20
-155.3447520179
 40
2.8364723695
 50
280.896770757
 51
354.119478523
  0
ARC
  8
CYAN
 10
177.3529650198
 20
-56.3968832928
 40
103.6011030659
 50
270.3246750911
 51
280.8965135127
  0
ARC
  8
CYAN
 10
177.9281880901
 20
-157.9041994449
 40
2.0921570858
 50
112.5675784757
 51
270.3243862408
  0
ARC
  8
CYAN
 10
214.0899520303
 20
-244.9154045919
 40
96.3186023779
 50
100.8835389751
 51
112.5677152786
  0
ARC
  8
CYAN
 10
196.4671812801
 20
-153.2599252567
 40
2.9843163889
 50
354.1190443429
 51
100.8832573823
  0
ARC
  8
CYAN
 10
221.3769558242
 20
-229.0112720743
 40
89.3038429514
 50
106.2864503917
 51
119.5128106645
  0
ARC
  8
CYAN
 10
176.2859875145
 20
-149.3548046369
 40
2.2294746313
 50
166.8982770797
 51
299.512657667
  0
ARC
  8
CYAN
 10
180.2484609958
 20
-150.2770220065
 40
6.2978503474
 50
127.7733630052
 51
166.8983187401
  0
ARC
  8
CYAN
 10
238.2021466712
 20
-225.062593582
 40
100.9102776454
 50
116.0625595327
 51
127.7732361136
  0
ARC
  8
CYAN
 10
195.1975329916
 20
-137.1338729955
 40
3.0284269186
 50
7.362836118
 51
116.0625133407
  0
LINE
  8
CYAN
 10
198.200989
 20
-136.745773
 11
198.598816
 21
-139.824661
  0
ARC
  8
CYAN
 10
195.439142112
 20
-140.2329498288
 40
3.185943949
 50
286.2865188717
 51
7.3628843038
  0
LINE
  8
CYAN
 10
571.589111
 20
-135.262573
 11
575.285583
 21
-135.047867
  0
ARC
  8
CYAN
 10
575.5432139546
 20
-139.4828361907
 40
4.4424458839
 50
64.0769325616
 51
93.3246219338
  0
LINE
  8
CYAN
 10
577.485291
 20
-135.487381
 11
579.422852
 21
-136.429214
  0
ARC
  8
CYAN
 10
581.2492151376
 20
-132.6719169139
 40
4.1776648625
 50
244.076340883
 51
0.0003691185
  0
LINE
  8
CYAN
 10
585.42688
 20
-132.67189
 11
585.426819
 21
-128.140915
  0
ARC
  8
CYAN
 10
602.0403581011
 20
-128.1407268536
 40
16.6135391022
 50
110.7363923677
 51
180.0006488681
  0
ARC
  8
CYAN
 10
618.3539110128
 20
-171.2304679998
 40
62.6880201156
 50
70.4539522165
 51
110.7364026056
  0
ARC
  8
CYAN
 10
636.0946450094
 20
-121.2563044246
 40
9.6583052507
 50
292.0792837705
 51
70.4469174589
  0
LINE
  8
CYAN
 10
639.725098
 20
-130.206314
 11
588.938293
 21
-150.886185
  0
ARC
  8
CYAN
 10
592.5575598453
 20
-159.7434041757
 40
9.5681463212
 50
112.2260728245
 51
165.0738491303
  0
LINE
  8
CYAN
 10
583.312256
 20
-157.2789
 11
582.61499
 21
-159.894623
  0
ARC
  8
CYAN
 10
576.6875994209
 20
-158.3145525564
 40
6.1343770413
 50
282.631983967
 51
345.0737002504
  0
ARC
  8
CYAN
 10
575.5077339322
 20
-153.0501390819
 40
11.5293869393
 50
247.3203722408
 51
282.6321959466
  0
LINE
  8
CYAN
 10
571.062256
 20
-163.688019
 11
570.460815
 21
-163.485809
  0
ARC
  8
CYAN
 10
571.4808366291
 20
-159.5387565211
 40
4.0767226292
 50
179.999795915
 51
255.5102805249
  0
LINE
  8
CYAN
 10
567.404114
 20
-159.538742
 11
567.404114
 21
-139.696457
  0
ARC
  8
CYAN
 10
571.8454091909
 20
-139.6964667978
 40
4.4412951909
 50
93.3082618527
 51
179.9998736019
  0
ARC
  8
CYAN
 10
632.078749006
 20
-121.4280163145
 40
6.9833652608
 50
264.2957213265
 51
97.8830324843
  0
LINE
  8
CYAN
 10
631.120972
 20
-114.510643
 11
631.384644
 21
-128.376801
  0
ARC
  8
CYAN
 10
536.9934780585
 20
-38.0894873783
 40
119.5633569282
 50
308.6938065707
 51
314.7959422298
  0
ARC
  8
CYAN
 10
613.0911829262
 20
-133.0959658192
 40
2.162119583
 50
128.6942799266
 51
275.7093183807
  0
ARC
  8
CYAN
 10
611.3019963599
 20
-115.1993128382
 40
20.147985603
 50
275.709101705
 51
312.7083756003
  0
ARC
  8
CYAN
 10
621.9091160407
 20
-126.6907918174
 40
4.5094090357
 50
312.7085865195
 51
22.1409503048
  0
ARC
  8
CYAN
 10
620.3522108052
 20
-127.3241857074
 40
6.1902248276
 50
22.1401241279
 51
45.1474856819
  0
ARC
  8
CYAN
 10
622.9761498363
 20
-124.686804015
 40
2.4698971246
 50
45.1491356882
 51
134.7959079343
  0
ARC
  8
CYAN
 10
619.0964471014
 20
-115.8090781171
 40
2.8152189953
 50
315.2902997132
 51
126.4756653302
  0
ARC
  8
CYAN
 10
664.5964226501
 20
-177.3528302147
 40
79.352015356
 50
126.4759166661
 51
137.4865642691
  0
ARC
  8
CYAN
 10
607.8196678492
 20
-125.3020628158
 40
2.3268099198
 50
137.4858099449
 51
301.1229017765
  0
ARC
  8
CYAN
 10
576.8191496176
 20
-73.958781301
 40
62.3031776602
 50
301.1231169824
 51
315.2907867189
  0
ARC
  8
CYAN
 10
595.4876588955
 20
-122.4082378234
 40
7.6997992387
 50
10.6235475
 51
50.6148610907
  0
ARC
  8
CYAN
 10
598.9188083556
 20
-118.2288850129
 40
2.292417568
 50
50.6149652822
 51
125.2196935878
  0
ARC
  8
CYAN
 10
608.3303698356
 20
-131.5613292482
 40
18.6120854191
 50
125.218918982
 51
167.7389639037
  0
ARC
  8
CYAN
 10
592.2163077605
 20
-128.0593588303
 40
2.1218824681
 50
167.7393410086
 51
301.6361717033
  0
ARC
  8
CYAN
 10
555.0887083165
 20
-67.7920794954
 40
72.9074996432
 50
301.6351370606
 51
310.2337167298
  0
ARC
  8
CYAN
 10
600.502223195
 20
-121.4676644514
 40
2.5977865591
 50
310.2344148465
 51
10.6237656786
  0
LINE
  8
CYAN
 10
604.906189
 20
-132.894547
 11
604.386108
 21
-131.898895
  0
ARC
  8
CYAN
 10
602.0291538075
 20
-133.1300299446
 40
2.6591213431
 50
27.5799325694
 51
120.3135179611
  0
ARC
  8
CYAN
 10
626.5748618761
 20
-175.1121856226
 40
51.2903168863
 50
120.3135449787
 51
134.4417238341
  0
ARC
  8
CYAN
 10
592.2584247453
 20
-140.1203735874
 40
2.2796571596
 50
134.4422707927
 51
288.9303035054
  0
ARC
  8
CYAN
 10
577.824632945
 20
-98.0343520273
 40
46.7719885943
 50
288.9299015039
 51
303.8770592547
  0
ARC
  8
CYAN
 10
602.1840879035
 20
-134.3163983794
 40
3.0710740344
 50
303.8768642363
 51
27.5796855136
  0
LINE
  8
CYAN
 10
545.396484
 20
-135.262573
 11
541.699951
 21
-135.047867
  0
ARC
  8
CYAN
 10
541.4423509702
 20
-139.482717006
 40
4.4423251064
 50
86.6756871055
 51
115.9233789792
  0
LINE
  8
CYAN
 10
539.500305
 20
-135.487381
 11
537.562683
 21
-136.429214
  0
ARC
  8
CYAN
 10
535.736349811
 20
-132.6719368817
 40
4.1776338112
 50
179.9993570225
 51
295.9234094283
  0
LINE
  8
CYAN
 10
531.558716
 20
-132.67189
 11
531.558716
 21
-128.140915
  0
ARC
  8
CYAN
 10
514.9451780435
 20
-128.140726063
 40
16.6135379576
 50
359.9993484054
 51
69.2636103588
  0
ARC
  8
CYAN
 10
498.6316390506
 20
-171.2304210005
 40
62.6879708274
 50
69.2635950606
 51
109.5460492902
  0
ARC
  8
CYAN
 10
480.8892920072
 20
-121.2551786759
 40
9.6566996377
 50
109.5462157634
 51
247.9137974972
  0
LINE
  8
CYAN
 10
477.258362
 20
-130.203262
 11
528.047302
 21
-150.886185
  0
ARC
  8
CYAN
 10
524.4280326935
 20
-159.743407788
 40
9.5681505961
 50
14.9261664321
 51
67.7739217147
  0
LINE
  8
CYAN
 10
533.67334
 20
-157.2789
 11
534.370605
 21
-159.894623
  0
ARC
  8
CYAN
 10
540.2979638477
 20
-158.3146038537
 40
6.1343331677
 50
194.9259131297
 51
257.3676536108
  0
ARC
  8
CYAN
 10
541.4778333958
 20
-153.0500640531
 40
11.5294672219
 50
257.3677288287
 51
292.6796154622
  0
LINE
  8
CYAN
 10
545.92334
 20
-163.688019
 11
546.52478
 21
-163.485809
  0
ARC
  8
CYAN
 10
545.504759496
 20
-159.5387563596
 40
4.0767225041
 50
284.4897035974
 51
0.0002018146
  0
LINE
  8
CYAN
 10
549.581482
 20
-159.538742
 11
549.581482
 21
-139.696457
  0
ARC
  8
CYAN
 10
545.140186838
 20
-139.6964668283
 40
4.441295162
 50
0.0001267924
 51
86.6917514209
  0
ARC
  8
CYAN
 10
484.9068549983
 20
-121.4280200906
 40
6.983363789
 50
82.1172806285
 51
275.7044694898
  0
LINE
  8
CYAN
 10
485.864594
 20
-114.510643
 11
485.600983
 21
-128.376801
  0
ARC
  8
CYAN
 10
579.9918236776
 20
-38.090115358
 40
119.5626828299
 50
225.2039560049
 51
231.3061153589
  0
ARC
  8
CYAN
 10
503.8944072112
 20
-133.0959634825
 40
2.1621214244
 50
264.290815998
 51
51.3055601069
  0
ARC
  8
CYAN
 10
505.6836017626
 20
-115.1993058933
 40
20.1479928242
 50
227.2916312705
 51
264.2908914242
  0
ARC
  8
CYAN
 10
495.0764770186
 20
-126.6907930835
 40
4.5094067891
 50
157.859020713
 51
227.291420688
  0
ARC
  8
CYAN
 10
496.6333779084
 20
-127.3241171376
 40
6.1901922367
 50
134.8531109852
 51
157.8604383322
  0
ARC
  8
CYAN
 10
494.0094461396
 20
-124.6867840011
 40
2.4699040771
 50
45.2032707053
 51
134.8516847254
  0
ARC
  8
CYAN
 10
497.8891078133
 20
-115.8090812157
 40
2.815209648
 50
53.5246980713
 51
224.7097998721
  0
ARC
  8
CYAN
 10
452.3891106804
 20
-177.3533547124
 40
79.3524381014
 50
42.5136696685
 51
53.5243075016
  0
ARC
  8
CYAN
 10
509.1659548841
 20
-125.3020601416
 40
2.3268105206
 50
238.8772011212
 51
42.5140871574
  0
ARC
  8
CYAN
 10
540.1663974719
 20
-73.9585973715
 40
62.3032943277
 50
224.7093450787
 51
238.8770325684
  0
ARC
  8
CYAN
 10
521.4979049755
 20
-122.4081530414
 40
7.6997520307
 50
129.3857052703
 51
169.3770284945
  0
ARC
  8
CYAN
 10
518.0667582697
 20
-118.2289559902
 40
2.2924924935
 50
54.7807296881
 51
129.3845200172
  0
ARC
  8
CYAN
 10
508.6552164026
 20
-131.5613340982
 40
18.612095011
 50
12.2610449582
 51
54.7810650783
  0
ARC
  8
CYAN
 10
524.7693086248
 20
-128.0593952658
 40
2.1218693084
 50
238.3648974884
 51
12.2617430277
  0
ARC
  8
CYAN
 10
561.8972708419
 20
-67.791632335
 40
72.9080884974
 50
229.7662803741
 51
238.3648506636
  0
ARC
  8
CYAN
 10
516.4833650714
 20
-121.4676672008
 40
2.597779465
 50
169.3761432753
 51
229.7656761996
  0
LINE
  8
CYAN
 10
512.079407
 20
-132.894547
 11
512.599426
 21
-131.898895
  0
ARC
  8
CYAN
 10
514.956411045
 20
-133.1300589871
 40
2.6591621359
 50
59.6862185181
 51
152.4198205504
  0
ARC
  8
CYAN
 10
490.4107076048
 20
-175.1125016981
 40
51.290603132
 50
45.5584543844
 51
59.6866076594
  0
ARC
  8
CYAN
 10
524.7272320661
 20
-140.1203738929
 40
2.2796568095
 50
251.0696984866
 51
45.5577491435
  0
ARC
  8
CYAN
 10
539.1609674044
 20
-98.0341722008
 40
46.7721403172
 50
236.1230591127
 51
251.0702356033
  0
ARC
  8
CYAN
 10
514.801504026
 20
-134.3163994148
 40
3.0710709058
 50
152.4202622043
 51
236.1231880457
  0
ARC
  8
CYAN
 10
564.9655874982
 20
170.1436227278
 40
5.9836249302
 50
215.6839772404
 51
267.0196682282
  0
ARC
  8
CYAN
 10
566.5935491405
 20
171.3126718866
 40
7.987854219
 50
193.3021457446
 51
215.6835708097
  0
LINE
  8
CYAN
 10
558.820007
 20
169.474777
 11
571.705444
 21
169.474777
  0
LINE
  8
CYAN
 10
571.705444
 20
169.474777
 11
571.705444
 21
172.474823
  0
LINE
  8
CYAN
 10
571.705444
 20
172.474823
 11
558.690674
 21
172.474823
  0
ARC
  8
CYAN
 10
566.5935036211
 20
171.3127045927
 40
7.9878179256
 50
145.7571404241
 51
171.6345568392
  0
ARC
  8
CYAN
 10
562.6279089116
 20
174.0120079519
 40
3.1907167154
 50
91.3346852093
 51
145.7563875987
  0
LINE
  8
CYAN
 10
562.553589
 20
177.201859
 11
577.950256
 21
177.560913
  0
ARC
  8
CYAN
 10
577.7547475897
 20
185.940680779
 40
8.3820481726
 50
271.3365256908
 51
325.287507769
  0
ARC
  8
CYAN
 10
-40.4964966936
 20
614.2492035325
 40
760.5009162514
 50
325.286788947
 51
327.9284602123
  0
ARC
  8
CYAN
 10
611.1501983529
 20
205.9229929888
 40
8.5073472818
 50
28.4320594225
 51
147.9288569536
  0
ARC
  8
CYAN
 10
561.1288470329
 20
178.8403254455
 40
65.3897388379
 50
14.7206338432
 51
28.4320910391
  0
ARC
  8
CYAN
 10
714.553738382
 20
219.149542014
 40
93.2420052295
 50
194.7205677483
 51
227.9979304045
  0
ARC
  8
CYAN
 10
661.0322563281
 20
159.7122582978
 40
13.2586336025
 50
227.9980066642
 51
264.1999786706
  0
ARC
  8
CYAN
 10
656.1675575121
 20
111.8211782853
 40
34.8788864763
 50
74.0927867561
 51
84.1998441788
  0
ARC
  8
CYAN
 10
665.1192559988
 20
143.2314320957
 40
2.2179472641
 50
287.3641686969
 51
74.0922129631
  0
ARC
  8
CYAN
 10
661.0806246947
 20
156.1463780591
 40
15.7496275753
 50
230.7154469298
 51
287.3648655498
  0
ARC
  8
CYAN
 10
718.1402241089
 20
225.8974958414
 40
105.8663092561
 50
198.2376156303
 51
230.715293244
  0
ARC
  8
CYAN
 10
584.0688970678
 20
181.7196818617
 40
35.2960086005
 50
18.237382158
 51
33.9974812231
  0
ARC
  8
CYAN
 10
609.7760826275
 20
199.0577810639
 40
4.2884438244
 50
33.9971730746
 51
157.6407016902
  0
ARC
  8
CYAN
 10
319.4676882007
 20
318.4743874007
 40
309.6212402308
 50
329.2156666496
 51
337.6404767997
  0
ARC
  8
CYAN
 10
581.6136654652
 20
162.3011999857
 40
4.4809809021
 50
207.2604526119
 51
329.2152020132
  0
ARC
  8
CYAN
 10
571.8290525473
 20
157.2594956465
 40
6.5261727989
 50
27.2607554372
 51
87.0194292574
  0
LINE
  8
CYAN
 10
572.168396
 20
163.77684
 11
564.65448
 21
164.168091
  0
ARC
  8
CYAN
 10
277.6414848973
 20
162.2191100553
 40
7.6360326371
 50
28.8543615646
 51
94.5145465626
  0
ARC
  8
CYAN
 10
288.2442329652
 20
168.0611330008
 40
4.4696477934
 50
208.8544278218
 51
328.47461196
  0
ARC
  8
CYAN
 10
148.8981326491
 20
265.9966943529
 40
174.7806068565
 50
324.9909565437
 51
338.0660969902
  0
ARC
  8
CYAN
 10
318.7796733367
 20
197.9381670634
 40
8.2328962001
 50
40.9859211038
 51
160.3274984404
  0
ARC
  8
CYAN
 10
303.036540116
 20
184.2597517886
 40
29.0882381544
 50
16.4979256098
 51
40.9857851834
  0
ARC
  8
CYAN
 10
431.9714968967
 20
222.4466451717
 40
105.3828067078
 50
196.4977675643
 51
225.55391022
  0
ARC
  8
CYAN
 10
361.5030889114
 20
150.6023900457
 40
4.7478549336
 50
225.5540085145
 51
259.879772538
  0
ARC
  8
CYAN
 10
364.5643770964
 20
167.752839923
 40
22.1693765762
 50
259.8795676265
 51
289.858742268
  0
ARC
  8
CYAN
 10
371.3419350007
 20
148.9878419954
 40
2.2179245396
 50
289.8586808209
 51
86.2869992034
  0
ARC
  8
CYAN
 10
376.3141301587
 20
225.5920418805
 40
74.5474723834
 50
261.9385229793
 51
266.2862561533
  0
ARC
  8
CYAN
 10
367.2593485226
 20
161.6628152565
 40
9.9801812288
 50
221.5676668243
 51
261.9394027494
  0
ARC
  8
CYAN
 10
440.3894138858
 20
226.5163912089
 40
107.7247093305
 50
195.7370677981
 51
221.5674392666
  0
ARC
  8
CYAN
 10
301.9170971067
 20
187.4968178373
 40
36.1401912544
 50
15.7371889686
 51
50.775519838
  0
ARC
  8
CYAN
 10
318.8229015524
 20
208.2072549445
 40
9.4057859098
 50
50.7757289799
 51
143.3518369385
  0
ARC
  8
CYAN
 10
544.3070743079
 20
8.1497314379
 40
310.8120917829
 50
138.5685093268
 51
144.6578417233
  0
ARC
  8
CYAN
 10
282.4950365167
 20
192.9506913146
 40
9.6763282959
 50
273.847614796
 51
328.823361097
  0
LINE
  8
CYAN
 10
283.144348
 20
183.296173
 11
267.658081
 21
182.254593
  0
ARC
  8
CYAN
 10
267.8012015212
 20
180.1256283857
 40
2.1337698593
 50
93.8459456879
 51
159.1569917562
  0
ARC
  8
CYAN
 10
275.7153623444
 20
177.1130086341
 40
10.6019349063
 50
159.1594551191
 51
177.0344829531
  0
LINE
  8
CYAN
 10
265.127625
 20
177.661499
 11
277.676392
 21
177.661499
  0
LINE
  8
CYAN
 10
277.676392
 20
177.661499
 11
277.676392
 21
174.66153
  0
LINE
  8
CYAN
 10
277.676392
 20
174.66153
 11
265.400696
 21
174.66153
  0
ARC
  8
CYAN
 10
275.7150675842
 20
177.1129307193
 40
10.6016803698
 50
193.3693543014
 51
215.6683638993
  0
ARC
  8
CYAN
 10
270.2641411343
 20
173.2005139376
 40
3.8920153841
 50
215.6672779899
 51
274.5141742533
  0
LINE
  8
CYAN
 10
270.570465
 20
169.320572
 11
277.040436
 21
169.831451
  0
ARC
  8
CYAN
 10
-0.3652853546
 20
170.7542162571
 40
2.8973321453
 50
196.1653111504
 51
271.9348595552
  0
ARC
  8
CYAN
 10
15.8238316053
 20
175.4472460187
 40
19.7529554287
 50
186.7874412204
 51
196.1661006346
  0
LINE
  8
CYAN
 10
-3.790684
 20
173.112717
 11
9.362873
 21
173.112717
  0
LINE
  8
CYAN
 10
9.362873
 20
173.112717
 11
9.362873
 21
176.112671
  0
LINE
  8
CYAN
 10
9.362873
 20
176.112671
 11
-3.917893
 21
176.112671
  0
ARC
  8
CYAN
 10
15.8252221275
 20
175.4470516053
 40
19.7543322873
 50
172.8491962337
 51
178.0690614253
  0
ARC
  8
CYAN
 10
-0.312369741
 20
177.471604235
 40
3.4902404079
 50
91.5934314984
 51
172.8488152833
  0
LINE
  8
CYAN
 10
-0.409423
 20
180.960495
 11
14.689946
 21
181.3806
  0
ARC
  8
CYAN
 10
14.4675068329
 20
189.3761849065
 40
7.9986784646
 50
271.5935718436
 51
326.8661673235
  0
ARC
  8
CYAN
 10
142.9099153581
 20
93.7122722474
 40
152.1705953034
 50
130.6006983852
 51
143.1350414414
  0
ARC
  8
CYAN
 10
55.0062275846
 20
198.2601640851
 40
15.6387351121
 50
61.2164908356
 51
135.3542783326
  0
ARC
  8
CYAN
 10
45.0769001175
 20
180.1864220807
 40
36.2603668125
 50
17.2497048885
 51
61.2165229476
  0
ARC
  8
CYAN
 10
193.3441353415
 20
226.2240153439
 40
118.9898603514
 50
197.2498107998
 51
217.7510740675
  0
ARC
  8
CYAN
 10
106.383519722
 20
158.889310145
 40
9.0075381666
 50
217.7510991477
 51
267.1636128039
  0
LINE
  8
CYAN
 10
105.93779
 20
149.892807
 11
110.978767
 21
149.677551
  0
ARC
  8
CYAN
 10
110.8993010243
 20
147.4610208602
 40
2.2179541704
 50
291.7727960497
 51
87.946738593
  0
ARC
  8
CYAN
 10
104.6160024376
 20
163.1921579463
 40
19.157508921
 50
259.133282403
 51
291.7726711201
  0
ARC
  8
CYAN
 10
102.5119913765
 20
152.2316877786
 40
7.9969189349
 50
219.9584612025
 51
259.1329963746
  0
ARC
  8
CYAN
 10
193.955757316
 20
228.8499654369
 40
127.2962181805
 50
198.6369831051
 51
219.9587208006
  0
ARC
  8
CYAN
 10
47.2305156541
 20
179.3660954736
 40
27.5487040072
 50
18.636812973
 51
53.644714965
  0
ARC
  8
CYAN
 10
55.5997455092
 20
190.7365831169
 40
13.4302055888
 50
53.644277623
 51
152.2093056493
  0
ARC
  8
CYAN
 10
-265.3230088172
 20
378.9426652646
 40
358.6230261156
 50
323.2936667754
 51
329.5130900585
  0
ARC
  8
CYAN
 10
18.3659685821
 20
167.1208599635
 40
4.5851288035
 50
206.3539906138
 51
326.4788263069
  0
ARC
  8
CYAN
 10
9.2743748512
 20
162.6168420889
 40
5.5609666811
 50
26.3540610856
 51
91.9352361795
  0
LINE
  8
CYAN
 10
9.086582
 20
168.174637
 11
-0.267462
 21
167.858536
  0
ARC
  8
CYAN
 10
513.0341448711
 20
170.1436649296
 40
5.9836191943
 50
272.9799763194
 51
324.3154858047
  0
ARC
  8
CYAN
 10
511.4061570212
 20
171.3126640465
 40
7.9878405797
 50
324.3164281677
 51
346.6978889114
  0
LINE
  8
CYAN
 10
519.179687
 20
169.474777
 11
506.294189
 21
169.474777
  0
LINE
  8
CYAN
 10
506.294189
 20
169.474777
 11
506.294189
 21
172.474823
  0
LINE
  8
CYAN
 10
506.294189
 20
172.474823
 11
519.30896
 21
172.474823
  0
ARC
  8
CYAN
 10
511.4061653466
 20
171.3128371113
 40
7.9877640514
 50
8.3645392173
 51
34.2419727596
  0
ARC
  8
CYAN
 10
515.3717424195
 20
174.0119263158
 40
3.1907979258
 50
34.2443930517
 51
88.6656600578
  0
LINE
  8
CYAN
 10
515.446045
 20
177.201859
 11
500.049408
 21
177.560913
  0
ARC
  8
CYAN
 10
500.2447399988
 20
185.9405200006
 40
8.3818833251
 50
214.7137154422
 51
268.6646542375
  0
ARC
  8
CYAN
 10
1118.5031864056
 20
614.2519714187
 40
760.508339427
 50
212.0714354413
 51
214.7130969117
  0
ARC
  8
CYAN
 10
466.8494506868
 20
205.9229829901
 40
8.5073652681
 50
32.0711466114
 51
151.5679295859
  0
ARC
  8
CYAN
 10
516.8708266584
 20
178.8405711362
 40
65.3896567647
 50
151.5681148322
 51
165.279569848
  0
ARC
  8
CYAN
 10
363.4458597056
 20
219.149641517
 40
93.2421232779
 50
312.0020587792
 51
345.2793880918
  0
ARC
  8
CYAN
 10
416.9674060261
 20
159.7122620116
 40
13.2586374636
 50
275.8000267834
 51
312.0019878819
  0
ARC
  8
CYAN
 10
421.8321158912
 20
111.8213853626
 40
34.8786814094
 50
95.8002055663
 51
105.907272359
  0
ARC
  8
CYAN
 10
412.880407
 20
143.2314230015
 40
2.2179472391
 50
105.9069276234
 51
252.6350462094
  0
ARC
  8
CYAN
 10
416.9190381216
 20
156.1464398299
 40
15.7496951312
 50
252.6351014647
 51
309.2844985925
  0
ARC
  8
CYAN
 10
359.8595559591
 20
225.8973749404
 40
105.8661611816
 50
309.2847121323
 51
341.7624268564
  0
ARC
  8
CYAN
 10
493.9307720107
 20
181.7195749822
 40
35.2960468725
 50
146.0023514092
 51
161.7624556404
  0
ARC
  8
CYAN
 10
468.2236126751
 20
199.0577840331
 40
4.2884424151
 50
22.3592631607
 51
146.0028620745
  0
ARC
  8
CYAN
 10
758.5298888035
 20
318.473125393
 40
309.6188013874
 50
202.3594563219
 51
210.7843303804
  0
ARC
  8
CYAN
 10
496.3860139913
 20
162.3012099997
 40
4.480999306
 50
210.784806837
 51
332.7395245986
  0
ARC
  8
CYAN
 10
506.1706032697
 20
157.2595621742
 40
6.5261074956
 50
92.9807923958
 51
152.7396061996
  0
LINE
  8
CYAN
 10
505.831238
 20
163.77684
 11
513.345215
 21
164.168137
  0
ARC
  8
CYAN
 10
231.7574514249
 20
162.2191396902
 40
7.6360011011
 50
85.4856253478
 51
151.145761937
  0
ARC
  8
CYAN
 10
221.1547305266
 20
168.061128989
 40
4.4696392957
 50
211.5253945279
 51
331.145570875
  0
ARC
  8
CYAN
 10
360.5012476916
 20
265.9971248808
 40
174.7811891281
 50
201.9339782928
 51
215.0090820688
  0
ARC
  8
CYAN
 10
190.619245035
 20
197.9381619934
 40
8.2329050899
 50
19.6725169118
 51
139.0140859093
  0
ARC
  8
CYAN
 10
206.3623546516
 20
184.2597993648
 40
29.0881946971
 50
139.0142645868
 51
163.5021467739
  0
ARC
  8
CYAN
 10
77.4273824388
 20
222.4467237295
 40
105.3828737599
 50
314.4460659521
 51
343.5021986877
  0
ARC
  8
CYAN
 10
147.8958084533
 20
150.602375718
 40
4.7478430491
 50
280.1204079507
 51
314.4460921857
  0
ARC
  8
CYAN
 10
144.83453351
 20
167.7528470417
 40
22.1693834776
 50
250.1412625078
 51
280.1204275977
  0
ARC
  8
CYAN
 10
138.0569920069
 20
148.9878390485
 40
2.2179275455
 50
93.7130218399
 51
250.1408800897
  0
ARC
  8
CYAN
 10
133.0848528442
 20
225.5912007777
 40
74.5466293547
 50
273.7137419994
 51
278.061512123
  0
ARC
  8
CYAN
 10
142.1395454061
 20
161.6629242182
 40
9.9802913675
 50
278.0606008896
 51
318.4322956981
  0
ARC
  8
CYAN
 10
69.0097386246
 20
226.5162321431
 40
107.7244481682
 50
318.4325726652
 51
344.2629809579
  0
ARC
  8
CYAN
 10
207.481755107
 20
187.4969051631
 40
36.1400965489
 50
129.2245151607
 51
164.2629125587
  0
ARC
  8
CYAN
 10
190.576014057
 20
208.2073059929
 40
9.4057593965
 50
36.6484726636
 51
129.2245649167
  0
ARC
  8
CYAN
 10
-34.9093068502
 20
8.1490062864
 40
310.8134440539
 50
35.3421453772
 51
41.4314676403
  0
ARC
  8
CYAN
 10
226.9038772022
 20
192.9506978769
 40
9.6763340193
 50
211.1766638135
 51
266.1524603666
  0
LINE
  8
CYAN
 10
226.254578
 20
183.296173
 11
241.740845
 21
182.254593
  0
ARC
  8
CYAN
 10
241.5977169442
 20
180.1256400413
 40
2.1337587353
 50
20.8427870736
 51
86.1538314549
  0
ARC
  8
CYAN
 10
233.6835575291
 20
177.1129612339
 40
10.6019434768
 50
2.9657711543
 51
20.8408013454
  0
LINE
  8
CYAN
 10
244.271301
 20
177.661499
 11
231.722534
 21
177.661499
  0
LINE
  8
CYAN
 10
231.722534
 20
177.661499
 11
231.722534
 21
174.66153
  0
LINE
  8
CYAN
 10
231.722534
 20
174.66153
 11
243.998215
 21
174.66153
  0
ARC
  8
CYAN
 10
233.6838542363
 20
177.1128565181
 40
10.6016526854
 50
324.3320223269
 51
346.6310223234
  0
ARC
  8
CYAN
 10
239.1347979829
 20
173.200517992
 40
3.8920192777
 50
265.4858580758
 51
324.3326896811
  0
LINE
  8
CYAN
 10
238.828476
 20
169.320572
 11
232.358475
 21
169.831451
  0
ARC
  8
CYAN
 10
-28.5811314962
 20
170.7542143653
 40
2.8973314753
 50
268.0644247259
 51
343.8347239603
  0
ARC
  8
CYAN
 10
-44.7702446904
 20
175.4470345249
 40
19.752892785
 50
343.8344854111
 51
353.2131549469
  0
LINE
  8
CYAN
 10
-25.155767
 20
173.112717
 11
-38.309288
 21
173.112717
  0
LINE
  8
CYAN
 10
-38.309288
 20
173.112717
 11
-38.309288
 21
176.112671
  0
LINE
  8
CYAN
 10
-38.309288
 20
176.112671
 11
-25.028559
 21
176.112671
  0
ARC
  8
CYAN
 10
-44.7715800853
 20
175.4470590741
 40
19.7542380468
 50
1.930926115
 51
7.150816226
  0
ARC
  8
CYAN
 10
-28.6340817614
 20
177.4716047835
 40
3.4902398458
 50
7.1511768008
 51
88.4065764175
  0
LINE
  8
CYAN
 10
-28.537029
 20
180.960495
 11
-43.636398
 21
181.3806
  0
ARC
  8
CYAN
 10
-43.4139964391
 20
189.3761842457
 40
7.9986767583
 50
213.133835002
 51
268.4066973
  0
ARC
  8
CYAN
 10
-171.8563607492
 20
93.7124428671
 40
152.1704588541
 50
36.8649167862
 51
49.3992628399
  0
ARC
  8
CYAN
 10
-83.9526804705
 20
198.2601660685
 40
15.6387315027
 50
44.6457245151
 51
118.7835001856
  0
ARC
  8
CYAN
 10
-74.0233283954
 20
180.1864677404
 40
36.260336772
 50
118.7835404896
 51
162.7503559185
  0
ARC
  8
CYAN
 10
-222.2904030271
 20
226.2240559479
 40
118.9897355238
 50
322.2488546634
 51
342.7501500643
  0
ARC
  8
CYAN
 10
-135.3299622355
 20
158.8892783987
 40
9.0075072764
 50
272.8365021008
 51
322.2490041023
  0
LINE
  8
CYAN
 10
-134.884216
 20
149.892807
 11
-139.925217
 21
149.677551
  0
ARC
  8
CYAN
 10
-139.8457470506
 20
147.4610217087
 40
2.2179534648
 50
92.0533647769
 51
248.2273086716
  0
ARC
  8
CYAN
 10
-133.5624525371
 20
163.1921260513
 40
19.157476297
 50
248.2273159927
 51
280.8667153127
  0
ARC
  8
CYAN
 10
-131.4584448125
 20
152.2317986982
 40
7.9970271935
 50
280.8668287243
 51
320.0414323116
  0
ARC
  8
CYAN
 10
-222.902024505
 20
228.8498473178
 40
127.2960365827
 50
320.0412976909
 51
341.3630454361
  0
ARC
  8
CYAN
 10
-76.1769042586
 20
179.3661196459
 40
27.5487250842
 50
126.3554293977
 51
161.3632548663
  0
ARC
  8
CYAN
 10
-84.5462251998
 20
190.7364050459
 40
13.4303355483
 50
27.7905230518
 51
126.3551940837
  0
ARC
  8
CYAN
 10
236.3753687762
 20
378.9417153262
 40
358.6215066622
 50
210.4869051106
 51
216.7063249065
  0
ARC
  8
CYAN
 10
-47.3124210037
 20
167.1208589998
 40
4.5851287535
 50
213.5211596614
 51
333.6460225166
  0
ARC
  8
CYAN
 10
-38.2208261746
 20
162.6168408957
 40
5.5609678171
 50
88.0647814997
 51
153.6459309924
  0
LINE
  8
CYAN
 10
-38.033035
 20
168.174637
 11
-28.678991
 21
167.858536
  0
LINE
  8
CYAN
 10
285.444458
 20
25.855059
 11
285.444458
 21
33.438644
  0
ARC
  8
CYAN
 10
283.944488054
 20
46.8550270575
 40
13.4999720068
 50
276.3792551432
 51
357.1790574241
  0
ARC
  8
CYAN
 10
256.5398691999
 20
48.205403791
 40
40.9378409448
 50
357.1790206962
 51
21.6016465267
  0
ARC
  8
CYAN
 10
296.6944653562
 20
64.1050492024
 40
2.250008234
 50
37.615755561
 51
201.6012030978
  0
ARC
  8
CYAN
 10
262.2701798488
 20
37.5788434888
 40
45.7088510883
 50
356.7683136272
 51
37.6166031112
  0
ARC
  8
CYAN
 10
283.9444885
 20
36.355041
 40
24.0000199811
 50
183.2316956931
 51
356.7683043069
  0
ARC
  8
CYAN
 10
305.6188109561
 20
37.5788748582
 40
45.7088666397
 50
142.3834615509
 51
183.2317246561
  0
ARC
  8
CYAN
 10
271.1944670475
 20
64.105052973
 40
2.2499943705
 50
338.3985538478
 51
142.384093629
  0
ARC
  8
CYAN
 10
311.349077776
 20
48.2055446456
 40
40.9378178896
 50
158.3985527255
 51
182.8211782705
  0
ARC
  8
CYAN
 10
283.9444737588
 20
46.8550092566
 40
13.499955962
 50
182.8208702902
 51
263.6206739839
  0
LINE
  8
CYAN
 10
282.444489
 20
33.438644
 11
282.444489
 21
25.855059
  0
LINE
  8
CYAN
 10
282.444489
 20
25.855059
 11
285.444458
 21
25.855059
  0
LINE
  8
CYAN
 10
369.747162
 20
33.438644
 11
369.747162
 21
25.855059
  0
LINE
  8
CYAN
 10
369.747162
 20
25.855059
 11
366.747162
 21
25.855059
  0
LINE
  8
CYAN
 10
366.747162
 20
25.855059
 11
366.747162
 21
33.438644
  0
ARC
  8
CYAN
 10
368.2471546695
 20
46.8550012997
 40
13.4999489333
 50
183.805899746
 51
263.6206368655
  0
ARC
  8
CYAN
 10
387.8626621281
 20
48.1599826309
 40
33.1588173934
 50
153.2361922069
 51
183.8060584159
  0
ARC
  8
CYAN
 10
356.247176589
 20
64.1050552929
 40
2.2499988544
 50
333.2361880671
 51
135.8246804995
  0
ARC
  8
CYAN
 10
380.992755979
 20
40.0619529048
 40
36.7523824211
 50
135.8248943125
 51
199.2740433188
  0
ARC
  8
CYAN
 10
368.2471615
 20
35.605008
 40
23.2499923917
 50
199.2740842149
 51
340.7259157851
  0
ARC
  8
CYAN
 10
355.5015680481
 20
40.061974782
 40
36.752388673
 50
340.7259239585
 51
44.1750486648
  0
ARC
  8
CYAN
 10
380.2471769384
 20
64.1050559561
 40
2.2499987311
 50
44.1752990003
 51
206.7638324331
  0
ARC
  8
CYAN
 10
348.6317079919
 20
48.1599260397
 40
33.1588284841
 50
356.19404086
 51
26.7639076454
  0
ARC
  8
CYAN
 10
368.2471926495
 20
46.8550446334
 40
13.4999894077
 50
276.3792443436
 51
356.1939273611
  0
LINE
  8
CYAN
 10
701.351501
 20
33.455505
 11
701.351501
 21
25.855059
  0
LINE
  8
CYAN
 10
701.351501
 20
25.855059
 11
704.351501
 21
25.855059
  0
LINE
  8
CYAN
 10
704.351501
 20
25.855059
 11
704.351501
 21
33.455505
  0
ARC
  8
CYAN
 10
702.851510645
 20
44.6049838802
 40
11.2499266827
 50
277.6622563323
 51
299.6175478217
  0
ARC
  8
CYAN
 10
702.1170449886
 20
45.8970609123
 40
12.7361645017
 50
299.6173140579
 51
45.6042020571
  0
ARC
  8
CYAN
 10
712.6015349499
 20
56.6050389503
 40
2.2500065707
 50
43.929176581
 51
225.6041757068
  0
ARC
  8
CYAN
 10
689.3648611464
 20
34.2209326007
 40
34.5144022186
 50
356.3265351735
 51
43.9293603525
  0
ARC
  8
CYAN
 10
702.851471
 20
33.355044
 40
21.0000243782
 50
183.6734087438
 51
356.3265912562
  0
ARC
  8
CYAN
 10
716.3381417579
 20
34.2207943395
 40
34.5144541396
 50
136.0704039839
 51
183.6732292996
  0
ARC
  8
CYAN
 10
693.101498025
 20
56.6050379752
 40
2.2499849032
 50
314.3952962624
 51
136.0702574218
  0
ARC
  8
CYAN
 10
703.5859580114
 20
45.8970609123
 40
12.7361645017
 50
134.3957979429
 51
240.3826859421
  0
ARC
  8
CYAN
 10
702.8514926868
 20
44.6049837683
 40
11.2499267494
 50
240.3824504279
 51
262.3377368698
  0
LINE
  8
CYAN
 10
616.079346
 20
33.455505
 11
616.079346
 21
25.855059
  0
LINE
  8
CYAN
 10
616.079346
 20
25.855059
 11
619.079346
 21
25.855059
  0
LINE
  8
CYAN
 10
619.079346
 20
25.855059
 11
619.079346
 21
33.438644
  0
ARC
  8
CYAN
 10
617.5793637785
 20
46.8550426676
 40
13.4999888842
 50
276.3792995585
 51
16.2572048561
  0
ARC
  8
CYAN
 10
596.2186553649
 20
42.7775860363
 40
35.2087033278
 50
12.8940365509
 51
28.5859244597
  0
ARC
  8
CYAN
 10
628.8293625635
 20
61.1050505408
 40
2.2500146084
 50
51.7513940903
 51
221.1620596077
  0
ARC
  8
CYAN
 10
611.7019670282
 20
39.3778927732
 40
29.9161864159
 50
322.4206474709
 51
51.7514803806
  0
ARC
  8
CYAN
 10
617.579346
 20
34.855028
 40
22.49999539
 50
217.5792580352
 51
322.4207419648
  0
ARC
  8
CYAN
 10
623.4567130863
 20
39.3778946944
 40
29.9161781682
 50
128.2485055247
 51
217.5793693275
  0
ARC
  8
CYAN
 10
606.3293248628
 20
61.1050471444
 40
2.2500150634
 50
318.8380654016
 51
128.2484809004
  0
ARC
  8
CYAN
 10
638.9400229992
 20
42.7775946388
 40
35.2086881161
 50
151.4140779942
 51
167.1059721436
  0
ARC
  8
CYAN
 10
617.5732648707
 20
46.8641576231
 40
13.4916180927
 50
163.7727478478
 51
263.6426356183
  0
LINE
  8
CYAN
 10
535.123901
 20
33.438644
 11
535.123901
 21
25.855059
  0
LINE
  8
CYAN
 10
535.123901
 20
25.855059
 11
532.123901
 21
25.855059
  0
LINE
  8
CYAN
 10
532.123901
 20
25.855059
 11
532.123901
 21
33.438644
  0
ARC
  8
CYAN
 10
533.6239092024
 20
46.8550377905
 40
13.499986924
 50
184.4093345947
 51
263.6205885578
  0
ARC
  8
CYAN
 10
540.8475406426
 20
47.4120457592
 40
20.7450617381
 50
143.4534142373
 51
184.4093234954
  0
ARC
  8
CYAN
 10
522.3739105376
 20
61.1050515202
 40
2.2500119959
 50
323.4538276115
 51
133.0506486243
  0
ARC
  8
CYAN
 10
544.9874009801
 20
36.897815951
 40
35.3764395711
 50
133.0504570447
 51
182.7345500627
  0
ARC
  8
CYAN
 10
533.6239015
 20
36.355036
 40
23.999984477
 50
182.7344948517
 51
357.2655051483
  0
ARC
  8
CYAN
 10
522.2604111399
 20
36.8978196556
 40
35.3764306383
 50
357.2654432394
 51
46.9495496532
  0
ARC
  8
CYAN
 10
544.8739212462
 20
61.1050562197
 40
2.2499889127
 50
46.9498053051
 51
216.5467570446
  0
ARC
  8
CYAN
 10
526.4003048906
 20
47.4121323799
 40
20.7450249934
 50
355.590428731
 51
36.5463631939
  0
ARC
  8
CYAN
 10
533.6238994161
 20
46.8550313957
 40
13.4999798334
 50
276.3793865417
 51
355.5906903058
  0
LINE
  8
CYAN
 10
208.923462
 20
34.955486
 11
208.923462
 21
27.355042
  0
LINE
  8
CYAN
 10
208.923462
 20
27.355042
 11
205.923447
 21
27.355042
  0
LINE
  8
CYAN
 10
205.923447
 20
27.355042
 11
205.923447
 21
34.955486
  0
ARC
  8
CYAN
 10
207.4234685112
 20
46.1050504556
 40
11.2500156482
 50
184.0571008294
 51
262.3376445187
  0
ARC
  8
CYAN
 10
226.0916847848
 20
47.4291848422
 40
29.9651333531
 50
154.8799354024
 51
184.0571552997
  0
ARC
  8
CYAN
 10
196.9234387041
 20
61.1050185867
 40
2.2500029657
 50
334.8806060134
 51
144.29115809
  0
ARC
  8
CYAN
 10
232.8661256749
 20
35.2694198437
 40
46.5146040493
 50
144.2914116896
 51
184.3029721012
  0
ARC
  8
CYAN
 10
207.4234235
 20
33.355035
 40
20.9999815106
 50
184.3029416222
 51
355.6970583778
  0
ARC
  8
CYAN
 10
181.9807296818
 20
35.2694801318
 40
46.5146002396
 50
355.6969530741
 51
35.7085002278
  0
ARC
  8
CYAN
 10
217.9234452606
 20
61.105049153
 40
2.2499932739
 50
35.7080607265
 51
205.1203693708
  0
ARC
  8
CYAN
 10
188.755215903
 20
47.4292155217
 40
29.9651278553
 50
355.9427851456
 51
25.1200047371
  0
ARC
  8
CYAN
 10
207.4234588016
 20
46.1050159187
 40
11.2499789779
 50
277.6622865007
 51
355.9430622612
  0
LINE
  8
CYAN
 10
451.18985
 20
25.855059
 11
454.18988
 21
25.855059
  0
LINE
  8
CYAN
 10
454.18988
 20
25.855059
 11
454.18988
 21
33.438644
  0
ARC
  8
CYAN
 10
452.6898690323
 20
46.8550380342
 40
13.4999874735
 50
276.3794229908
 51
356.8315681689
  0
ARC
  8
CYAN
 10
441.8416311624
 20
47.4556453408
 40
24.3648387846
 50
356.8313517201
 51
30.8537802558
  0
ARC
  8
CYAN
 10
464.6898939432
 20
61.1050469566
 40
2.2499931061
 50
43.9516097276
 51
210.8542096926
  0
ARC
  8
CYAN
 10
439.5972778935
 20
36.9141852809
 40
37.1045074311
 50
357.5547248736
 51
43.9517500793
  0
ARC
  8
CYAN
 10
452.689865
 20
36.355044
 40
23.9999862223
 50
182.4451916105
 51
357.5548083895
  0
ARC
  8
CYAN
 10
465.7824877967
 20
36.9141414634
 40
37.1045412193
 50
136.048206236
 51
182.4452051749
  0
ARC
  8
CYAN
 10
440.6898671961
 20
61.1050478501
 40
2.2499925863
 50
329.1457558959
 51
136.0484091146
  0
ARC
  8
CYAN
 10
463.5381239554
 20
47.4555938191
 40
24.3648610163
 50
149.1461098457
 51
183.1685240432
  0
ARC
  8
CYAN
 10
452.6898609677
 20
46.8550380342
 40
13.4999874735
 50
183.1684318311
 51
263.6205770092
  0
LINE
  8
CYAN
 10
451.18985
 20
33.438644
 11
451.18985
 21
25.855059
  0
ARC
  8
CYAN
 10
29.8138109684
 20
-8.610166287
 40
62.6824915587
 50
146.3173805283
 51
157.8225475607
  0
ARC
  8
CYAN
 10
-36.3874298396
 20
18.3756811182
 40
8.8076493329
 50
274.9453234479
 51
337.8225029436
  0
ARC
  8
CYAN
 10
-24.6391446855
 20
-117.394749738
 40
127.4701261808
 50
94.9455277708
 51
107.5954892279
  0
ARC
  8
CYAN
 10
-65.9939115473
 20
13.0076709908
 40
9.3326810789
 50
254.3287922898
 51
287.595380683
  0
ARC
  8
CYAN
 10
-71.238182141
 20
-5.6855360629
 40
10.0822194878
 50
74.3288932657
 51
153.7877366017
  0
LINE
  8
CYAN
 10
-80.283585
 20
-1.232241
 11
-97.194283
 21
-1.232241
  0
LINE
  8
CYAN
 10
-97.194283
 20
-1.232241
 11
-97.194283
 21
-4.232239
  0
LINE
  8
CYAN
 10
-97.194283
 20
-4.232239
 11
-78.081612
 21
-4.232239
  0
ARC
  8
CYAN
 10
-83.1039779333
 20
-5.6104629126
 40
5.2080380875
 50
269.9996252184
 51
15.3452057173
  0
LINE
  8
CYAN
 10
-83.104012
 20
-10.818501
 11
-107.446564
 21
-10.818429
  0
ARC
  8
CYAN
 10
-107.4465604245
 20
-4.0442816104
 40
6.7741473896
 50
184.9049793676
 51
269.9999697583
  0
LINE
  8
CYAN
 10
-114.1959
 20
-4.623495
 11
-114.474953
 21
-1.371513
  0
ARC
  8
CYAN
 10
-118.1240982437
 20
-1.684651928
 40
3.6625560744
 50
4.9046264428
 51
142.179655014
  0
LINE
  8
CYAN
 10
-121.017288
 20
0.561182
 11
-123.191643
 21
-2.239955
  0
ARC
  8
CYAN
 10
-125.8526929941
 20
-0.1743220045
 40
3.3686832358
 50
143.3012475364
 51
322.1796928057
  0
ARC
  8
CYAN
 10
-132.5087350793
 20
4.7867026357
 40
4.932802277
 50
323.3013479975
 51
12.14012422
  0
ARC
  8
CYAN
 10
-116.3574960578
 20
8.2610853744
 40
11.5879076757
 50
157.2947312098
 51
192.1402440691
  0
ARC
  8
CYAN
 10
-97.9365127562
 20
0.5533197829
 40
31.5564398254
 50
139.0006857697
 51
157.2945454313
  0
ARC
  8
CYAN
 10
-118.01157046
 20
18.0038700056
 40
4.9570104163
 50
42.1780670079
 51
139.0006041208
  0
LINE
  8
CYAN
 10
-114.33812
 20
21.33219
 11
-120.82177
 21
10.102133
  0
LINE
  8
CYAN
 10
-120.82177
 20
10.102133
 11
-118.223671
 21
8.602116
  0
LINE
  8
CYAN
 10
-118.223671
 20
8.602116
 11
-112.222076
 21
18.997229
  0
ARC
  8
CYAN
 10
-109.8201157606
 20
22.7389180599
 40
4.4463074582
 50
237.3017506805
 51
330.7794783701
  0
LINE
  8
CYAN
 10
-105.939613
 20
20.568354
 11
-96.559044
 21
36.816055
  0
ARC
  8
CYAN
 10
-90.4161237813
 20
33.3799361108
 40
7.0386349411
 50
82.9604928986
 51
150.7789895801
  0
LINE
  8
CYAN
 10
-89.553513
 20
40.365513
 11
-67.86261
 21
37.792595
  0
ARC
  8
CYAN
 10
-68.3402782543
 20
33.5939143582
 40
4.2257645572
 50
347.225157444
 51
83.5095779646
  0
LINE
  8
CYAN
 10
-64.219116
 20
32.659512
 11
-64.494865
 21
31.443308
  0
LINE
  8
CYAN
 10
-64.494865
 20
31.443308
 11
-84.127205
 21
33.506882
  0
LINE
  8
CYAN
 10
-84.127205
 20
33.506882
 11
-84.440849
 21
30.523342
  0
LINE
  8
CYAN
 10
-84.440849
 20
30.523342
 11
-65.162849
 21
28.496977
  0
LINE
  8
CYAN
 10
-65.162849
 20
28.496977
 11
-65.242455
 21
28.145872
  0
ARC
  8
CYAN
 10
-59.1352374515
 20
26.7611846182
 40
6.2622252698
 50
167.2253243933
 51
265.0650896411
  0
ARC
  8
CYAN
 10
-57.8560881888
 20
41.5746271296
 40
21.1307928496
 50
265.0648286811
 51
293.0931666501
  0
ARC
  8
CYAN
 10
-54.2895238056
 20
33.2099941984
 40
12.0375280033
 50
293.0934944609
 51
338.0852899998
  0
ARC
  8
CYAN
 10
-8.6726225416
 20
14.8579779569
 40
37.1325663747
 50
150.7215650581
 51
158.0845257147
  0
ARC
  8
CYAN
 10
-16.8577034239
 20
25.4526710139
 40
25.3586566134
 50
150.8387519607
 51
162.6429196551
  0
LINE
  8
CYAN
 10
-39.002197
 20
37.809162
 11
-35.826519
 21
32.314476
  0
LINE
  8
CYAN
 10
-35.826519
 20
32.314476
 11
-33.229115
 21
33.815655
  0
LINE
  8
CYAN
 10
-33.229115
 20
33.815655
 11
-37.169895
 21
40.634136
  0
ARC
  8
CYAN
 10
-16.8577698508
 20
25.4525490417
 40
25.3586870845
 50
121.1550669863
 51
143.2250102755
  0
LINE
  8
CYAN
 10
-29.97724
 20
47.153759
 11
-28.086512
 21
41.820873
  0
LINE
  8
CYAN
 10
-28.086512
 20
41.820873
 11
-25.258959
 21
42.823318
  0
LINE
  8
CYAN
 10
-25.258959
 20
42.823318
 11
-27.294264
 21
48.564102
  0
ARC
  8
CYAN
 10
-16.8575888145
 20
25.4525247616
 40
25.3588089502
 50
104.1214813256
 51
114.3028786554
  0
ARC
  8
CYAN
 10
-6.8918871083
 20
-14.1594990378
 40
66.205199733
 50
98.8466674553
 51
104.1215310271
  0
LINE
  8
CYAN
 10
-17.073631
 20
51.258087
 11
-16.369459
 21
45.523155
  0
LINE
  8
CYAN
 10
-16.369459
 20
45.523155
 11
-13.391843
 21
45.888756
  0
LINE
  8
CYAN
 10
-13.391843
 20
45.888756
 11
-14.099503
 21
51.652176
  0
LINE
  8
CYAN
 10
-14.099503
 20
51.652176
 11
-10.945771
 21
51.921455
  0
ARC
  8
CYAN
 10
-8.671983135
 20
14.8584639375
 40
37.1326731836
 50
82.6484245523
 51
93.5106549164
  0
LINE
  8
CYAN
 10
-3.920582
 20
51.685894
 11
-4.473346
 21
45.934177
  0
LINE
  8
CYAN
 10
-4.473346
 20
45.934177
 11
-1.487082
 21
45.647202
  0
LINE
  8
CYAN
 10
-1.487082
 20
45.647202
 11
-0.95532
 21
51.180511
  0
ARC
  8
CYAN
 10
-8.6721977654
 20
14.8577895546
 40
37.1334121196
 50
62.322221437
 51
78.0056672701
  0
LINE
  8
CYAN
 10
8.576221
 20
47.742168
 11
6.818079
 21
42.331089
  0
LINE
  8
CYAN
 10
6.818079
 20
42.331089
 11
9.671248
 21
41.404037
  0
LINE
  8
CYAN
 10
9.671248
 20
41.404037
 11
11.231582
 21
46.206326
  0
LINE
  8
CYAN
 10
11.231582
 20
46.206326
 11
13.007709
 21
45.005306
  0
ARC
  8
CYAN
 10
-79.859248604
 20
-84.1327325446
 40
159.0625814382
 50
51.6870414444
 51
54.2789785536
  0
LINE
  8
CYAN
 10
18.752634
 20
40.673523
 11
15.900991
 21
35.734253
  0
LINE
  8
CYAN
 10
15.900991
 20
35.734253
 11
18.499052
 21
34.234272
  0
LINE
  8
CYAN
 10
18.499052
 20
34.234272
 11
21.116917
 21
38.768551
  0
ARC
  8
CYAN
 10
-79.8615369251
 20
-84.1361421842
 40
159.0666896739
 50
46.5914432061
 51
50.5934866638
  0
LINE
  8
CYAN
 10
29.448458
 20
31.421362
 11
25.359426
 21
27.332331
  0
LINE
  8
CYAN
 10
25.359426
 20
27.332331
 11
27.480736
 21
25.211021
  0
LINE
  8
CYAN
 10
27.480736
 20
25.211021
 11
31.608681
 21
29.338968
  0
ARC
  8
CYAN
 10
-79.8623787403
 20
-84.1370724009
 40
159.0679380161
 50
42.6208278536
 51
45.510670677
  0
ARC
  8
CYAN
 10
32.7566439173
 20
19.4970117596
 40
6.0219721622
 50
279.4221884041
 51
42.6208005891
  0
ARC
  8
CYAN
 10
31.0954948078
 20
29.5073437784
 40
16.1691965852
 50
229.8964643081
 51
279.4220705371
  0
ARC
  8
CYAN
 10
-27.0289665174
 20
-39.5092966832
 40
74.0624478915
 50
49.8965979346
 51
67.1518863621
  0
ARC
  8
CYAN
 10
-12.7378579613
 20
-5.5918920084
 40
37.2572020202
 50
67.1519117747
 51
88.4507036912
  0
ARC
  8
CYAN
 10
-12.064569097
 20
19.3009169498
 40
12.3552893282
 50
88.4507741536
 51
146.3174805566
  0
ARC
  8
CYAN
 10
11.5953339408
 20
-124.9849106058
 40
2.8512476326
 50
117.2928652303
 51
259.8029504599
  0
LINE
  8
CYAN
 10
10.287926
 20
-122.45108
 11
12.298123
 21
-121.413857
  0
ARC
  8
CYAN
 10
11.0153147205
 20
-118.9276094175
 40
2.7976819196
 50
297.2919964641
 51
355.1134591628
  0
ARC
  8
CYAN
 10
-2.5535180914
 20
-117.7677870467
 40
16.4159935551
 50
355.1142456995
 51
15.8371477999
  0
LINE
  8
CYAN
 10
13.239345
 20
-113.287796
 11
-1.67577
 21
-121.555458
  0
LINE
  8
CYAN
 10
-1.67577
 20
-121.555458
 11
-4.58464
 21
-116.307777
  0
LINE
  8
CYAN
 10
-4.58464
 20
-116.307777
 11
10.57083
 21
-107.906837
  0
ARC
  8
CYAN
 10
-2.5533644354
 20
-117.7676566488
 40
16.4158534266
 50
36.9192467973
 51
45.1431616264
  0
ARC
  8
CYAN
 10
4.9904407443
 20
-110.1860209563
 40
5.7205181649
 50
45.1428969193
 51
115.4630664834
  0
ARC
  8
CYAN
 10
27.8598659195
 20
-158.2120807428
 40
58.9136852679
 50
115.4632064062
 51
133.5475534183
  0
ARC
  8
CYAN
 10
-8.3658441259
 20
-120.1015993248
 40
6.3331673722
 50
133.5472145612
 51
184.0880310592
  0
LINE
  8
CYAN
 10
-14.682898
 20
-120.553085
 11
-14.381281
 21
-124.772705
  0
ARC
  8
CYAN
 10
-19.4801284132
 20
-125.1371373599
 40
5.1118544471
 50
258.0146979896
 51
4.0881766842
  0
LINE
  8
CYAN
 10
-20.54166
 20
-130.137558
 11
-25.169031
 21
-129.155243
  0
ARC
  8
CYAN
 10
-26.3252828168
 20
-134.6019708349
 40
5.5681022235
 50
78.0149560346
 51
186.0465206329
  0
LINE
  8
CYAN
 10
-31.862408
 20
-135.188492
 11
-31.505308
 21
-138.559647
  0
ARC
  8
CYAN
 10
-41.7288579723
 20
-139.6424786792
 40
10.2807343357
 50
351.550925725
 51
6.0459662525
  0
LINE
  8
CYAN
 10
-31.559702
 20
-141.15303
 11
-31.845003
 21
-143.073898
  0
ARC
  8
CYAN
 10
-27.4274758692
 20
-143.7300132203
 40
4.4659862442
 50
171.5518784132
 51
249.8408667827
  0
LINE
  8
CYAN
 10
-28.966583
 20
-147.922409
 11
-22.49452
 21
-139.930069
  0
LINE
  8
CYAN
 10
-22.49452
 20
-139.930069
 11
-20.16305
 21
-141.818024
  0
LINE
  8
CYAN
 10
-20.16305
 20
-141.818024
 11
-26.556955
 21
-149.713852
  0
ARC
  8
CYAN
 10
-14.1990715233
 20
-127.6589657779
 40
25.2811251785
 50
240.7370408009
 51
247.5802347109
  0
ARC
  8
CYAN
 10
-21.8887596508
 20
-146.2972619381
 40
5.1188488375
 50
247.5803775124
 51
312.525776222
  0
LINE
  8
CYAN
 10
-18.428818
 20
-150.069717
 11
-17.615131
 21
-149.323471
  0
ARC
  8
CYAN
 10
-15.4324278608
 20
-151.7033470309
 40
3.2292418485
 50
22.4623961608
 51
132.5254895805
  0
LINE
  8
CYAN
 10
-12.448187
 20
-150.469528
 11
-11.066585
 21
-153.811188
  0
ARC
  8
CYAN
 10
-2.9815388005
 20
-150.4684404142
 40
8.7488246908
 50
202.4625585369
 51
265.1443825651
  0
ARC
  8
CYAN
 10
10.1288647565
 20
3.8618960058
 40
163.6350262097
 50
265.144366927
 51
272.1208315787
  0
ARC
  8
CYAN
 10
15.9320138786
 20
-152.8433431049
 40
6.8223720505
 50
272.1210275106
 51
349.5489772597
  0
LINE
  8
CYAN
 10
22.641205
 20
-154.080887
 11
23.566294
 21
-149.065811
  0
ARC
  8
CYAN
 10
28.1255303606
 20
-149.9068075812
 40
4.6361526551
 50
108.9947940288
 51
169.5487025126
  0
LINE
  8
CYAN
 10
26.616545
 20
-145.523102
 11
33.433971
 21
-143.176376
  0
ARC
  8
CYAN
 10
31.6617669877
 20
-138.0279876165
 40
5.4448700635
 50
288.9947439092
 51
74.6710272144
  0
ARC
  8
CYAN
 10
-33.5251536613
 20
-375.8366564911
 40
252.0260891691
 50
74.6709043843
 51
79.8032927399
  0
LINE
  8
CYAN
 10
2.740094
 20
379.303772
 11
7.72402
 21
377.05127
  0
LINE
  8
CYAN
 10
7.72402
 20
377.05127
 11
13.396457
 21
388.15097
  0
LINE
  8
CYAN
 10
13.396457
 20
388.15097
 11
16.067842
 21
386.785797
  0
LINE
  8
CYAN
 10
16.067842
 20
386.785797
 11
4.619195
 21
364.383392
  0
ARC
  8
CYAN
 10
-14.533535472
 20
373.8516251023
 40
21.3652643937
 50
309.5084740296
 51
333.6943163553
  0
ARC
  8
CYAN
 10
1.8292104535
 20
354.0079917149
 40
4.3545575387
 50
129.5083430385
 51
190.8018886744
  0
ARC
  8
CYAN
 10
34.2672777434
 20
360.1970189408
 40
37.3777655523
 50
190.8019289641
 51
208.8984492477
  0
ARC
  8
CYAN
 10
5.2426543295
 20
344.1756062957
 40
4.2248708452
 50
208.8986313239
 51
264.6739376338
  0
LINE
  8
CYAN
 10
4.850487
 20
339.968976
 11
12.059983
 21
339.296844
  0
ARC
  8
CYAN
 10
11.4817189933
 20
333.0938692899
 40
6.229870345
 50
52.9602549417
 51
84.6740707225
  0
LINE
  8
CYAN
 10
15.234399
 20
338.066663
 11
18.886166
 21
335.310883
  0
ARC
  8
CYAN
 10
20.0589799223
 20
336.8650047903
 40
1.9469943594
 50
232.9600663463
 51
359.6454282279
  0
ARC
  8
CYAN
 10
7.9215273465
 20
336.9400914561
 40
14.0846791896
 50
359.6455350058
 51
37.8325048362
  0
ARC
  8
CYAN
 10
17.8022033932
 20
344.6132769058
 40
1.5744620022
 50
37.8335001614
 51
119.4624273405
  0
LINE
  8
CYAN
 10
17.0278
 20
345.984127
 11
14.610882
 21
344.618805
  0
ARC
  8
CYAN
 10
12.1806787533
 20
348.9211434856
 40
4.9412553328
 50
266.6555125943
 51
299.4602093074
  0
ARC
  8
CYAN
 10
12.2567133644
 20
350.2252517811
 40
6.247578296
 50
168.9061759606
 51
266.6571219917
  0
ARC
  8
CYAN
 10
16.6932267818
 20
349.3552515684
 40
10.7685905354
 50
152.0193031287
 51
168.9057191177
  0
ARC
  8
CYAN
 10
22.565758842
 20
346.2353737935
 40
17.4184228736
 50
117.8530848731
 51
152.0194935277
  0
ARC
  8
CYAN
 10
16.876502968
 20
357.0017732892
 40
5.2412725296
 50
28.9434257026
 51
117.8528616388
  0
ARC
  8
CYAN
 10
23.7790683288
 20
360.8190592571
 40
2.6465079392
 50
208.9441162904
 51
21.8473139234
  0
ARC
  8
CYAN
 10
55.0658798717
 20
373.3627715147
 40
31.0611958349
 50
183.9264585142
 51
201.8471447597
  0
ARC
  8
CYAN
 10
39.0413302659
 20
372.2629065046
 40
14.9989452732
 50
106.4819437423
 51
183.9265109516
  0
LINE
  8
CYAN
 10
34.785932
 20
386.645533
 11
37.273705
 21
387.381622
  0
ARC
  8
CYAN
 10
35.5899761986
 20
393.0723444814
 40
5.9345821283
 50
286.4820415119
 51
78.7675678876
  0
ARC
  8
CYAN
 10
207.3131833121
 20
1257.7811638861
 40
875.6606777374
 50
257.0954676063
 51
258.7677259487
  0
ARC
  8
CYAN
 10
11.0578980935
 20
401.1974017282
 40
3.1179511399
 50
77.0937042768
 51
112.9644609577
  0
LINE
  8
CYAN
 10
9.841398
 20
404.068246
 11
2.740094
 21
379.303772
  0
LINE
  8
CYAN
 10
111.62854
 20
379.303772
 11
106.644615
 21
377.05127
  0
LINE
  8
CYAN
 10
106.644615
 20
377.05127
 11
100.972214
 21
388.15097
  0
LINE
  8
CYAN
 10
100.972214
 20
388.15097
 11
98.300797
 21
386.785797
  0
LINE
  8
CYAN
 10
98.300797
 20
386.785797
 11
109.749443
 21
364.383392
  0
ARC
  8
CYAN
 10
128.902172357
 20
373.8516315562
 40
21.3652662542
 50
206.3057004849
 51
230.4915513394
  0
ARC
  8
CYAN
 10
112.539420685
 20
354.0079968728
 40
4.3545603339
 50
349.1980492528
 51
50.4914850024
  0
ARC
  8
CYAN
 10
80.1013556879
 20
360.1969979754
 40
37.3777611995
 50
331.1015995358
 51
349.19810248
  0
ARC
  8
CYAN
 10
109.1259849104
 20
344.1756084169
 40
4.2248725638
 50
275.3260024436
 51
331.1014880956
  0
LINE
  8
CYAN
 10
109.518148
 20
339.968976
 11
102.308655
 21
339.296844
  0
ARC
  8
CYAN
 10
102.8869618669
 20
333.0938715609
 40
6.2298720623
 50
95.3263236978
 51
127.0398006608
  0
LINE
  8
CYAN
 10
99.134276
 20
338.066663
 11
95.482475
 21
335.310883
  0
ARC
  8
CYAN
 10
94.3096568903
 20
336.8650038943
 40
1.9469961665
 50
180.3545450747
 51
307.0400478959
  0
ARC
  8
CYAN
 10
106.4471080413
 20
336.9400925994
 40
14.0846795845
 50
142.1675022998
 51
180.3544696351
  0
ARC
  8
CYAN
 10
96.5664310144
 20
344.6132767869
 40
1.574462397
 50
60.5375560194
 51
142.1665055196
  0
LINE
  8
CYAN
 10
97.340835
 20
345.984127
 11
99.75779
 21
344.618805
  0
ARC
  8
CYAN
 10
102.1879880899
 20
348.9211367962
 40
4.9412469722
 50
240.5398046068
 51
273.3441580509
  0
ARC
  8
CYAN
 10
102.1119246356
 20
350.2252517811
 40
6.247578296
 50
273.3428780083
 51
11.0938240394
  0
ARC
  8
CYAN
 10
97.6754070408
 20
349.3553507021
 40
10.7685755595
 50
11.0937590073
 51
27.9801479576
  0
ARC
  8
CYAN
 10
91.8029120816
 20
346.2353419409
 40
17.4184365884
 50
27.9806048735
 51
62.1470540134
  0
ARC
  8
CYAN
 10
97.4921372996
 20
357.001773369
 40
5.2412723341
 50
62.1471405403
 51
151.0565616198
  0
ARC
  8
CYAN
 10
90.5895726206
 20
360.8190592812
 40
2.6465075111
 50
158.1527062464
 51
331.05590273
  0
ARC
  8
CYAN
 10
59.3027541547
 20
373.3627585173
 40
31.061197843
 50
338.1528805684
 51
356.0735676206
  0
ARC
  8
CYAN
 10
75.3273089629
 20
372.2629090534
 40
14.9989431557
 50
356.0734825628
 51
73.5180627433
  0
LINE
  8
CYAN
 10
79.582705
 20
386.645534
 11
77.094933
 21
387.381622
  0
ARC
  8
CYAN
 10
78.7786568395
 20
393.0723453114
 40
5.9345815164
 50
101.2324435031
 51
253.5180066986
  0
ARC
  8
CYAN
 10
-92.944580052
 20
1257.7811583829
 40
875.6606779377
 50
281.2322759659
 51
282.9045355282
  0
ARC
  8
CYAN
 10
103.3107363587
 20
401.1974020398
 40
3.1179522371
 50
67.0354767808
 51
102.9059979911
  0
LINE
  8
CYAN
 10
104.52724
 20
404.068246
 11
111.62854
 21
379.303772
  0
ARC
  8
CYAN
 10
-31.6395111998
 20
74.0598174999
 40
595.3533634067
 50
30.2820616741
 51
32.5298189733
  0
ARC
  8
CYAN
 10
506.2065725995
 20
417.0990915107
 40
42.5763767467
 50
191.3199853219
 51
212.5296782559
  0
ARC
  8
CYAN
 10
461.1164495501
 20
408.0728501029
 40
3.4083188657
 50
11.3197999854
 51
189.8669116739
  0
ARC
  8
CYAN
 10
498.4496643674
 20
414.5659452473
 40
41.3019755002
 50
189.8663930438
 51
222.1639267637
  0
ARC
  8
CYAN
 10
420.7218782573
 20
344.1758442515
 40
63.5616266302
 50
355.7803199834
 51
42.163906785
  0
LINE
  8
CYAN
 10
484.111206
 20
339.498932
 11
484.111145
 21
303.318298
  0
ARC
  8
CYAN
 10
490.111176144
 20
303.3182857817
 40
6.0000311441
 50
179.9998833247
 51
246.8461269488
  0
ARC
  8
CYAN
 10
494.9001849893
 20
314.5168055254
 40
18.1795816353
 50
246.8461698996
 51
263.8657715473
  0
LINE
  8
CYAN
 10
492.95755
 20
296.441315
 11
492.957611
 21
308.440002
  0
LINE
  8
CYAN
 10
492.957611
 20
308.440002
 11
495.957611
 21
308.439911
  0
LINE
  8
CYAN
 10
495.957611
 20
308.439911
 11
495.95752
 21
296.441315
  0
ARC
  8
CYAN
 10
494.015302008
 20
314.5167517408
 40
18.1794836038
 50
276.1329398524
 51
293.1523203431
  0
ARC
  8
CYAN
 10
498.8039653154
 20
303.3181794779
 40
6.0000206847
 50
293.1525296854
 51
359.9996803105
  0
LINE
  8
CYAN
 10
504.803986
 20
303.318146
 11
504.804016
 21
339.503143
  0
ARC
  8
CYAN
 10
568.1934591069
 20
344.175156311
 40
63.5613814024
 50
137.8354273223
 51
184.215268311
  0
ARC
  8
CYAN
 10
490.4666321201
 20
414.5660172461
 40
41.3020199186
 50
317.8354234655
 51
350.1329572921
  0
ARC
  8
CYAN
 10
527.7998190527
 20
408.0724489901
 40
3.4083096854
 50
350.1331316592
 51
168.6790528191
  0
ARC
  8
CYAN
 10
482.709775582
 20
417.0993594458
 40
42.5764392273
 50
327.4695087736
 51
348.6792026593
  0
ARC
  8
CYAN
 10
1020.5516259657
 20
74.0554294088
 40
595.3522354375
 50
147.4696422932
 51
149.7174029577
  0
ARC
  8
CYAN
 10
546.2550009572
 20
351.0187738854
 40
46.1109563278
 50
149.7173980489
 51
169.3537412597
  0
ARC
  8
CYAN
 10
612.7632301328
 20
338.5164981907
 40
113.7840783602
 50
169.3537346733
 51
177.9218790185
  0
ARC
  8
CYAN
 10
497.2685519614
 20
342.7073629764
 40
1.7866101106
 50
245.0169516304
 51
357.9209567634
  0
ARC
  8
CYAN
 10
494.4578065422
 20
336.6748603229
 40
4.8685666773
 50
65.0178497119
 51
90.0005006588
  0
ARC
  8
CYAN
 10
494.4577339332
 20
336.6749394283
 40
4.8684875718
 50
89.9996461524
 51
114.9823565232
  0
ARC
  8
CYAN
 10
491.6470237642
 20
342.7073881444
 40
1.7866254375
 50
182.0769128188
 51
294.9821922246
  0
ARC
  8
CYAN
 10
376.1525889746
 20
338.5177922281
 40
113.7837738062
 50
2.0775203586
 51
10.6456623851
  0
ARC
  8
CYAN
 10
442.6605506605
 20
351.0193229099
 40
46.111052293
 50
10.6456193046
 51
30.2819624823
  0
ARC
  8
CYAN
 10
112.2531036112
 20
48.0554934793
 40
8.227830983
 50
193.1554654155
 51
244.933911549
  0
ARC
  8
CYAN
 10
105.4610490065
 20
33.533614995
 40
7.8039175326
 50
39.4862811608
 51
64.9339927333
  0
LINE
  8
CYAN
 10
111.483932
 20
38.496075
 11
111.483932
 21
3.840596
  0
LINE
  8
CYAN
 10
111.483932
 20
3.840596
 11
111.278275
 21
0.438806
  0
ARC
  8
CYAN
 10
108.8896113952
 20
0.5832013679
 40
2.3930239947
 50
269.3657318742
 51
356.5406641087
  0
LINE
  8
CYAN
 10
108.863121
 20
-1.809676
 11
100.902962
 21
-1.758626
  0
LINE
  8
CYAN
 10
100.902962
 20
-1.758626
 11
100.902855
 21
16.689522
  0
LINE
  8
CYAN
 10
100.902855
 20
16.689522
 11
97.902855
 21
16.689486
  0
LINE
  8
CYAN
 10
97.902855
 20
16.689486
 11
97.902924
 21
-1.758626
  0
LINE
  8
CYAN
 10
97.902924
 20
-1.758626
 11
89.942909
 21
-1.809785
  0
ARC
  8
CYAN
 10
89.9163498826
 20
0.5830551093
 40
2.3929875
 50
183.4602460368
 51
270.6359233286
  0
LINE
  8
CYAN
 10
87.527725
 20
0.438624
 11
87.321777
 21
3.84383
  0
LINE
  8
CYAN
 10
87.321777
 20
3.84383
 11
87.321777
 21
38.496258
  0
ARC
  8
CYAN
 10
93.3444862707
 20
33.5335486591
 40
7.8039420142
 50
115.0671655547
 51
140.5114949704
  0
ARC
  8
CYAN
 10
86.5521659624
 20
48.0553069536
 40
8.2278102024
 50
295.0670204376
 51
346.8453197741
  0
ARC
  8
CYAN
 10
98.3553430366
 20
45.2967530291
 40
3.8934359712
 50
90.0006186107
 51
166.8454404169
  0
LINE
  8
CYAN
 10
98.355301
 20
49.190189
 11
100.449974
 21
49.190189
  0
ARC
  8
CYAN
 10
100.4499749662
 20
45.2967860268
 40
3.8934029732
 50
13.1552625029
 51
90.0000142181
  0
ARC
  8
CYAN
 10
220.9440207831
 20
338.5933889617
 40
2.639776129
 50
191.9849479002
 51
8.0216163839
  0
LINE
  8
CYAN
 10
218.361786
 20
338.045227
 11
212.92131
 21
363.672363
  0
ARC
  8
CYAN
 10
191.1368985085
 20
356.7472781614
 40
22.8586391557
 50
17.6350315119
 51
126.0062882009
  0
ARC
  8
CYAN
 10
180.4166833972
 20
371.0933621948
 40
4.9569415046
 50
123.2490039088
 51
137.8205903372
  0
LINE
  8
CYAN
 10
176.743362
 20
374.421722
 11
171.223801
 21
383.981903
  0
LINE
  8
CYAN
 10
171.223801
 20
383.981903
 11
168.625732
 21
382.481903
  0
LINE
  8
CYAN
 10
168.625732
 20
382.481903
 11
174.62738
 21
372.086761
  0
ARC
  8
CYAN
 10
172.2254253009
 20
375.8284729248
 40
4.4463237067
 50
209.2205649329
 51
302.6980300718
  0
LINE
  8
CYAN
 10
168.34491
 20
373.657898
 11
159.595886
 21
388.811615
  0
ARC
  8
CYAN
 10
165.603390998
 20
392.5109390462
 40
7.0551480991
 50
153.3375566092
 51
211.6240871059
  0
ARC
  8
CYAN
 10
164.4725828882
 20
393.1052329656
 40
5.7779526584
 50
121.2076210227
 51
153.5722640166
  0
ARC
  8
CYAN
 10
165.065507423
 20
393.5984030767
 40
5.7144858314
 50
35.9835115028
 51
128.8772184436
  0
LINE
  8
CYAN
 10
169.68959
 20
396.955963
 11
173.666321
 21
391.479095
  0
ARC
  8
CYAN
 10
175.3173756413
 20
392.6778789668
 40
2.0403588968
 50
215.9823378295
 51
334.6002066856
  0
LINE
  8
CYAN
 10
177.160507
 20
391.802704
 11
179.403229
 21
396.525757
  0
ARC
  8
CYAN
 10
184.8837078364
 20
393.9234008647
 40
6.0669519308
 50
104.5833141986
 51
154.5997145971
  0
ARC
  8
CYAN
 10
214.9384752444
 20
278.4030664073
 40
125.4329299862
 50
95.986502172
 51
104.5832682853
  0
ARC
  8
CYAN
 10
202.2526989247
 20
401.3462940357
 40
1.8485981212
 50
26.9302062708
 51
102.3742202647
  0
LINE
  8
CYAN
 10
203.900833
 20
402.183533
 11
205.574738
 21
398.898285
  0
LINE
  8
CYAN
 10
205.574738
 20
398.898285
 11
194.605148
 21
396.163269
  0
LINE
  8
CYAN
 10
194.605148
 20
396.163269
 11
195.330887
 21
393.252411
  0
LINE
  8
CYAN
 10
195.330887
 20
393.252411
 11
206.972549
 21
396.154907
  0
LINE
  8
CYAN
 10
206.972549
 20
396.154907
 11
216.078476
 21
378.283539
  0
LINE
  8
CYAN
 10
216.078476
 20
378.283539
 11
218.749847
 21
379.648712
  0
LINE
  8
CYAN
 10
218.749847
 20
379.648712
 11
209.936798
 21
396.893982
  0
LINE
  8
CYAN
 10
209.936798
 20
396.893982
 11
222.264725
 21
399.967621
  0
ARC
  8
CYAN
 10
226.6453004112
 20
377.1119729543
 40
23.2716584825
 50
88.0340841771
 51
100.8498858849
  0
ARC
  8
CYAN
 10
227.8889988344
 20
391.4894091121
 40
8.8916855613
 50
18.9522962961
 51
92.8710200005
  0
ARC
  8
CYAN
 10
242.6182984843
 20
396.5474846891
 40
6.6818945259
 50
198.9529811256
 51
234.6605090265
  0
ARC
  8
CYAN
 10
233.6227880942
 20
383.8615158668
 40
8.8697295746
 50
15.8767210266
 51
54.6594015282
  0
ARC
  8
CYAN
 10
151.7431411684
 20
360.5725070944
 40
93.9970137449
 50
7.0855456029
 51
15.8772723408
  0
ARC
  8
CYAN
 10
240.0151669596
 20
373.2313909575
 40
5.118992172
 50
284.9038138878
 51
348.0005991494
  0
LINE
  8
CYAN
 10
241.331757
 20
368.284607
 11
239.289566
 21
378.790771
  0
LINE
  8
CYAN
 10
239.289566
 20
378.790771
 11
236.344666
 21
378.218353
  0
LINE
  8
CYAN
 10
236.344666
 20
378.218353
 11
238.485474
 21
367.20517
  0
LINE
  8
CYAN
 10
238.485474
 20
367.20517
 11
237.556381
 21
366.857147
  0
ARC
  8
CYAN
 10
232.9158995364
 20
379.244796328
 40
13.2283001208
 50
273.5642819719
 51
290.536225726
  0
LINE
  8
CYAN
 10
233.738281
 20
366.042084
 11
232.249832
 21
365.949341
  0
LINE
  8
CYAN
 10
232.249832
 20
365.949341
 11
228.049622
 21
380.596771
  0
LINE
  8
CYAN
 10
228.049622
 20
380.596771
 11
225.165833
 21
379.769867
  0
LINE
  8
CYAN
 10
225.165833
 20
379.769867
 11
229.149918
 21
365.87616
  0
LINE
  8
CYAN
 10
229.149918
 20
365.87616
 11
223.841782
 21
361.721771
  0
ARC
  8
CYAN
 10
228.1063586002
 20
356.2728270088
 40
6.919364436
 50
128.0482531468
 51
188.0208600963
  0
LINE
  8
CYAN
 10
221.254684
 20
355.307343
 11
223.557968
 21
338.961761
  0
ARC
  8
CYAN
 10
706.5618332325
 20
371.4486108183
 40
20.1957681081
 50
61.8059323434
 51
68.5103730286
  0
ARC
  8
CYAN
 10
712.532122345
 20
386.5742721025
 40
3.9344968905
 50
68.7176325229
 51
144.3657155504
  0
ARC
  8
CYAN
 10
698.9301528223
 20
396.3245598952
 40
12.8011443265
 50
276.6754000884
 51
324.3660140354
  0
LINE
  8
CYAN
 10
700.418213
 20
383.610199
 11
700.418213
 21
366.714203
  0
LINE
  8
CYAN
 10
700.418213
 20
366.714203
 11
697.4422
 21
366.714203
  0
LINE
  8
CYAN
 10
697.4422
 20
366.714203
 11
697.4422
 21
383.610199
  0
ARC
  8
CYAN
 10
698.9301685122
 20
396.3246116981
 40
12.8011851229
 50
215.634476277
 51
263.3250343608
  0
ARC
  8
CYAN
 10
685.3282824398
 20
386.5742748704
 40
3.9344168377
 50
35.6339775462
 51
111.5376136801
  0
ARC
  8
CYAN
 10
691.2984283112
 20
371.4474766077
 40
20.1967250197
 50
111.5377911599
 51
118.1923212918
  0
LINE
  8
CYAN
 10
681.756836
 20
389.248199
 11
689.039917
 21
379.223969
  0
LINE
  8
CYAN
 10
689.039917
 20
379.223969
 11
686.612854
 21
377.460571
  0
LINE
  8
CYAN
 10
686.612854
 20
377.460571
 11
679.220764
 21
387.63501
  0
ARC
  8
CYAN
 10
691.2982242646
 20
371.4477528765
 40
20.1963447095
 50
126.7269553581
 51
136.0413395118
  0
ARC
  8
CYAN
 10
678.6439029745
 20
383.6503106057
 40
2.6169743444
 50
136.0421919441
 51
216.5603141739
  0
LINE
  8
CYAN
 10
676.54187
 20
382.091461
 11
681.835449
 21
374.953217
  0
ARC
  8
CYAN
 10
677.6415560322
 20
371.8430881294
 40
5.2212680277
 50
295.4855833332
 51
36.5600837229
  0
ARC
  8
CYAN
 10
689.7759627039
 20
346.3864607646
 40
22.979506821
 50
115.4857632513
 51
141.491286257
  0
ARC
  8
CYAN
 10
676.701409964
 20
356.7895917725
 40
6.2711536974
 50
141.490680245
 51
223.8446955125
  0
LINE
  8
CYAN
 10
672.178528
 20
352.445526
 11
680.238037
 21
360.039612
  0
LINE
  8
CYAN
 10
680.238037
 20
360.039612
 11
682.27887
 21
357.873688
  0
LINE
  8
CYAN
 10
682.27887
 20
357.873688
 11
673.864929
 21
349.945587
  0
ARC
  8
CYAN
 10
690.0939791188
 20
364.0700425417
 40
21.5146999075
 50
221.0336803514
 51
255.8037432792
  0
LINE
  8
CYAN
 10
684.817627
 20
343.212372
 11
688.877869
 21
356.492432
  0
LINE
  8
CYAN
 10
688.877869
 20
356.492432
 11
691.723877
 21
355.622284
  0
LINE
  8
CYAN
 10
691.723877
 20
355.622284
 11
687.787537
 21
342.747498
  0
ARC
  8
CYAN
 10
688.9722961828
 20
347.2008062837
 40
4.6082110402
 50
255.1020970656
 51
311.877493912
  0
LINE
  8
CYAN
 10
692.048462
 20
343.769653
 11
694.634094
 21
346.087769
  0
ARC
  8
CYAN
 10
698.9302365
 20
341.295825
 40
6.4358035768
 50
48.1226816686
 51
131.8773183314
  0
LINE
  8
CYAN
 10
703.226379
 20
346.087769
 11
705.812012
 21
343.769653
  0
ARC
  8
CYAN
 10
708.8881588761
 20
347.2007980297
 40
4.6081922506
 50
228.1226129304
 51
284.8974239596
  0
LINE
  8
CYAN
 10
710.072876
 20
342.747498
 11
706.880371
 21
353.189514
  0
LINE
  8
CYAN
 10
706.880371
 20
353.189514
 11
709.726318
 21
354.059601
  0
LINE
  8
CYAN
 10
709.726318
 20
354.059601
 11
713.042725
 21
343.212372
  0
ARC
  8
CYAN
 10
707.7663718059
 20
364.0700418807
 40
21.5146995303
 50
284.1962599289
 51
318.9663211083
  0
LINE
  8
CYAN
 10
723.995422
 20
349.945587
 11
713.72998
 21
359.618256
  0
LINE
  8
CYAN
 10
713.72998
 20
359.618256
 11
715.770874
 21
361.784271
  0
LINE
  8
CYAN
 10
715.770874
 20
361.784271
 11
725.681946
 21
352.445526
  0
ARC
  8
CYAN
 10
721.1590919647
 20
356.7896692416
 40
6.2711872184
 50
316.1546172641
 51
38.509234048
  0
ARC
  8
CYAN
 10
708.0847507648
 20
346.3863919821
 40
22.9794658714
 50
38.5093041057
 51
64.5148495204
  0
ARC
  8
CYAN
 10
720.2189159588
 20
371.8430881654
 40
5.2212671958
 50
143.4399099996
 51
244.5144367373
  0
LINE
  8
CYAN
 10
716.025024
 20
374.953217
 11
721.318542
 21
382.091522
  0
ARC
  8
CYAN
 10
719.2165069918
 20
383.6503971209
 40
2.6169911765
 50
323.4392636451
 51
44.3188544174
  0
ARC
  8
CYAN
 10
706.5623975183
 20
371.4477055437
 40
20.1962571968
 50
44.0061343163
 51
53.2736019464
  0
LINE
  8
CYAN
 10
718.639648
 20
387.63501
 11
711.247559
 21
377.460571
  0
LINE
  8
CYAN
 10
711.247559
 20
377.460571
 11
708.820496
 21
379.223969
  0
LINE
  8
CYAN
 10
708.820496
 20
379.223969
 11
716.103516
 21
389.248199
  0
LINE
  8
CYAN
 10
-586.413025
 20
179.570099
 11
-601.218811
 21
177.406921
  0
LINE
  8
CYAN
 10
-601.218811
 20
177.406921
 11
-601.652527
 21
180.375427
  0
LINE
  8
CYAN
 10
-601.652527
 20
180.375427
 11
-586.846619
 21
182.538589
  0
LINE
  8
CYAN
 10
-586.846619
 20
182.538589
 11
-587.986023
 21
189.764526
  0
ARC
  8
CYAN
 10
-590.3305445594
 20
189.3757095721
 40
2.3765436156
 50
9.41625478
 51
82.2634927977
  0
ARC
  8
CYAN
 10
-591.381978518
 20
181.6339918151
 40
10.1893348695
 50
82.2652242947
 51
111.6248050537
  0
LINE
  8
CYAN
 10
-595.137024
 20
191.106171
 11
-606.06604
 21
186.773285
  0
ARC
  8
CYAN
 10
-602.289611709
 20
177.2466912243
 40
10.2477997445
 50
111.6238242468
 51
143.6312807977
  0
ARC
  8
CYAN
 10
-616.7872063971
 20
187.9230387195
 40
7.7567732184
 50
286.8397585841
 51
323.6312141151
  0
LINE
  8
CYAN
 10
-614.5401
 20
180.498886
 11
-623.369629
 21
177.826385
  0
ARC
  8
CYAN
 10
-623.1218329389
 20
175.7227685819
 40
2.1181607405
 50
96.7182125311
 51
279.9008366272
  0
LINE
  8
CYAN
 10
-622.757629
 20
173.636154
 11
-613.53241
 21
173.601425
  0
ARC
  8
CYAN
 10
-613.5617588902
 20
165.844656963
 40
7.7568235597
 50
52.9918055877
 51
89.7832138968
  0
ARC
  8
CYAN
 10
-602.7244131733
 20
180.2223540665
 40
10.2477935208
 50
232.9929238056
 51
265.0004166028
  0
LINE
  8
CYAN
 10
-603.617493
 20
170.01355
 11
-591.905579
 21
168.988831
  0
ARC
  8
CYAN
 10
-591.0175839724
 20
179.1392731753
 40
10.1892105446
 50
265.0003002137
 51
294.3598460048
  0
ARC
  8
CYAN
 10
-587.7950821362
 20
172.0222717536
 40
2.3766419987
 50
294.3576725791
 51
7.7784394948
  0
LINE
  8
CYAN
 10
-585.440308
 20
172.343933
 11
-586.413025
 21
179.570099
  0
ARC
  8
CYAN
 10
-615.9550050435
 20
150.2258616043
 40
4.7154280414
 50
91.726900535
 51
255.7216932458
  0
ARC
  8
CYAN
 10
-600.4894681282
 20
210.9976373321
 40
67.4242117737
 50
255.7220988728
 51
272.1570374922
  0
ARC
  8
CYAN
 10
-598.0403007741
 20
145.9727686213
 40
2.3532353588
 50
272.1572200469
 51
47.8905437952
  0
ARC
  8
CYAN
 10
-615.2521678146
 20
126.9303329318
 40
28.0215567689
 50
47.8905491169
 51
91.7279121476
  0
ARC
  8
CYAN
 10
-598.0828960961
 20
118.5908482671
 40
2.3532349767
 50
311.9311873248
 51
87.6659936102
  0
ARC
  8
CYAN
 10
-600.7345845322
 20
53.5739238422
 40
67.4242109425
 50
87.664561431
 51
104.0994843912
  0
ARC
  8
CYAN
 10
-616.0108150074
 20
114.3935490694
 40
4.7154393845
 50
104.0997390562
 51
268.0945685859
  0
ARC
  8
CYAN
 10
-615.2354440705
 20
137.6868559743
 40
28.0216477124
 50
268.0936657133
 51
311.9310483056
  0
ARC
  8
CYAN
 10
-613.3365217346
 20
144.3512348688
 40
15.1040946637
 50
80.7001871117
 51
119.5464550731
  0
ARC
  8
CYAN
 10
-615.9549989929
 20
150.2258499034
 40
8.7241761048
 50
123.6150273129
 51
244.8479568882
  0
LINE
  8
CYAN
 10
-619.662964
 20
142.328873
 11
-619.676697
 21
133.449005
  0
LINE
  8
CYAN
 10
-619.676697
 20
133.449005
 11
-599.583191
 21
133.407211
  0
LINE
  8
CYAN
 10
-599.583191
 20
133.407211
 11
-599.589355
 21
130.407211
  0
LINE
  8
CYAN
 10
-599.589355
 20
130.407211
 11
-619.681335
 21
130.449005
  0
LINE
  8
CYAN
 10
-619.681335
 20
130.449005
 11
-619.695007
 21
121.635986
  0
ARC
  8
CYAN
 10
-616.011517033
 20
113.7275395715
 40
8.7241975705
 50
114.9745298162
 51
236.2077439411
  0
ARC
  8
CYAN
 10
-613.276941154
 20
119.577038029
 40
15.1382112592
 50
239.9225128487
 51
278.7245436819
  0
ARC
  8
CYAN
 10
-617.3417157571
 20
146.0641065352
 40
41.9353601863
 50
278.7246394531
 51
288.1168053371
  0
ARC
  8
CYAN
 10
-611.8856828805
 20
129.3880204881
 40
24.3894164784
 50
288.1167305513
 51
312.2313694718
  0
ARC
  8
CYAN
 10
-620.8347905916
 20
139.2470705635
 40
37.70434784
 50
312.2309489451
 51
335.8956136539
  0
ARC
  8
CYAN
 10
-581.2032711885
 20
121.5154978663
 40
5.7129989302
 50
94.7866184351
 51
155.896564964
  0
LINE
  8
CYAN
 10
-581.679993
 20
127.208572
 11
-551.657471
 21
129.722229
  0
ARC
  8
CYAN
 10
-551.8350717569
 20
131.8433992639
 40
2.1285923324
 50
274.7860819951
 51
359.9108699575
  0
ARC
  8
CYAN
 10
-551.8350407441
 20
131.8433997205
 40
2.1285613204
 50
359.9108563706
 51
85.0349526633
  0
LINE
  8
CYAN
 10
-551.650818
 20
133.963974
 11
-581.665344
 21
136.571121
  0
ARC
  8
CYAN
 10
-581.1709724712
 20
142.2628286225
 40
5.7131373928
 50
203.9258033087
 51
265.0358499652
  0
ARC
  8
CYAN
 10
-620.8575418631
 20
124.6546574212
 40
37.7042725156
 50
23.9259663949
 51
47.5906014619
  0
ARC
  8
CYAN
 10
-611.8778572963
 20
134.4858691735
 40
24.3893388207
 50
47.5899022115
 51
71.7045282536
  0
ARC
  8
CYAN
 10
-617.3854846691
 20
117.8263754362
 40
41.935640161
 50
71.7051934523
 51
81.097352261
  0
ARC
  8
CYAN
 10
-438.5063431244
 20
255.8080349624
 40
43.7618271523
 50
333.3673423729
 51
338.5393525879
  0
ARC
  8
CYAN
 10
-401.2326939762
 20
241.1551998497
 40
3.7114776209
 50
338.5381938665
 51
39.4386887094
  0
ARC
  8
CYAN
 10
-575.7156540372
 20
114.4768399411
 40
219.32419761
 50
36.0389378321
 51
40.1069714453
  0
ARC
  8
CYAN
 10
-413.6385512914
 20
252.6682670014
 40
6.4638342123
 50
28.667646246
 51
150.7794956518
  0
ARC
  8
CYAN
 10
-423.0752378162
 20
258.000199044
 40
4.3751590301
 50
236.765076944
 51
330.167866522
  0
ARC
  8
CYAN
 10
-430.262938057
 20
247.030946
 40
8.7392432475
 50
56.764696812
 51
123.3178941132
  0
LINE
  8
CYAN
 10
-435.063263
 20
254.333771
 11
-426.240662
 21
244.938919
  0
LINE
  8
CYAN
 10
-426.240662
 20
244.938919
 11
-428.42749
 21
242.885269
  0
LINE
  8
CYAN
 10
-428.42749
 20
242.885269
 11
-437.250153
 21
252.280121
  0
ARC
  8
CYAN
 10
-430.2629200093
 20
247.0309578531
 40
8.7392870766
 50
143.084270358
 51
209.6371275769
  0
ARC
  8
CYAN
 10
-441.6616281139
 20
240.5458076288
 40
4.3751217886
 50
296.2339426408
 51
29.6372318607
  0
ARC
  8
CYAN
 10
-436.9324549908
 20
230.7931391589
 40
6.4638284604
 50
115.6223909479
 51
237.7349133108
  0
ARC
  8
CYAN
 10
-288.842510214
 20
383.8769211799
 40
219.3228089876
 50
226.2948305021
 51
230.3628638725
  0
ARC
  8
CYAN
 10
-426.2205901403
 20
217.6891540313
 40
3.7114846731
 50
226.9616685571
 51
287.8619904623
  0
ARC
  8
CYAN
 10
-438.5062696
 20
255.8091931492
 40
43.762393552
 50
287.8634397489
 51
293.0354504033
  0
LINE
  8
CYAN
 10
-421.382019
 20
215.536285
 11
-430.234985
 21
223.734116
  0
LINE
  8
CYAN
 10
-430.234985
 20
223.734116
 11
-428.196686
 21
225.935287
  0
LINE
  8
CYAN
 10
-428.196686
 20
225.935287
 11
-413.585663
 21
212.405518
  0
ARC
  8
CYAN
 10
-411.1917864602
 20
217.794344047
 40
5.8966169159
 50
246.0477866179
 51
303.9120612999
  0
ARC
  8
CYAN
 10
-432.3179765662
 20
249.2193802562
 40
43.7628130431
 50
303.9118857185
 51
311.2365804844
  0
LINE
  8
CYAN
 10
-403.470856
 20
216.309998
 11
-412.003479
 21
225.396072
  0
LINE
  8
CYAN
 10
-412.003479
 20
225.396072
 11
-409.81665
 21
227.449738
  0
LINE
  8
CYAN
 10
-409.81665
 20
227.449738
 11
-401.283936
 21
218.363663
  0
ARC
  8
CYAN
 10
-432.3180119997
 20
249.2186154306
 40
43.7623349771
 50
315.1658290027
 51
322.49052378
  0
ARC
  8
CYAN
 10
-402.2808970093
 20
226.1625319382
 40
5.8966346283
 50
322.4897576461
 51
20.3540510527
  0
LINE
  8
CYAN
 10
-396.752441
 20
228.213501
 11
-409.338531
 21
243.644821
  0
LINE
  8
CYAN
 10
-409.338531
 20
243.644821
 11
-407.013733
 21
245.541
  0
LINE
  8
CYAN
 10
-407.013733
 20
245.541
 11
-399.387695
 21
236.190979
  0
ARC
  8
CYAN
 10
-493.2621929156
 20
171.0900241567
 40
7.6360125085
 50
298.8542731937
 51
4.5145430278
  0
ARC
  8
CYAN
 10
-487.4201760143
 20
160.4872893868
 40
4.4696533582
 50
118.8545931993
 51
238.4748965576
  0
ARC
  8
CYAN
 10
-389.4844672774
 20
299.8333592351
 40
174.7806706624
 50
234.990918616
 51
248.0660589875
  0
ARC
  8
CYAN
 10
-457.5430730511
 20
129.9517912715
 40
8.2328891236
 50
310.9859004129
 51
70.3278716978
  0
ARC
  8
CYAN
 10
-471.2214705041
 20
145.695155272
 40
29.0883935989
 50
286.4975972309
 51
310.9854546888
  0
ARC
  8
CYAN
 10
-433.0345609952
 20
16.7599670029
 40
105.3828778009
 50
106.4978308706
 51
135.5539739494
  0
ARC
  8
CYAN
 10
-504.8790144289
 20
87.2283821073
 40
4.7477794678
 50
135.5538086212
 51
169.8792792286
  0
ARC
  8
CYAN
 10
-487.7284528632
 20
84.1670843946
 40
22.1694127352
 50
169.87948846
 51
199.8586494117
  0
ARC
  8
CYAN
 10
-506.4934441709
 20
77.3895619758
 40
2.2179789793
 50
199.8585567635
 51
356.2869357558
  0
ARC
  8
CYAN
 10
-429.8892275308
 20
72.4183618516
 40
74.5473702202
 50
171.9392888945
 51
176.2870220339
  0
ARC
  8
CYAN
 10
-493.8184735762
 20
81.4720067887
 40
9.9802192339
 50
131.5667993722
 51
171.9386468955
  0
ARC
  8
CYAN
 10
-428.9648728793
 20
8.3422660659
 40
107.7245208652
 50
105.7371120205
 51
131.5674833127
  0
ARC
  8
CYAN
 10
-467.9844154238
 20
146.8144263778
 40
36.1402207564
 50
285.7370773921
 51
320.7754280959
  0
ARC
  8
CYAN
 10
-447.2739420139
 20
129.9085541123
 40
9.4057444024
 50
320.7755566756
 51
53.3519148811
  0
ARC
  8
CYAN
 10
-647.3318895506
 20
-95.5766275638
 40
310.8130863797
 50
48.5685755056
 51
54.6579111795
  0
ARC
  8
CYAN
 10
-462.5305734449
 20
166.2364147307
 40
9.6763527988
 50
183.8472801043
 51
238.8228381931
  0
LINE
  8
CYAN
 10
-472.18512
 20
165.587158
 11
-473.226654
 21
181.073425
  0
ARC
  8
CYAN
 10
-475.3556532544
 20
180.9302053438
 40
2.133811073
 50
3.8485392163
 51
69.1581704386
  0
ARC
  8
CYAN
 10
-478.368383423
 20
173.0162200892
 40
10.6018513231
 50
69.1587970903
 51
87.0337557399
  0
LINE
  8
CYAN
 10
-477.819763
 20
183.603867
 11
-477.819763
 21
171.055069
  0
LINE
  8
CYAN
 10
-477.819763
 20
171.055069
 11
-480.819672
 21
171.055069
  0
LINE
  8
CYAN
 10
-480.819672
 20
171.055069
 11
-480.819672
 21
183.330765
  0
ARC
  8
CYAN
 10
-478.3683834404
 20
173.0160707113
 40
10.6019683961
 50
103.368361332
 51
125.6674119416
  0
ARC
  8
CYAN
 10
-482.2808152728
 20
178.4673654125
 40
3.8919954631
 50
125.6676658618
 51
184.5144269904
  0
LINE
  8
CYAN
 10
-486.160736
 20
178.161026
 11
-485.649872
 21
171.691071
  0
ARC
  8
CYAN
 10
-441.4596479475
 20
257.9141167957
 40
8.2278440694
 50
168.5328226295
 51
220.3110886411
  0
ARC
  8
CYAN
 10
-457.1713969658
 20
261.1015134379
 40
7.8039541642
 50
348.5315466968
 51
13.9792999136
  0
LINE
  8
CYAN
 10
-449.598572
 20
262.986725
 11
-477.444397
 21
283.617096
  0
LINE
  8
CYAN
 10
-477.444397
 20
283.617096
 11
-480.300201
 21
285.476929
  0
ARC
  8
CYAN
 10
-481.6061462866
 20
283.4717371324
 40
2.3929662592
 50
56.9245276719
 51
144.0990363174
  0
LINE
  8
CYAN
 10
-483.544525
 20
284.874939
 11
-488.241852
 21
278.448883
  0
LINE
  8
CYAN
 10
-488.241852
 20
278.448883
 11
-473.419159
 21
267.466187
  0
LINE
  8
CYAN
 10
-473.419159
 20
267.466187
 11
-475.205017
 21
265.055664
  0
LINE
  8
CYAN
 10
-475.205017
 20
265.055664
 11
-490.028076
 21
276.037964
  0
LINE
  8
CYAN
 10
-490.028076
 20
276.037964
 11
-494.807892
 21
269.672455
  0
ARC
  8
CYAN
 10
-492.9009430505
 20
268.2266434492
 40
2.3930786314
 50
142.8313043266
 51
230.0059175785
  0
LINE
  8
CYAN
 10
-494.438995
 20
266.39328
 11
-491.8255
 21
264.200745
  0
LINE
  8
CYAN
 10
-491.8255
 20
264.200745
 11
-463.982147
 21
243.57222
  0
ARC
  8
CYAN
 10
-464.3842950049
 20
251.3658539986
 40
7.8040024297
 50
272.9538167561
 51
298.3980179443
  0
ARC
  8
CYAN
 10
-456.7595097467
 20
237.2633040111
 40
8.2278180038
 50
66.6206280271
 51
118.3992148749
  0
ARC
  8
CYAN
 10
-451.9496358459
 20
248.3893510414
 40
3.8933951972
 50
246.6211890649
 51
323.4664753173
  0
LINE
  8
CYAN
 10
-448.821259
 20
246.07164
 11
-447.57428
 21
247.754669
  0
ARC
  8
CYAN
 10
-450.7026560147
 20
250.0724334465
 40
3.8934263212
 50
323.4658365494
 51
40.3107137165
  0
ARC
  8
CYAN
 10
-538.5515788651
 20
175.921935247
 40
5.9836778822
 50
125.6838418995
 51
177.0192127671
  0
ARC
  8
CYAN
 10
-537.3825967517
 20
174.2940541131
 40
7.98780267
 50
103.3019926001
 51
125.683415657
  0
LINE
  8
CYAN
 10
-539.220459
 20
182.067551
 11
-539.220459
 21
169.182144
  0
LINE
  8
CYAN
 10
-539.220459
 20
169.182144
 11
-536.220398
 21
169.182144
  0
LINE
  8
CYAN
 10
-536.220398
 20
169.182144
 11
-536.220398
 21
182.196899
  0
ARC
  8
CYAN
 10
-537.3825579036
 20
174.2940391825
 40
7.987853838
 50
55.7569557065
 51
81.6342938702
  0
ARC
  8
CYAN
 10
-534.6832031901
 20
178.2596353495
 40
3.1907225256
 50
1.3351989834
 51
55.7566727593
  0
LINE
  8
CYAN
 10
-531.493347
 20
178.333984
 11
-531.134277
 21
162.937317
  0
ARC
  8
CYAN
 10
-522.7545298129
 20
163.1328076526
 40
8.3820271722
 50
181.3364076234
 51
235.2873217745
  0
ARC
  8
CYAN
 10
-94.4460174674
 20
781.3840846938
 40
760.5009162516
 50
235.286788947
 51
237.9284602123
  0
ARC
  8
CYAN
 10
-502.7722280089
 20
129.7373937211
 40
8.5073438283
 50
298.4320719974
 51
57.9288423982
  0
ARC
  8
CYAN
 10
-529.8549286525
 20
179.7587445329
 40
65.3897506971
 50
284.7206610985
 51
298.432118392
  0
ARC
  8
CYAN
 10
-489.5455611718
 20
26.3338075047
 40
93.2420758977
 50
104.7206311913
 51
137.9980041429
  0
ARC
  8
CYAN
 10
-548.9830263678
 20
79.85531217
 40
13.2585542787
 50
137.9980730631
 51
174.1999894512
  0
ARC
  8
CYAN
 10
-596.8739204186
 20
84.7202720323
 40
34.8788071726
 50
344.092325085
 51
354.1993825814
  0
ARC
  8
CYAN
 10
-565.463821768
 20
75.7683270029
 40
2.2179496051
 50
197.3646099609
 51
344.092176429
  0
ARC
  8
CYAN
 10
-552.5488777448
 20
79.8068713178
 40
15.7496021023
 50
140.715187878
 51
197.3646277611
  0
ARC
  8
CYAN
 10
-482.7976088657
 20
22.7473074056
 40
105.8663782546
 50
108.2376433808
 51
140.7153213548
  0
ARC
  8
CYAN
 10
-526.9754377934
 20
156.8185351013
 40
35.2958499252
 50
288.2373724386
 51
303.99748784
  0
ARC
  8
CYAN
 10
-509.637403969
 20
131.1114876959
 40
4.2884362442
 50
303.9969196064
 51
67.6405150886
  0
ARC
  8
CYAN
 10
-390.2214788342
 20
421.4183239165
 40
309.6195476176
 50
239.2156222642
 51
247.6404862715
  0
ARC
  8
CYAN
 10
-546.3940489914
 20
159.2739282789
 40
4.4809629815
 50
117.2601682556
 51
239.2157051556
  0
ARC
  8
CYAN
 10
-551.4357132558
 20
169.0585116039
 40
6.5261460577
 50
297.2607569273
 51
357.0193629562
  0
LINE
  8
CYAN
 10
-544.918396
 20
168.719162
 11
-544.527161
 21
176.233093
  0
ARC
  8
CYAN
 10
-432.7688268781
 20
185.4364591681
 40
2.8973759113
 50
106.1650163128
 51
181.9347870551
  0
ARC
  8
CYAN
 10
-428.0762565947
 20
169.2476314883
 40
19.7525934272
 50
96.7863521322
 51
106.1650109171
  0
LINE
  8
CYAN
 10
-430.41037
 20
188.861832
 11
-430.41037
 21
175.708344
  0
LINE
  8
CYAN
 10
-430.41037
 20
175.708344
 11
-427.410339
 21
175.708344
  0
LINE
  8
CYAN
 10
-427.410339
 20
175.708344
 11
-427.410339
 21
188.989075
  0
ARC
  8
CYAN
 10
-428.0760526322
 20
169.2463921296
 40
19.7539034512
 50
82.8488524061
 51
88.0687460015
  0
ARC
  8
CYAN
 10
-426.051459716
 20
185.3835717891
 40
3.4902155597
 50
1.5923745952
 51
82.8483678389
  0
LINE
  8
CYAN
 10
-422.562592
 20
185.48056
 11
-422.142456
 21
170.381195
  0
ARC
  8
CYAN
 10
-414.1468789929
 20
170.6036369874
 40
7.9986706467
 50
181.5935936111
 51
236.8661983419
  0
ARC
  8
CYAN
 10
-509.8106400133
 20
42.1613860757
 40
152.1703863148
 50
40.6007070995
 51
53.1350500823
  0
ARC
  8
CYAN
 10
-405.2629150545
 20
130.0649343741
 40
15.6387452613
 50
331.2165992201
 51
45.354350387
  0
ARC
  8
CYAN
 10
-423.3366164331
 20
139.9942024629
 40
36.2603127648
 50
287.2498530379
 51
331.216621016
  0
ARC
  8
CYAN
 10
-377.2989993791
 20
-8.2733681973
 40
118.9902418027
 50
107.2497286977
 51
127.7509849965
  0
ARC
  8
CYAN
 10
-444.6336307854
 20
78.6876504115
 40
9.007646162
 50
127.7518630096
 51
177.1645392911
  0
LINE
  8
CYAN
 10
-453.630249
 20
79.13324
 11
-453.845459
 21
74.092377
  0
ARC
  8
CYAN
 10
-456.0619950986
 20
74.1718749829
 40
2.2179612723
 50
201.7725560679
 51
357.9459178098
  0
ARC
  8
CYAN
 10
-440.3309378389
 20
80.4551293128
 40
19.1574254752
 50
169.1332215521
 51
201.7726089719
  0
ARC
  8
CYAN
 10
-451.291358722
 20
82.5591944728
 40
7.9968736908
 50
129.9585411828
 51
169.1332978245
  0
ARC
  8
CYAN
 10
-374.6729780914
 20
-8.8845980513
 40
127.2962594463
 50
108.6370160156
 51
129.9587536661
  0
ARC
  8
CYAN
 10
-424.1569539932
 20
137.840553005
 40
27.5486107417
 50
288.6369298985
 51
323.6448468102
  0
ARC
  8
CYAN
 10
-412.7866510785
 20
129.4713713419
 40
13.430289663
 50
323.644849661
 51
62.2098891749
  0
ARC
  8
CYAN
 10
-224.5816348785
 20
450.3922409052
 40
358.6207835845
 50
233.2936384277
 51
239.5130615837
  0
ARC
  8
CYAN
 10
-436.4021510323
 20
166.705174484
 40
4.5851849515
 50
116.3544798004
 51
236.477927027
  0
ARC
  8
CYAN
 10
-440.9062058783
 20
175.7968022037
 40
5.5609574017
 50
296.3538436137
 51
1.934857408
  0
LINE
  8
CYAN
 10
-435.348419
 20
175.984558
 11
-435.664551
 21
185.338638
  0
ARC
  8
CYAN
 10
-461.3817020851
 20
186.4924398826
 40
2.8972941128
 50
106.1656662471
 51
181.9350537066
  0
ARC
  8
CYAN
 10
-456.688707791
 20
170.3028114485
 40
19.753398772
 50
96.7869820155
 51
106.1656408553
  0
LINE
  8
CYAN
 10
-459.023132
 20
189.917786
 11
-459.023132
 21
176.764236
  0
LINE
  8
CYAN
 10
-459.023132
 20
176.764236
 11
-456.023193
 21
176.764236
  0
LINE
  8
CYAN
 10
-456.023193
 20
176.764236
 11
-456.023193
 21
190.044968
  0
ARC
  8
CYAN
 10
-456.6889225264
 20
170.3026202007
 40
19.7535691062
 50
82.8487748931
 51
88.0686671734
  0
ARC
  8
CYAN
 10
-454.6642553095
 20
186.4394483411
 40
3.4902207502
 50
1.5939068709
 51
82.8498577412
  0
LINE
  8
CYAN
 10
-451.175385
 20
186.53653
 11
-450.755341
 21
171.437164
  0
ARC
  8
CYAN
 10
-442.759732208
 20
171.6596703717
 40
7.9987042101
 50
181.5940482947
 51
236.8668703517
  0
ARC
  8
CYAN
 10
-538.4235596063
 20
43.2171875049
 40
152.1705843264
 50
40.6007034834
 51
53.1350464116
  0
ARC
  8
CYAN
 10
-433.8757029694
 20
131.1209017901
 40
15.6387311691
 50
331.2164186298
 51
45.3541710916
  0
ARC
  8
CYAN
 10
-451.9494289826
 20
141.0501570142
 40
36.260314069
 50
287.2497341801
 51
331.2165796881
  0
ARC
  8
CYAN
 10
-405.9118385581
 20
-7.2171842905
 40
118.9900135624
 50
107.2497854211
 51
127.7510419719
  0
ARC
  8
CYAN
 10
-473.2464859501
 20
79.7435290957
 40
9.007649467
 50
127.7513466301
 51
177.1639651484
  0
LINE
  8
CYAN
 10
-482.243103
 20
80.189209
 11
-482.458344
 21
75.148346
  0
ARC
  8
CYAN
 10
-484.6748373529
 20
75.2278109387
 40
2.21791737
 50
201.7731469193
 51
357.9467313175
  0
ARC
  8
CYAN
 10
-468.9437269038
 20
81.5112349921
 40
19.1574939231
 50
169.1336770913
 51
201.773089765
  0
ARC
  8
CYAN
 10
-479.9041398373
 20
83.6150412766
 40
7.9969987503
 50
129.957901537
 51
169.1325783485
  0
ARC
  8
CYAN
 10
-403.2859696468
 20
-7.8285523629
 40
127.2960969065
 50
108.6369606239
 51
129.9586983709
  0
ARC
  8
CYAN
 10
-452.7698073132
 20
138.8966005016
 40
27.5487308189
 50
288.6369122229
 51
323.6448279164
  0
ARC
  8
CYAN
 10
-441.3993619583
 20
130.5273258183
 40
13.4302398836
 50
323.6447702812
 51
62.2097296084
  0
ARC
  8
CYAN
 10
-253.1928194554
 20
451.4503042955
 40
358.6234232522
 50
233.2936323184
 51
239.5130287295
  0
ARC
  8
CYAN
 10
-465.0150219702
 20
167.7611094766
 40
4.5851127252
 50
116.353840055
 51
236.4784973662
  0
ARC
  8
CYAN
 10
-469.5191002241
 20
176.852659625
 40
5.5609705105
 50
296.3549420035
 51
1.9360031189
  0
LINE
  8
CYAN
 10
-463.961304
 20
177.040527
 11
-464.277344
 21
186.394608
  0
ARC
  8
CYAN
 10
-524.9565899167
 20
171.0899771546
 40
7.6359863025
 50
298.8546471235
 51
4.5149123263
  0
ARC
  8
CYAN
 10
-519.1146030024
 20
160.4872538982
 40
4.4696550093
 50
118.8536889244
 51
238.4739920185
  0
ARC
  8
CYAN
 10
-421.1789393933
 20
299.8334917556
 40
174.7807883176
 50
234.9909392742
 51
248.0660795072
  0
ARC
  8
CYAN
 10
-489.2375709553
 20
129.9517837626
 40
8.2329096275
 50
310.9861443206
 51
70.3276277901
  0
ARC
  8
CYAN
 10
-502.9158664
 20
145.694915329
 40
29.0881717399
 50
286.4977860179
 51
310.9856723238
  0
ARC
  8
CYAN
 10
-464.7289422365
 20
16.7599078578
 40
105.3829304668
 50
106.4978143147
 51
135.5539569919
  0
ARC
  8
CYAN
 10
-536.5734114289
 20
87.2283821073
 40
4.7477794678
 50
135.5538086212
 51
169.8792792286
  0
ARC
  8
CYAN
 10
-519.4228498632
 20
84.1670843946
 40
22.1694127352
 50
169.87948846
 51
199.8586494117
  0
ARC
  8
CYAN
 10
-538.187856189
 20
77.3895589732
 40
2.2179638343
 50
199.8586156001
 51
356.2869880933
  0
ARC
  8
CYAN
 10
-461.5836698797
 20
72.4187701676
 40
74.5473284628
 50
171.9396013053
 51
176.2873344358
  0
ARC
  8
CYAN
 10
-525.5129466216
 20
81.4720487042
 40
9.9801984593
 50
131.5670275609
 51
171.9388730396
  0
ARC
  8
CYAN
 10
-460.6593465144
 20
8.3421987189
 40
107.7245814472
 50
105.737094301
 51
131.5674656603
  0
ARC
  8
CYAN
 10
-499.6789043589
 20
146.8143304204
 40
36.1401367861
 50
285.7371658585
 51
320.775515805
  0
ARC
  8
CYAN
 10
-478.968381037
 20
129.9086022989
 40
9.405712918
 50
320.7750212052
 51
53.3516809096
  0
ARC
  8
CYAN
 10
-679.0262816932
 20
-95.5760574119
 40
310.8126358436
 50
48.5685107742
 51
54.6578466013
  0
ARC
  8
CYAN
 10
-494.2249853359
 20
166.2365025517
 40
9.6764046968
 50
183.8477806179
 51
238.8233348097
  0
LINE
  8
CYAN
 10
-503.879578
 20
165.587158
 11
-504.921082
 21
181.073425
  0
ARC
  8
CYAN
 10
-507.0500812544
 20
180.9302053438
 40
2.133811073
 50
3.8485392163
 51
69.1581704386
  0
ARC
  8
CYAN
 10
-510.0627962164
 20
173.0163172564
 40
10.6017551033
 50
69.1586870657
 51
87.0336433268
  0
LINE
  8
CYAN
 10
-509.51416
 20
183.603867
 11
-509.51416
 21
171.055069
  0
LINE
  8
CYAN
 10
-509.51416
 20
171.055069
 11
-512.514221
 21
171.055069
  0
LINE
  8
CYAN
 10
-512.514221
 20
171.055069
 11
-512.514221
 21
183.330765
  0
ARC
  8
CYAN
 10
-510.0628356027
 20
173.0164106374
 40
10.6016600721
 50
103.3692952601
 51
125.6682409203
  0
ARC
  8
CYAN
 10
-513.9752275456
 20
178.4673378251
 40
3.8920089702
 50
125.6672463978
 51
184.5140039025
  0
LINE
  8
CYAN
 10
-517.855164
 20
178.161026
 11
-517.344299
 21
171.691071
  0
ARC
  8
CYAN
 10
-567.3682000539
 20
175.9218259013
 40
5.9837123415
 50
125.6825063849
 51
177.0181815131
  0
ARC
  8
CYAN
 10
-566.1991515687
 20
174.2942001965
 40
7.9876683711
 50
103.3024723125
 51
125.6838706358
  0
LINE
  8
CYAN
 10
-568.037048
 20
182.067551
 11
-568.037048
 21
169.182144
  0
LINE
  8
CYAN
 10
-568.037048
 20
169.182144
 11
-565.037048
 21
169.182144
  0
LINE
  8
CYAN
 10
-565.037048
 20
169.182144
 11
-565.037048
 21
182.196899
  0
ARC
  8
CYAN
 10
-566.1992090743
 20
174.294039639
 40
7.9878535566
 50
55.7569528518
 51
81.634285086
  0
ARC
  8
CYAN
 10
-563.49981995
 20
178.259500908
 40
3.1908143968
 50
1.3375752839
 51
55.7585394454
  0
LINE
  8
CYAN
 10
-560.309875
 20
178.333984
 11
-559.950928
 21
162.937317
  0
ARC
  8
CYAN
 10
-551.5711501909
 20
163.1328683544
 40
8.3820592018
 50
181.336817557
 51
235.2877343711
  0
ARC
  8
CYAN
 10
-123.2626372072
 20
781.3827615222
 40
760.4998110827
 50
235.2867340819
 51
237.9284053487
  0
ARC
  8
CYAN
 10
-531.5888480016
 20
129.7373759485
 40
8.5073429556
 50
298.4323125419
 51
57.9290772061
  0
ARC
  8
CYAN
 10
-558.6715483289
 20
179.7589986608
 40
65.3899887782
 50
284.7205788184
 51
298.4320360116
  0
ARC
  8
CYAN
 10
-518.3621818893
 20
26.3339090675
 40
93.2419851095
 50
104.7206644527
 51
137.9980378895
  0
ARC
  8
CYAN
 10
-577.7996455455
 20
79.8552200257
 40
13.2585942554
 50
137.9976927839
 51
174.1996067567
  0
ARC
  8
CYAN
 10
-625.6905403833
 20
84.7199272164
 40
34.8787424433
 50
344.0928837687
 51
354.1999411282
  0
ARC
  8
CYAN
 10
-594.2804416376
 20
75.7683260046
 40
2.2179790188
 50
197.3643453395
 51
344.0924198004
  0
ARC
  8
CYAN
 10
-581.3655288999
 20
79.806870517
 40
15.7496017153
 50
140.7151829626
 51
197.3646251491
  0
ARC
  8
CYAN
 10
-511.6142279324
 20
22.7472030464
 40
105.8664682748
 50
108.2376107639
 51
140.7152882389
  0
ARC
  8
CYAN
 10
-555.7920419578
 20
156.8184250207
 40
35.295749807
 50
288.2374501999
 51
303.9975664463
  0
ARC
  8
CYAN
 10
-538.454023969
 20
131.1114876959
 40
4.2884362442
 50
303.9969196064
 51
67.6405150886
  0
ARC
  8
CYAN
 10
-419.0381120963
 20
421.4185310473
 40
309.6197341302
 50
239.2156392208
 51
247.6405031225
  0
ARC
  8
CYAN
 10
-575.2106989834
 20
159.2739285407
 40
4.4809632106
 50
117.2601812466
 51
239.2157067803
  0
ARC
  8
CYAN
 10
-580.2522837586
 20
169.0586063737
 40
6.5261934315
 50
297.2597476092
 51
357.0185514672
  0
LINE
  8
CYAN
 10
-573.734924
 20
168.719162
 11
-573.343811
 21
176.233093
  0
LINE
  8
CYAN
 10
-413.437836
 20
-147.483246
 11
-409.643127
 21
-154.068604
  0
LINE
  8
CYAN
 10
-409.643127
 20
-154.068604
 11
-412.242432
 21
-155.566422
  0
LINE
  8
CYAN
 10
-412.242432
 20
-155.566422
 11
-416.037109
 21
-148.981094
  0
ARC
  8
CYAN
 10
-420.304071387
 20
-138.5716771857
 40
11.2500189523
 50
214.0088224251
 51
292.2893951605
  0
ARC
  8
CYAN
 10
-404.7902379665
 20
-128.1037650951
 40
29.9651521584
 50
184.8319558373
 51
214.0091763738
  0
ARC
  8
CYAN
 10
-436.890927013
 20
-130.8173579999
 40
2.2500278616
 50
4.831752243
 51
174.2434207092
  0
ARC
  8
CYAN
 10
-392.849598862
 20
-135.2573235435
 40
46.5145947219
 50
174.2432633777
 51
214.2548542107
  0
ARC
  8
CYAN
 10
-413.9384752905
 20
-149.6188291674
 40
21.0000194207
 50
214.2548866445
 51
25.6488697079
  0
ARC
  8
CYAN
 10
-436.9389398115
 20
-160.6629551843
 40
46.5146052033
 50
25.6488903932
 51
65.6604457878
  0
ARC
  8
CYAN
 10
-418.6955961121
 20
-120.3326531971
 40
2.2500274046
 50
65.6601087957
 51
235.0724866355
  0
ARC
  8
CYAN
 10
-437.1401751268
 20
-146.744987023
 40
29.9650913002
 50
25.8949253967
 51
55.0721451156
  0
ARC
  8
CYAN
 10
-420.3042028822
 20
-138.5716604998
 40
11.2500377906
 50
307.614212222
 51
25.8946491888
  0
LINE
  8
CYAN
 10
-426.012268
 20
-89.598145
 11
-423.064697
 21
-96.585434
  0
ARC
  8
CYAN
 10
-416.4678320071
 20
-108.3637720192
 40
13.4999212675
 50
119.2525134736
 51
200.0523552611
  0
ARC
  8
CYAN
 10
-390.693139516
 20
-98.9562101826
 40
40.9377964164
 50
200.0519080491
 51
224.4745473155
  0
ARC
  8
CYAN
 10
-421.5102932308
 20
-129.2132363006
 40
2.2499864925
 50
240.489717881
 51
44.4744040706
  0
ARC
  8
CYAN
 10
-400.1032809211
 20
-91.3923750938
 40
45.7089063876
 50
199.6413567533
 51
240.4896765469
  0
ARC
  8
CYAN
 10
-420.5490371231
 20
-98.6894440519
 40
24.0000104679
 50
26.1046506309
 51
199.6412912138
  0
ARC
  8
CYAN
 10
-440.0433590501
 20
-108.2416434963
 40
45.7088358994
 50
345.2564358033
 51
26.104726624
  0
ARC
  8
CYAN
 10
-398.0154380255
 20
-119.301635997
 40
2.250009641
 50
181.2722437295
 51
345.2567366579
  0
ARC
  8
CYAN
 10
-441.1926950846
 20
-120.259753647
 40
40.9378765844
 50
1.2711465597
 51
25.6937601642
  0
ARC
  8
CYAN
 10
-416.4677294623
 20
-108.3638237951
 40
13.4999999892
 50
25.6940520792
 51
106.4936720476
  0
LINE
  8
CYAN
 10
-420.300507
 20
-95.419334
 11
-423.248199
 21
-88.432045
  0
LINE
  8
CYAN
 10
-423.248199
 20
-88.432045
 11
-426.012268
 21
-89.598145
  0
LINE
  8
CYAN
 10
-563.461975
 20
-155.430801
 11
-568.886108
 21
-160.730698
  0
LINE
  8
CYAN
 10
-568.886108
 20
-160.730698
 11
-570.982727
 21
-158.584946
  0
LINE
  8
CYAN
 10
-570.982727
 20
-158.584946
 11
-565.558533
 21
-153.285004
  0
ARC
  8
CYAN
 10
-554.914102001
 20
-144.9816130303
 40
13.5000078847
 50
138.1420831311
 51
217.9566898557
  0
ARC
  8
CYAN
 10
-540.2722929213
 20
-158.0996909492
 40
33.1587601698
 50
107.5720443954
 51
138.1419116782
  0
ARC
  8
CYAN
 10
-550.9623840187
 20
-124.3431728804
 40
2.2500037143
 50
287.5724757842
 51
90.1605549764
  0
ARC
  8
CYAN
 10
-550.8654365128
 20
-158.845394319
 40
36.7523613586
 50
90.1609676033
 51
153.6101108063
  0
ARC
  8
CYAN
 10
-562.9606961955
 20
-152.8438618
 40
23.250002329
 50
153.6102291421
 51
295.0619011233
  0
ARC
  8
CYAN
 10
-568.6803029922
 20
-140.6127829881
 40
36.7523425265
 50
295.0619935359
 51
358.5110929703
  0
ARC
  8
CYAN
 10
-534.1896072513
 20
-141.5092539548
 40
2.2499983615
 50
358.5106490752
 51
161.1000189864
  0
ARC
  8
CYAN
 10
-567.6893610423
 20
-130.0397380623
 40
33.1588042004
 50
310.5301528228
 51
341.1000206554
  0
ARC
  8
CYAN
 10
-554.9141156054
 20
-144.9816540935
 40
13.5000211593
 50
230.7153318141
 51
310.5300302182
  0
LINE
  8
CYAN
 10
-535.00415
 20
-105.977989
 11
-536.967407
 21
-103.709633
  0
LINE
  8
CYAN
 10
-536.967407
 20
-103.709633
 11
-542.701599
 21
-108.672409
  0
ARC
  8
CYAN
 10
-551.8645579368
 20
-118.5865650028
 40
13.5000113232
 50
47.2549634471
 51
127.7071939981
  0
ARC
  8
CYAN
 10
-545.2193600389
 20
-127.182240055
 40
24.364829992
 50
127.7071588649
 51
161.7295728411
  0
ARC
  8
CYAN
 10
-570.4924849322
 20
-118.8384310141
 40
2.2500153239
 50
174.8272998355
 51
341.7297916795
  0
ARC
  8
CYAN
 10
-535.7799438507
 20
-121.9808237235
 40
37.1045005486
 50
128.4303304913
 51
174.8273308789
  0
ARC
  8
CYAN
 10
-543.9251803617
 20
-111.7152065821
 40
24.0000061626
 50
313.3206913659
 51
128.4304112408
  0
ARC
  8
CYAN
 10
-552.9159776473
 20
-102.1812468708
 40
37.1046169392
 50
266.9236033647
 51
313.3206300434
  0
ARC
  8
CYAN
 10
-554.7865030197
 20
-136.985647676
 40
2.2499876834
 50
100.0214812586
 51
266.9227396727
  0
ARC
  8
CYAN
 10
-559.4179870788
 20
-110.77682553
 40
24.3649142114
 50
280.0215489392
 51
314.0439769867
  0
ARC
  8
CYAN
 10
-551.8645690145
 20
-118.5865721447
 40
13.5000043343
 50
314.0438534904
 51
34.4961041808
  0
LINE
  8
CYAN
 10
-540.738342
 20
-110.940842
 11
-535.00415
 21
-105.977989
  0
LINE
  8
CYAN
 10
-485.189392
 20
-153.732895
 11
-488.226318
 21
-160.700226
  0
LINE
  8
CYAN
 10
-488.226318
 20
-160.700226
 11
-485.476196
 21
-161.898941
  0
LINE
  8
CYAN
 10
-485.476196
 20
-161.898941
 11
-482.445984
 21
-154.947052
  0
ARC
  8
CYAN
 10
-478.4602512791
 20
-142.0488291797
 40
13.5000080461
 50
252.8281135116
 51
352.7059920851
  0
ARC
  8
CYAN
 10
-499.670666901
 20
-137.2514709845
 40
35.2085066956
 50
349.3425813302
 51
5.0344759257
  0
ARC
  8
CYAN
 10
-462.4534719515
 20
-133.4810179795
 40
2.2499672868
 50
28.200699756
 51
197.6107576068
  0
ARC
  8
CYAN
 10
-486.8357740082
 20
-146.5547670277
 40
29.916184371
 50
298.8693645701
 51
28.2001765065
  0
ARC
  8
CYAN
 10
-483.255134903
 20
-153.0493180423
 40
22.4999744709
 50
194.0279506192
 51
298.8694007439
  0
ARC
  8
CYAN
 10
-476.0601161038
 20
-151.2516081753
 40
29.9161767527
 50
104.6971534878
 51
194.0280650836
  0
ARC
  8
CYAN
 10
-483.0793247081
 20
-124.4906568024
 40
2.2499914752
 50
295.2864007858
 51
104.6965270153
  0
ARC
  8
CYAN
 10
-460.5080711128
 20
-154.3214551157
 40
35.2085146734
 50
127.8631258529
 51
143.5550333857
  0
ARC
  8
CYAN
 10
-478.4621935287
 20
-142.0380910894
 40
13.4916136092
 50
140.2212483995
 51
240.0912086936
  0
LINE
  8
CYAN
 10
-481.666351
 20
-101.347244
 11
-479.151581
 21
-94.192772
  0
LINE
  8
CYAN
 10
-479.151581
 20
-94.192772
 11
-476.32132
 21
-95.187553
  0
LINE
  8
CYAN
 10
-476.32132
 20
-95.187553
 11
-478.836029
 21
-102.342056
  0
ARC
  8
CYAN
 10
-484.7001431448
 20
-114.5018876844
 40
13.4999756035
 50
345.0427939887
 51
64.2541758965
  0
ARC
  8
CYAN
 10
-491.6997489557
 20
-112.6320789377
 40
20.7450198578
 50
304.0871993373
 51
345.0431349167
  0
ARC
  8
CYAN
 10
-478.8121289455
 20
-131.6762200987
 40
2.2499809487
 50
124.0865928551
 51
293.6841241257
  0
ARC
  8
CYAN
 10
-492.1188157493
 20
-101.3398907164
 40
35.3764174321
 50
293.6841145397
 51
343.3681936087
  0
ARC
  8
CYAN
 10
-481.2183363046
 20
-104.5960578929
 40
23.9999910685
 50
343.3682007286
 51
157.8992374745
  0
ARC
  8
CYAN
 10
-470.677805017
 20
-108.8761936451
 40
35.3763860105
 50
157.8993778975
 51
207.5835018392
  0
ARC
  8
CYAN
 10
-500.0389561771
 20
-124.2150820729
 40
2.2499812004
 50
207.583207378
 51
17.1807150731
  0
ARC
  8
CYAN
 10
-478.0700020645
 20
-117.4227611194
 40
20.7450306226
 50
156.2244768213
 51
197.1804400982
  0
ARC
  8
CYAN
 10
-484.7001868965
 20
-114.5019184236
 40
13.4999859051
 50
77.0130677044
 51
156.2243429232
  0
LINE
  8
CYAN
 10
-606.570923
 20
-109.934181
 11
-606.843933
 21
-117.529724
  0
LINE
  8
CYAN
 10
-606.843933
 20
-117.529724
 11
-603.845825
 21
-117.637489
  0
LINE
  8
CYAN
 10
-603.845825
 20
-117.637489
 11
-603.572876
 21
-110.041954
  0
ARC
  8
CYAN
 10
-604.6714018451
 20
-98.8457802516
 40
11.2499362503
 50
275.6037072876
 51
297.5589684652
  0
ARC
  8
CYAN
 10
-605.3590018501
 20
-97.528135099
 40
12.7362008679
 50
297.5587803184
 51
43.5454204751
  0
ARC
  8
CYAN
 10
-594.4965889878
 20
-87.2036719888
 40
2.2500111855
 50
41.8704907407
 51
223.5461644693
  0
ARC
  8
CYAN
 10
-618.5223501571
 20
-108.7386805184
 40
34.5144465925
 50
354.2679455653
 51
41.8708016517
  0
ARC
  8
CYAN
 10
-605.0754780703
 20
-110.0884559975
 40
21.0000001457
 50
181.6147487858
 51
354.2679480431
  0
ARC
  8
CYAN
 10
-591.5663692658
 20
-109.7076356518
 40
34.5144755268
 50
134.0119170094
 51
181.6147431201
  0
ARC
  8
CYAN
 10
-613.9839981208
 20
-86.5032058712
 40
2.2500114075
 50
312.3373418852
 51
134.0111386553
  0
ARC
  8
CYAN
 10
-603.8909560068
 20
-97.5809189273
 40
12.7361564038
 50
132.3369874602
 51
238.3239342087
  0
ARC
  8
CYAN
 10
-604.6713171288
 20
-98.8457709513
 40
11.2499484387
 50
238.3235108052
 51
260.2787685428
  0
ARC
  8
CYAN
 10
-578.9682292358
 20
-82.942734105
 40
2.6397688013
 50
205.9796785242
 51
22.0148729539
  0
LINE
  8
CYAN
 10
-576.520935
 20
-81.953224
 11
-586.341248
 21
-57.665134
  0
ARC
  8
CYAN
 10
-564.4086969292
 20
-51.2245089088
 40
22.8586624289
 50
87.9939302153
 51
196.3651924875
  0
ARC
  8
CYAN
 10
-563.5435653246
 20
-33.3363401919
 40
4.9569098019
 50
76.1792831694
 51
90.7508291912
  0
LINE
  8
CYAN
 10
-562.359436
 20
-28.522943
 11
-563.129578
 21
-17.510681
  0
LINE
  8
CYAN
 10
-563.129578
 20
-17.510681
 11
-560.136902
 21
-17.301392
  0
LINE
  8
CYAN
 10
-560.136902
 20
-17.301392
 11
-559.2995
 21
-29.275442
  0
ARC
  8
CYAN
 10
-559.4005539449
 20
-24.8302989387
 40
4.4462915711
 50
271.3023129576
 51
4.7800708257
  0
LINE
  8
CYAN
 10
-554.969727
 20
-24.459784
 11
-556.190369
 21
-7.004381
  0
ARC
  8
CYAN
 10
-563.2393912163
 20
-7.2968906473
 40
7.0550886671
 50
2.3762101903
 51
60.6629420607
  0
ARC
  8
CYAN
 10
-562.6343602693
 20
-6.1717861739
 40
5.7778922609
 50
60.426895897
 51
92.7916804062
  0
ARC
  8
CYAN
 10
-563.4016513515
 20
-6.0945603118
 40
5.7145029701
 50
85.1224898689
 51
178.0169645127
  0
LINE
  8
CYAN
 10
-569.112732
 20
-5.896818
 11
-569.346924
 21
-12.661121
  0
ARC
  8
CYAN
 10
-571.386078208
 20
-12.5905181139
 40
2.0403761054
 50
239.4010162155
 51
358.017005253
  0
LINE
  8
CYAN
 10
-572.424683
 20
-14.346774
 11
-576.92511
 21
-11.685309
  0
ARC
  8
CYAN
 10
-580.0133803609
 20
-16.9074589647
 40
6.0669814633
 50
59.400817092
 51
109.4174044781
  0
ARC
  8
CYAN
 10
-540.3308992327
 20
-129.4840741022
 40
125.4327788439
 50
109.4172127252
 51
118.0139551654
  0
ARC
  8
CYAN
 10
-598.5637380111
 20
-20.4663070187
 40
1.84856853
 50
111.6251214268
 51
187.0692410172
  0
LINE
  8
CYAN
 10
-600.398254
 20
-20.693808
 11
-599.948853
 21
-24.353468
  0
LINE
  8
CYAN
 10
-599.948853
 20
-24.353468
 11
-589.325256
 21
-20.486662
  0
LINE
  8
CYAN
 10
-589.325256
 20
-20.486662
 11
-588.299194
 21
-23.305748
  0
LINE
  8
CYAN
 10
-588.299194
 20
-23.305748
 11
-599.573669
 21
-27.409422
  0
LINE
  8
CYAN
 10
-599.573669
 20
-27.409422
 11
-597.12915
 21
-47.317436
  0
LINE
  8
CYAN
 10
-597.12915
 20
-47.317436
 11
-600.107178
 21
-47.679478
  0
LINE
  8
CYAN
 10
-600.107178
 20
-47.679478
 11
-602.444458
 21
-28.454308
  0
LINE
  8
CYAN
 10
-602.444458
 20
-28.454308
 11
-614.383423
 21
-32.799934
  0
ARC
  8
CYAN
 10
-605.234330675
 20
-54.1977282486
 40
23.2716885738
 50
113.1501834896
 51
125.9660172584
  0
ARC
  8
CYAN
 10
-614.3051682382
 20
-42.9736935921
 40
8.8916521702
 50
121.1294595817
 51
195.0481672115
  0
ARC
  8
CYAN
 10
-629.3447060557
 20
-47.0170591373
 40
6.6819313191
 50
339.3404350017
 51
15.0479961064
  0
ARC
  8
CYAN
 10
-614.7931229908
 20
-52.5039235828
 40
8.8697326156
 50
159.3403625042
 51
198.12294855
  0
ARC
  8
CYAN
 10
-533.8887214768
 20
-26.024301674
 40
93.9972402778
 50
198.1230160021
 51
206.914739533
  0
ARC
  8
CYAN
 10
-614.1483675591
 20
-64.8912898765
 40
5.1188930041
 50
225.999446554
 51
289.0962113358
  0
LINE
  8
CYAN
 10
-612.473694
 20
-69.728493
 11
-616.655579
 21
-59.87648
  0
LINE
  8
CYAN
 10
-616.655579
 20
-59.87648
 11
-613.894043
 21
-58.704277
  0
LINE
  8
CYAN
 10
-613.894043
 20
-58.704277
 11
-609.510254
 21
-69.031738
  0
LINE
  8
CYAN
 10
-609.510254
 20
-69.031738
 11
-608.54541
 21
-68.80072
  0
ARC
  8
CYAN
 10
-611.6254386725
 20
-55.936092465
 40
13.2281978454
 50
283.4642213339
 51
300.4362031793
  0
LINE
  8
CYAN
 10
-604.924316
 20
-67.341362
 11
-603.63855
 21
-66.585884
  0
LINE
  8
CYAN
 10
-603.63855
 20
-66.585884
 11
-608.347168
 21
-52.093891
  0
LINE
  8
CYAN
 10
-608.347168
 20
-52.093891
 11
-605.494019
 21
-51.166874
  0
LINE
  8
CYAN
 10
-605.494019
 20
-51.166874
 11
-601.027649
 21
-64.913094
  0
LINE
  8
CYAN
 10
-601.027649
 20
-64.913094
 11
-594.303955
 21
-65.388939
  0
ARC
  8
CYAN
 10
-594.7923688096
 20
-72.2911244532
 40
6.9194444921
 50
25.9797947336
 51
85.9523716229
  0
LINE
  8
CYAN
 10
-588.572144
 20
-69.260033
 11
-581.341248
 21
-84.099091
  0
LINE
  8
CYAN
 10
-421.423309
 20
-34.574608
 11
-421.39386
 21
-37.574463
  0
LINE
  8
CYAN
 10
-421.39386
 20
-37.574463
 11
-441.177917
 21
-37.73114
  0
ARC
  8
CYAN
 10
-449.2219767213
 20
-36.3462302399
 40
8.1624060083
 50
329.5014617035
 51
350.2314076468
  0
LINE
  8
CYAN
 10
-442.188904
 20
-40.488785
 11
-443.599579
 21
-42.883694
  0
ARC
  8
CYAN
 10
-448.9441045525
 20
-39.7356690909
 40
6.2027424749
 50
229.1873850027
 51
329.5011240734
  0
ARC
  8
CYAN
 10
-464.4857217644
 20
-57.7326728001
 40
17.576113849
 50
49.1871278487
 51
101.4955414015
  0
ARC
  8
CYAN
 10
-467.5024160417
 20
-42.8992066488
 40
2.439001759
 50
101.4956901069
 51
272.0351205875
  0
ARC
  8
CYAN
 10
-466.9488831309
 20
-58.4752349362
 40
13.1468590094
 50
35.9815577575
 51
92.0353232533
  0
ARC
  8
CYAN
 10
-448.8746735082
 20
-45.3524420975
 40
9.1888689925
 50
215.98154487
 51
301.6008247999
  0
LINE
  8
CYAN
 10
-444.059723
 20
-53.17878
 11
-441.0401
 21
-51.321007
  0
ARC
  8
CYAN
 10
-437.8968416881
 20
-56.4301900551
 40
5.998651874
 50
38.3690590399
 51
121.6005525829
  0
LINE
  8
CYAN
 10
-433.193726
 20
-52.70668
 11
-430.0271
 21
-56.706364
  0
ARC
  8
CYAN
 10
-410.0569070922
 20
-40.8956584228
 40
25.4712978787
 50
218.3691952902
 51
265.9219964231
  0
LINE
  8
CYAN
 10
-411.868286
 20
-66.302467
 11
-407.03949
 21
-66.646744
  0
ARC
  8
CYAN
 10
-406.1829710048
 20
-54.6326040019
 40
12.044633024
 50
265.9221356758
 51
318.1845878252
  0
ARC
  8
CYAN
 10
-409.2728341904
 20
-54.2483436026
 40
14.7110184973
 50
325.109659147
 51
359.817891192
  0
ARC
  8
CYAN
 10
-398.4297528207
 20
-53.5957902156
 40
3.9305722704
 50
349.751617336
 51
89.7445843424
  0
LINE
  8
CYAN
 10
-398.412231
 20
-49.665257
 11
-413.298523
 21
-47.956898
  0
LINE
  8
CYAN
 10
-413.298523
 20
-47.956898
 11
-412.956482
 21
-44.976482
  0
LINE
  8
CYAN
 10
-412.956482
 20
-44.976482
 11
-402.063324
 21
-46.226589
  0
LINE
  8
CYAN
 10
-402.063324
 20
-46.226589
 11
-402.227112
 21
-25.535227
  0
LINE
  8
CYAN
 10
-402.227112
 20
-25.535227
 11
-413.099213
 21
-26.957705
  0
LINE
  8
CYAN
 10
-413.099213
 20
-26.957705
 11
-413.488342
 21
-23.983032
  0
LINE
  8
CYAN
 10
-413.488342
 20
-23.983032
 11
-398.495728
 21
-22.021488
  0
ARC
  8
CYAN
 10
-398.7787872407
 20
-18.1011383165
 40
3.9305551993
 50
274.1297348961
 51
11.375542667
  0
ARC
  8
CYAN
 10
-409.6326140253
 20
-17.661826925
 40
14.7110044409
 50
1.3085452067
 51
36.0168440679
  0
ARC
  8
CYAN
 10
-406.5508991544
 20
-17.216986941
 40
12.0446796739
 50
42.9422570312
 51
95.2047023324
  0
LINE
  8
CYAN
 10
-407.643524
 20
-5.221968
 11
-412.464569
 21
-5.661149
  0
ARC
  8
CYAN
 10
-410.1539434336
 20
-31.0273816863
 40
25.4712534282
 50
95.2047436736
 51
142.7575811979
  0
LINE
  8
CYAN
 10
-430.431152
 20
-15.612468
 11
-433.518494
 21
-19.673666
  0
ARC
  8
CYAN
 10
-438.2939247797
 20
-16.0433041536
 40
5.9986887124
 50
239.52591864
 51
322.757299565
  0
LINE
  8
CYAN
 10
-441.336151
 20
-21.213326
 11
-444.391785
 21
-19.415323
  0
ARC
  8
CYAN
 10
-449.0518852504
 20
-27.3348278361
 40
9.1888569035
 50
59.5260279517
 51
145.1451606224
  0
ARC
  8
CYAN
 10
-467.3805893812
 20
-14.5700446831
 40
13.1467891373
 50
269.0914576872
 51
325.145276536
  0
ARC
  8
CYAN
 10
-467.627697925
 20
-30.15385524
 40
2.4389804655
 50
89.0920568253
 51
259.6310380535
  0
ARC
  8
CYAN
 10
-464.9032160454
 20
-15.2639580128
 40
17.5760819366
 50
259.6310017312
 51
311.9394047613
  0
ARC
  8
CYAN
 10
-449.0107876182
 20
-32.9518799107
 40
6.2027292696
 50
31.6257631386
 51
131.939351079
  0
LINE
  8
CYAN
 10
-443.729218
 20
-29.699362
 11
-442.271759
 21
-32.066078
  0
ARC
  8
CYAN
 10
-449.2219928988
 20
-36.3462202568
 40
8.1624364614
 50
11.4104460674
 51
31.6258865648
  0
LINE
  8
CYAN
 10
-441.220886
 20
-34.731396
 11
-421.423309
 21
-34.574608
  0
LINE
  8
CYAN
 10
-521.616028
 20
22.912687
 11
-535.636047
 21
20.901402
  0
ARC
  8
CYAN
 10
-571.0020622708
 20
322.44904389
 40
303.6144518391
 50
266.2623665706
 51
276.6891872966
  0
ARC
  8
CYAN
 10
-588.9857563488
 20
62.9500820625
 40
43.5073005242
 50
252.0668592401
 51
267.6179877135
  0
ARC
  8
CYAN
 10
-599.3252469266
 20
34.0091315431
 40
12.822285944
 50
122.0487455281
 51
256.2084345625
  0
ARC
  8
CYAN
 10
-476.3831819688
 20
-162.3675664588
 40
244.5086231635
 50
111.8524837218
 51
122.0487167183
  0
ARC
  8
CYAN
 10
-556.4010570207
 20
37.1610650006
 40
29.5329615181
 50
65.0263307656
 51
111.8524327891
  0
ARC
  8
CYAN
 10
-631.9544938363
 20
-125.0583268474
 40
208.4839405772
 50
50.7461008614
 51
65.026322749
  0
ARC
  8
CYAN
 10
-497.6665352239
 20
39.2790499118
 40
3.7424226025
 50
230.7456296108
 51
352.24810351
  0
LINE
  8
CYAN
 10
-493.958313
 20
38.774258
 11
-493.232239
 21
44.108017
  0
ARC
  8
CYAN
 10
-488.9736504401
 20
43.528329678
 40
4.2978615513
 50
80.1336951988
 51
172.2484299873
  0
LINE
  8
CYAN
 10
-488.237213
 20
47.762627
 11
-485.062073
 21
47.210335
  0
ARC
  8
CYAN
 10
-485.8218727637
 20
42.8345036842
 40
4.4413055947
 50
353.4581424008
 51
80.1496276622
  0
LINE
  8
CYAN
 10
-481.409485
 20
42.32851
 11
-483.67038
 21
22.615431
  0
ARC
  8
CYAN
 10
-487.7205847234
 20
23.0799561936
 40
4.0767563033
 50
256.5292896317
 51
353.4572333491
  0
LINE
  8
CYAN
 10
-488.670258
 20
19.115355
 11
-500.423035
 21
21.930553
  0
ARC
  8
CYAN
 10
-513.5895838051
 20
-33.0362915602
 40
56.5217834851
 50
76.5293961218
 51
98.1639535834
  0
LINE
  8
CYAN
 10
-562.614014
 20
61.444675
 11
-560.834961
 21
61.679691
  0
ARC
  8
CYAN
 10
-559.3976721044
 20
50.7996109052
 40
10.9746044229
 50
70.3872763414
 51
97.5253586123
  0
ARC
  8
CYAN
 10
-597.7825398462
 20
-56.9211319225
 40
125.3300000407
 50
63.2041840506
 51
70.3871558424
  0
ARC
  8
CYAN
 10
-542.7241591147
 20
52.0957477358
 40
3.1984916605
 50
249.8496865481
 51
63.2039322491
  0
ARC
  8
CYAN
 10
-603.9427263478
 20
-114.7385878946
 40
174.5130963671
 50
69.8497807867
 51
76.4179774378
  0
ARC
  8
CYAN
 10
-562.1770480151
 20
58.1371536169
 40
3.3362609268
 50
97.5259237732
 51
256.4171818312
  0
ARC
  8
CYAN
 10
-532.7070838285
 20
46.8906054009
 40
4.5746700891
 50
67.6247127746
 51
246.0613614143
  0
ARC
  8
CYAN
 10
-564.8033229314
 20
-31.0758210379
 40
88.8891541129
 50
54.4928403589
 51
67.6246344248
  0
ARC
  8
CYAN
 10
-514.6611029837
 20
39.2023790384
 40
2.5568448235
 50
259.514743761
 51
54.4931283587
  0
ARC
  8
CYAN
 10
-499.3211021013
 20
122.0911886836
 40
86.8531697224
 50
246.0607703269
 51
259.5150491285
  0
ARC
  8
CYAN
 10
-534.7302340758
 20
32.2412425202
 40
5.3255878666
 50
79.1864248379
 51
262.8628938115
  0
ARC
  8
CYAN
 10
-560.1589047679
 20
-100.8867826051
 40
140.8604113141
 50
70.4764525943
 51
79.1862449585
  0
ARC
  8
CYAN
 10
-513.8540480325
 20
29.703473625
 40
2.3037269588
 50
279.620265049
 51
70.4767492534
  0
ARC
  8
CYAN
 10
-526.0437959122
 20
101.6192020236
 40
75.2452236836
 50
262.8634039432
 51
279.6202257559
  0
ARC
  8
CYAN
 10
-544.6071140227
 20
42.1986747282
 40
2.4966536404
 50
278.8028883576
 51
71.6423990689
  0
ARC
  8
CYAN
 10
-556.2585747185
 20
117.438424996
 40
78.6332188157
 50
261.8419264007
 51
278.8027789742
  0
ARC
  8
CYAN
 10
-566.8544470196
 20
43.5253534435
 40
3.9645195093
 50
94.1235593454
 51
261.8424909261
  0
ARC
  8
CYAN
 10
-562.8047859187
 20
-12.6435362598
 40
60.2792060976
 50
71.6431570733
 51
94.1237581375
  0
ARC
  8
CYAN
 10
-561.2971690026
 20
-108.2468961589
 40
142.7193524848
 50
84.5231791342
 51
92.4417353783
  0
ARC
  8
CYAN
 10
-547.9456090376
 20
31.004335362
 40
2.8295042703
 50
287.33492504
 51
84.5241045843
  0
ARC
  8
CYAN
 10
-561.6523180665
 20
74.9162748157
 40
48.8309422804
 50
262.8548538702
 51
287.3352541781
  0
ARC
  8
CYAN
 10
-567.3493098382
 20
29.469950811
 40
3.0289327089
 50
178.2889455696
 51
262.8545606605
  0
LINE
  8
CYAN
 10
-570.376892
 20
29.560392
 11
-570.323181
 21
31.359411
  0
ARC
  8
CYAN
 10
-567.2463491057
 20
31.2674658929
 40
3.0782053876
 50
92.4419367144
 51
178.2883370033
  0
LINE
  8
CYAN
 10
-577.275452
 20
31.783403
 11
-577.723022
 21
29.751478
  0
ARC
  8
CYAN
 10
-580.4931111647
 20
30.361736857
 40
2.8365136793
 50
274.3539240179
 51
347.5760252672
  0
ARC
  8
CYAN
 10
-588.142497881
 20
130.8358859655
 40
103.6014269985
 50
263.7819163705
 51
274.3537005251
  0
ARC
  8
CYAN
 10
-599.1373200622
 20
29.9238087249
 40
2.0921493548
 50
106.0242012591
 51
263.7828886231
  0
ARC
  8
CYAN
 10
-573.1252969108
 20
-60.6413853432
 40
96.3188956904
 50
94.3408904898
 51
106.0250401697
  0
ARC
  8
CYAN
 10
-580.1898713694
 20
32.4254594255
 40
2.9843050638
 50
347.5760028335
 51
94.3400330753
  0
ARC
  8
CYAN
 10
-564.0735528017
 20
-45.6709245288
 40
89.3039177938
 50
99.7438521754
 51
112.9702060376
  0
ARC
  8
CYAN
 10
-599.7946390079
 20
38.6046100075
 40
2.2294734971
 50
160.3553745637
 51
292.9690784126
  0
ARC
  8
CYAN
 10
-595.9630967989
 20
37.2369192466
 40
6.2978016202
 50
121.2304865205
 51
160.3555768531
  0
ARC
  8
CYAN
 10
-546.9080308459
 20
-43.6649334012
 40
100.9102175998
 50
109.5199858484
 51
121.2306358963
  0
ARC
  8
CYAN
 10
-579.6138483835
 20
48.591116571
 40
3.0284049007
 50
0.8204973779
 51
109.5196963225
  0
LINE
  8
CYAN
 10
-576.585754
 20
48.634483
 11
-576.54126
 21
45.530312
  0
ARC
  8
CYAN
 10
-579.726893336
 20
45.4847135955
 40
3.1859596617
 50
279.7439719897
 51
0.8200622767
  0
LINE
  8
CYAN
 10
-591.598572
 20
333.649719
 11
-593.223755
 21
330.322754
  0
ARC
  8
CYAN
 10
-597.2154600787
 20
332.2725919084
 40
4.4424742322
 50
304.7180026512
 51
333.9657658735
  0
LINE
  8
CYAN
 10
-594.685303
 20
328.621033
 11
-596.456116
 21
327.394073
  0
ARC
  8
CYAN
 10
-594.0767479662
 20
323.9601612774
 40
4.1776957715
 50
124.7182079101
 51
240.6417944365
  0
LINE
  8
CYAN
 10
-596.124939
 20
320.319
 11
-592.175903
 21
318.097626
  0
ARC
  8
CYAN
 10
-600.3210013978
 20
303.6177698153
 40
16.6135144698
 50
351.3774035252
 51
60.641707528
  0
ARC
  8
CYAN
 10
-645.8747331176
 20
310.5254107858
 40
62.687997401
 50
311.0950072625
 51
351.3774856167
  0
ARC
  8
CYAN
 10
-611.0171140788
 20
270.560272042
 40
9.6571957867
 50
172.7274171783
 51
311.0952811629
  0
LINE
  8
CYAN
 10
-620.596619
 20
271.782776
 11
-613.721558
 21
326.18869
  0
ARC
  8
CYAN
 10
-623.2156021028
 20
327.3768172938
 40
9.5680990741
 50
352.8668325734
 51
45.7146868121
  0
LINE
  8
CYAN
 10
-616.534851
 20
334.226349
 11
-618.472839
 21
336.116486
  0
ARC
  8
CYAN
 10
-614.1896181714
 20
340.5078756629
 40
6.1343527644
 50
163.2724839542
 51
225.7144178394
  0
ARC
  8
CYAN
 10
-609.0227011945
 20
338.9551827158
 40
11.5295252752
 50
127.9614294724
 51
163.273252852
  0
LINE
  8
CYAN
 10
-616.114868
 20
348.045349
 11
-615.643799
 21
348.470337
  0
ARC
  8
CYAN
 10
-612.7037788115
 20
345.6461710278
 40
4.0767183061
 50
60.6405558523
 51
136.1514312383
  0
LINE
  8
CYAN
 10
-610.705017
 20
349.19928
 11
-593.411194
 21
339.471008
  0
ARC
  8
CYAN
 10
-595.5886569326
 20
335.6001437835
 40
4.4412762361
 50
333.9497893139
 51
60.641101699
  0
ARC
  8
CYAN
 10
-609.1976642347
 20
274.1462351262
 40
6.9834363394
 50
144.9370626137
 51
338.523638191
  0
LINE
  8
CYAN
 10
-602.699097
 20
271.589478
 11
-614.913757
 21
278.158051
  0
ARC
  8
CYAN
 10
-489.9452028137
 20
316.160516598
 40
119.5626053669
 50
189.3351222335
 51
195.4372853543
  0
ARC
  8
CYAN
 10
-610.0578628193
 20
296.4157239773
 40
2.1621165646
 50
9.3345807341
 51
156.3500844168
  0
ARC
  8
CYAN
 10
-593.5825219688
 20
289.2008253458
 40
20.1479893096
 50
156.3503451898
 51
193.3496452122
  0
ARC
  8
CYAN
 10
-608.7985024641
 20
285.5900085186
 40
4.5094452409
 50
193.3497980565
 51
262.7817349264
  0
ARC
  8
CYAN
 10
-608.5873296816
 20
287.257486874
 40
6.1902420786
 50
262.7819075118
 51
285.7893713774
  0
ARC
  8
CYAN
 10
-607.5750277716
 20
283.6774784057
 40
2.4698636315
 50
285.7898430061
 51
15.4376409521
  0
ARC
  8
CYAN
 10
-597.9354712786
 20
282.7063109432
 40
2.815187789
 50
195.9324079206
 51
7.1160324446
  0
ARC
  8
CYAN
 10
-673.8830083019
 20
273.2239163482
 40
79.3523956498
 50
7.1167824391
 51
18.1274231073
  0
ARC
  8
CYAN
 10
-600.6804177326
 20
297.1889890469
 40
2.3267896768
 50
18.1275987509
 51
181.7645931116
  0
ARC
  8
CYAN
 10
-540.7324073624
 20
299.0353063279
 40
62.3032253399
 50
181.7640939066
 51
195.9317777851
  0
ARC
  8
CYAN
 10
-592.2728205814
 20
308.7171830092
 40
7.6998311417
 50
251.2637999138
 51
291.2553005874
  0
ARC
  8
CYAN
 10
-590.3125045245
 20
303.6776387777
 40
2.2924431304
 50
291.2551202836
 51
5.860507122
  0
ARC
  8
CYAN
 10
-606.5469563895
 20
302.011513808
 40
18.6121673856
 50
5.8597916433
 51
48.3797694286
  0
ARC
  8
CYAN
 10
-595.5943075092
 20
314.339051759
 40
2.1219063379
 50
48.3790076467
 51
182.27662066
  0
ARC
  8
CYAN
 10
-524.8641180481
 20
317.1508634174
 40
72.9079641883
 50
182.2765429847
 51
190.8751225262
  0
ARC
  8
CYAN
 10
-593.9116575277
 20
303.8854036056
 40
2.5976866181
 50
190.8732022345
 51
251.2631021662
  0
LINE
  8
CYAN
 10
-605.869324
 20
303.450684
 11
-604.746643
 21
303.415802
  0
ARC
  8
CYAN
 10
-604.6640500342
 20
306.0736889663
 40
2.6591699313
 50
268.2201251978
 51
0.9543820139
  0
ARC
  8
CYAN
 10
-653.2887137695
 20
305.2635933638
 40
51.2905813673
 50
0.9544650991
 51
15.0826393869
  0
ARC
  8
CYAN
 10
-605.9661915534
 20
318.0167969775
 40
2.2797120494
 50
15.0829175143
 51
169.5722906549
  0
ARC
  8
CYAN
 10
-562.2087109356
 20
309.9631192479
 40
46.7721702301
 50
169.5713262884
 51
184.5185131948
  0
ARC
  8
CYAN
 10
-605.7739836205
 20
306.5202736382
 40
3.0710699007
 50
184.5181394611
 51
268.2209850738
  0
ARC
  8
CYAN
 10
-467.9848390071
 20
188.2327114832
 40
62.682731354
 50
135.6757494761
 51
147.1809164355
  0
ARC
  8
CYAN
 10
-528.0643473536
 20
226.9796058295
 40
8.8076116627
 50
264.3037861609
 51
327.1811046085
  0
ARC
  8
CYAN
 10
-541.5901476638
 20
91.3751370366
 40
127.4697497391
 50
84.3039091522
 51
96.9538768701
  0
ARC
  8
CYAN
 10
-558.1528469972
 20
227.1712889995
 40
9.3327279327
 50
243.6870897571
 51
276.9537642488
  0
ARC
  8
CYAN
 10
-566.7589367467
 20
209.7679420604
 40
10.082247356
 50
63.6873947952
 51
143.146030215
  0
LINE
  8
CYAN
 10
-574.826416
 20
215.815048
 11
-591.446289
 21
218.937897
  0
LINE
  8
CYAN
 10
-591.446289
 20
218.937897
 11
-592.000305
 21
215.989456
  0
LINE
  8
CYAN
 10
-592.000305
 20
215.989456
 11
-573.216309
 21
212.460022
  0
ARC
  8
CYAN
 10
-578.4067933978
 20
212.0329486414
 40
5.2080245715
 50
259.3577518078
 51
4.7037044656
  0
LINE
  8
CYAN
 10
-579.368591
 20
206.914505
 11
-603.292542
 21
211.40979
  0
ARC
  8
CYAN
 10
-602.041584709
 20
218.0673656111
 40
6.7740834924
 50
174.2629713571
 51
259.3582160698
  0
LINE
  8
CYAN
 10
-608.781738
 20
218.744522
 11
-608.455505
 21
221.992142
  0
ARC
  8
CYAN
 10
-612.0996948133
 20
222.3582629045
 40
3.6625351756
 50
354.262914536
 51
131.5379625604
  0
LINE
  8
CYAN
 10
-614.528381
 20
225.099731
 11
-617.182678
 21
222.748352
  0
ARC
  8
CYAN
 10
-619.4164886781
 20
225.2698546438
 40
3.3686623055
 50
132.6606779365
 51
311.5378792717
  0
ARC
  8
CYAN
 10
-625.0419518932
 20
231.3747212527
 40
4.9328575981
 50
312.6590288831
 51
1.4974854976
  0
ARC
  8
CYAN
 10
-608.526912314
 20
231.8067298993
 40
11.5878313646
 50
146.6532154484
 51
181.4988318958
  0
ARC
  8
CYAN
 10
-591.8459012217
 20
220.8296677581
 40
31.5566075993
 50
128.3591133535
 51
146.6529463053
  0
ARC
  8
CYAN
 10
-608.3533076829
 20
241.6873879438
 40
4.9570031018
 50
31.536487511
 51
128.3590960411
  0
LINE
  8
CYAN
 10
-604.128418
 20
244.280106
 11
-612.574402
 21
234.440445
  0
LINE
  8
CYAN
 10
-612.574402
 20
234.440445
 11
-610.298035
 21
232.486496
  0
LINE
  8
CYAN
 10
-610.298035
 20
232.486496
 11
-602.479919
 21
241.594574
  0
ARC
  8
CYAN
 10
-599.4283316156
 20
244.8283080228
 40
4.4462592474
 50
226.6599490944
 51
320.1376715469
  0
LINE
  8
CYAN
 10
-596.015442
 20
241.9785
 11
-583.795776
 21
256.214478
  0
ARC
  8
CYAN
 10
-578.3930361
 20
251.7031159709
 40
7.0386068071
 50
72.3191653786
 51
140.1376548701
  0
LINE
  8
CYAN
 10
-576.25531
 20
258.409241
 11
-555.412537
 21
251.874985
  0
ARC
  8
CYAN
 10
-556.6572768795
 20
247.8367147384
 40
4.2257548525
 50
336.5839530376
 51
72.8688233612
  0
LINE
  8
CYAN
 10
-552.779541
 20
246.157379
 11
-553.275269
 21
245.013046
  0
LINE
  8
CYAN
 10
-553.275269
 20
245.013046
 11
-572.188843
 21
250.666489
  0
LINE
  8
CYAN
 10
-572.188843
 20
250.666489
 11
-573.048035
 21
247.79216
  0
LINE
  8
CYAN
 10
-573.048035
 20
247.79216
 11
-554.47583
 21
242.240768
  0
LINE
  8
CYAN
 10
-554.47583
 20
242.240768
 11
-554.618896
 21
241.910339
  0
ARC
  8
CYAN
 10
-548.8724029395
 20
239.4216578733
 40
6.2622453038
 50
156.5836132581
 51
254.4230708968
  0
ARC
  8
CYAN
 10
-544.8797907401
 20
253.7442639929
 40
21.130937184
 50
254.4233718169
 51
282.4517096785
  0
ARC
  8
CYAN
 10
-542.9191415305
 20
244.8648003281
 40
12.0375868501
 50
282.4518505182
 51
327.44345266
  0
ARC
  8
CYAN
 10
-501.4755447064
 20
218.4049794939
 40
37.1324633462
 50
140.0807800513
 51
147.4437142618
  0
ARC
  8
CYAN
 10
-507.5634970593
 20
230.3284374237
 40
25.3588111754
 50
140.1972367979
 51
152.0013796052
  0
LINE
  8
CYAN
 10
-527.045471
 20
246.561798
 11
-524.939026
 21
240.575165
  0
LINE
  8
CYAN
 10
-524.939026
 20
240.575165
 11
-522.109131
 21
241.570892
  0
LINE
  8
CYAN
 10
-522.109131
 20
241.570892
 11
-524.723022
 21
248.999802
  0
ARC
  8
CYAN
 10
-507.5636859721
 20
230.3282210171
 40
25.3588396682
 50
110.5133499328
 51
132.5832641304
  0
LINE
  8
CYAN
 10
-516.450073
 20
254.079071
 11
-515.57666
 21
248.488708
  0
LINE
  8
CYAN
 10
-515.57666
 20
248.488708
 11
-512.61261
 21
248.951828
  0
LINE
  8
CYAN
 10
-512.61261
 20
248.951828
 11
-513.552795
 21
254.969711
  0
ARC
  8
CYAN
 10
-507.5635324134
 20
230.3285493898
 40
25.3585904938
 50
93.4799571591
 51
103.6613542923
  0
ARC
  8
CYAN
 10
-505.0840798398
 20
189.5566018994
 40
66.205859524
 50
88.2051642982
 51
93.479999543
  0
LINE
  8
CYAN
 10
-503.010468
 20
255.72998
 11
-503.377502
 21
249.963623
  0
LINE
  8
CYAN
 10
-503.377502
 20
249.963623
 11
-500.383514
 21
249.773071
  0
LINE
  8
CYAN
 10
-500.383514
 20
249.773071
 11
-500.01474
 21
255.568069
  0
LINE
  8
CYAN
 10
-500.01474
 20
255.568069
 11
-496.865509
 21
255.250366
  0
ARC
  8
CYAN
 10
-501.4751720073
 20
218.4044710016
 40
37.1331249866
 50
72.0067695576
 51
82.8689724758
  0
LINE
  8
CYAN
 10
-490.004578
 20
253.721527
 11
-491.609955
 21
248.170776
  0
LINE
  8
CYAN
 10
-491.609955
 20
248.170776
 11
-488.728119
 21
247.33725
  0
LINE
  8
CYAN
 10
-488.728119
 20
247.33725
 11
-487.183746
 21
252.677185
  0
ARC
  8
CYAN
 10
-501.475165558
 20
218.4040247399
 40
37.1334645192
 50
51.6811151256
 51
67.3645589716
  0
LINE
  8
CYAN
 10
-478.451019
 20
247.537903
 11
-481.178192
 21
242.544525
  0
LINE
  8
CYAN
 10
-481.178192
 20
242.544525
 11
-478.545319
 21
241.106522
  0
LINE
  8
CYAN
 10
-478.545319
 20
241.106522
 11
-476.124908
 21
245.538086
  0
LINE
  8
CYAN
 10
-476.124908
 20
245.538086
 11
-474.601105
 21
244.029755
  0
ARC
  8
CYAN
 10
-589.7189994102
 20
134.2626565476
 40
159.0627093825
 50
41.0450539483
 51
43.6369913489
  0
LINE
  8
CYAN
 10
-469.754944
 20
238.711548
 11
-473.469757
 21
234.383835
  0
LINE
  8
CYAN
 10
-473.469757
 20
234.383835
 11
-471.193237
 21
232.429886
  0
LINE
  8
CYAN
 10
-471.193237
 20
232.429886
 11
-467.783081
 21
236.40274
  0
ARC
  8
CYAN
 10
-589.7205931813
 20
134.2599023858
 40
159.0657604667
 50
35.949700798
 51
39.9517441762
  0
LINE
  8
CYAN
 10
-460.95166
 20
227.643402
 11
-465.725464
 21
224.379791
  0
LINE
  8
CYAN
 10
-465.725464
 20
224.379791
 11
-464.032349
 21
221.903198
  0
LINE
  8
CYAN
 10
-464.032349
 20
221.903198
 11
-459.213104
 21
225.197906
  0
ARC
  8
CYAN
 10
-589.7220702025
 20
134.2579072156
 40
159.0681414933
 50
31.9793403205
 51
34.8691830797
  0
ARC
  8
CYAN
 10
-459.9023168895
 20
215.3132291943
 40
6.0219603214
 50
268.7804368422
 51
31.9792581886
  0
ARC
  8
CYAN
 10
-459.6864007576
 20
225.4581498819
 40
16.1691784393
 50
219.2550772229
 51
268.7806320627
  0
ARC
  8
CYAN
 10
-529.5562148369
 20
168.3618617566
 40
74.0626177146
 50
39.2550354722
 51
56.5103305761
  0
ARC
  8
CYAN
 10
-509.2473430355
 20
199.0571484361
 40
37.2570352824
 50
56.5104111674
 51
77.8091952708
  0
ARC
  8
CYAN
 10
-503.9889644937
 20
223.3973301523
 40
12.3553286972
 50
77.8088949427
 51
135.6754217981
  0
ARC
  8
CYAN
 10
-882.8732111524
 20
417.545468671
 40
595.3527920271
 50
311.0035744656
 51
313.2513351456
  0
ARC
  8
CYAN
 10
-445.7641350838
 20
-47.093195413
 40
42.5762263941
 50
112.0418644885
 51
133.2515867184
  0
ARC
  8
CYAN
 10
-463.0213619872
 20
-4.4696780328
 40
3.4082939825
 50
292.0413914722
 51
110.5870025449
  0
ARC
  8
CYAN
 10
-449.6961512667
 20
-39.9433434527
 40
41.3021216993
 50
110.5879372615
 51
142.8854776776
  0
ARC
  8
CYAN
 10
-533.3177681673
 20
23.3323459046
 40
63.5615406281
 50
276.5019583083
 51
322.8855978686
  0
LINE
  8
CYAN
 10
-526.120239
 20
-39.820366
 11
-561.669312
 21
-46.551311
  0
ARC
  8
CYAN
 10
-560.5530822119
 20
-52.4465232057
 40
5.9999579907
 50
100.7217494055
 51
167.5679840862
  0
ARC
  8
CYAN
 10
-548.6591239813
 20
-55.0686017272
 40
18.1795120944
 50
167.5678181104
 51
184.5874727183
  0
LINE
  8
CYAN
 10
-566.780396
 20
-56.522617
 11
-554.991211
 21
-54.290485
  0
LINE
  8
CYAN
 10
-554.991211
 20
-54.290485
 11
-554.433105
 21
-57.238087
  0
LINE
  8
CYAN
 10
-554.433105
 20
-57.238087
 11
-566.22229
 21
-59.470219
  0
ARC
  8
CYAN
 10
-548.8236913797
 20
-54.1992653086
 40
18.1794990792
 50
196.8543301191
 51
213.8737544205
  0
ARC
  8
CYAN
 10
-558.9359714708
 20
-60.987559803
 40
6.0000429855
 50
213.874975493
 51
280.721981399
  0
LINE
  8
CYAN
 10
-557.819702
 20
-66.882851
 11
-522.266479
 21
-60.1511
  0
ARC
  8
CYAN
 10
-505.8831756491
 20
-121.5647880509
 40
63.5614168242
 50
58.5570219163
 51
104.936921705
  0
ARC
  8
CYAN
 10
-451.1812904046
 20
-32.0996154363
 40
41.3018911546
 50
238.5570743462
 51
270.8546338921
  0
ARC
  8
CYAN
 10
-450.6160479993
 20
-69.988988324
 40
3.4083022933
 50
270.8540294808
 51
89.4014627166
  0
ARC
  8
CYAN
 10
-450.135278944
 20
-24.0068992092
 40
42.5763001108
 50
248.1911982266
 51
269.4009215554
  0
ARC
  8
CYAN
 10
-687.1314164197
 20
-616.2789332394
 40
595.3526390924
 50
68.191316336
 51
70.4390769926
  0
ARC
  8
CYAN
 10
-503.2403764449
 20
-98.7361379236
 40
46.1109258492
 50
70.43904793
 51
90.0753982565
  0
ARC
  8
CYAN
 10
-503.1512550971
 20
-166.4090241599
 40
113.7838707693
 50
90.0754321498
 51
98.6435764677
  0
ARC
  8
CYAN
 10
-520.5200550395
 20
-52.1511129565
 40
1.7866509221
 50
165.7390165964
 51
278.6441633706
  0
ARC
  8
CYAN
 10
-526.9701009699
 20
-50.5114900271
 40
4.8685317102
 50
345.7366934541
 51
10.7192261026
  0
ARC
  8
CYAN
 10
-526.9700860096
 20
-50.5116453095
 40
4.8685458953
 50
10.7210544108
 51
35.7036685437
  0
ARC
  8
CYAN
 10
-521.5658299331
 20
-46.6277078234
 40
1.7865990424
 50
102.798708636
 51
215.7052527204
  0
ARC
  8
CYAN
 10
-547.1685018741
 20
66.071061424
 40
113.7837665381
 50
282.7991068382
 51
291.3672511182
  0
ARC
  8
CYAN
 10
-522.5124360607
 20
3.0496938042
 40
46.1109185266
 50
291.3674751883
 51
311.0038619847
  0
ARC
  8
CYAN
 10
-412.193792955
 20
351.8999933509
 40
20.1956186131
 50
357.1045859
 51
3.8090196281
  0
ARC
  8
CYAN
 10
-395.9675331498
 20
352.9660441674
 40
3.9344091826
 50
4.0162527683
 51
79.6641038155
  0
ARC
  8
CYAN
 10
-392.9646968805
 20
369.4300579188
 40
12.8012047732
 50
211.97261718
 51
259.663394058
  0
LINE
  8
CYAN
 10
-403.823975
 20
362.651642
 11
-419.099609
 21
355.43161
  0
LINE
  8
CYAN
 10
-419.099609
 20
355.43161
 11
-420.371338
 21
358.122131
  0
LINE
  8
CYAN
 10
-420.371338
 20
358.122131
 11
-405.095703
 21
365.342194
  0
ARC
  8
CYAN
 10
-392.9647680086
 20
369.430095906
 40
12.8011923569
 50
150.932233639
 51
198.6228698249
  0
ARC
  8
CYAN
 10
-407.5924960252
 20
377.5610371615
 40
3.9344771137
 50
330.931881936
 51
46.8355263848
  0
ARC
  8
CYAN
 10
-418.7167988124
 20
365.6993305119
 40
20.1964018793
 50
46.8370752921
 51
53.491608063
  0
LINE
  8
CYAN
 10
-406.701141
 20
381.932587
 11
-412.651764
 21
371.064362
  0
LINE
  8
CYAN
 10
-412.651764
 20
371.064362
 11
-415.283173
 21
372.505127
  0
LINE
  8
CYAN
 10
-415.283173
 20
372.505127
 11
-409.243347
 21
383.536133
  0
ARC
  8
CYAN
 10
-418.7171843319
 20
365.699977281
 40
20.196089835
 50
62.0245853077
 51
71.338962838
  0
ARC
  8
CYAN
 10
-413.0924185597
 20
382.3548941743
 40
2.6170043436
 50
71.3391278592
 51
151.8570620292
  0
LINE
  8
CYAN
 10
-415.400024
 20
383.589264
 11
-419.591644
 21
375.75296
  0
ARC
  8
CYAN
 10
-424.1957109289
 20
378.2156660142
 40
5.2213363422
 50
230.7838766718
 51
331.8577643602
  0
ARC
  8
CYAN
 10
-442.0256404843
 20
356.3669877461
 40
22.9792156033
 50
50.783215997
 51
76.7887552235
  0
ARC
  8
CYAN
 10
-438.2072082032
 20
372.6327778921
 40
6.2712428312
 50
76.7883778822
 51
159.1421106487
  0
LINE
  8
CYAN
 10
-444.067474
 20
374.865662
 11
-433.757629
 21
370.82428
  0
LINE
  8
CYAN
 10
-433.757629
 20
370.82428
 11
-434.843719
 21
368.053497
  0
LINE
  8
CYAN
 10
-434.843719
 20
368.053497
 11
-445.606903
 21
372.272736
  0
ARC
  8
CYAN
 10
-425.9019450706
 20
363.6356433592
 40
21.5147562451
 50
156.3311618619
 51
191.1012108666
  0
LINE
  8
CYAN
 10
-447.01413
 20
359.493134
 11
-433.272583
 21
361.497131
  0
LINE
  8
CYAN
 10
-433.272583
 20
361.497131
 11
-432.84317
 21
358.552338
  0
LINE
  8
CYAN
 10
-432.84317
 20
358.552338
 11
-446.165344
 21
356.609436
  0
ARC
  8
CYAN
 10
-441.632798483
 20
357.4412733567
 40
4.6082450295
 50
190.3995057737
 51
247.175117393
  0
LINE
  8
CYAN
 10
-443.42041
 20
353.193878
 11
-440.219635
 21
351.846802
  0
ARC
  8
CYAN
 10
-442.7162090922
 20
345.914960195
 40
6.4358083717
 50
343.4204123127
 51
67.1749078224
  0
LINE
  8
CYAN
 10
-436.547974
 20
344.078522
 11
-437.53891
 21
340.750244
  0
ARC
  8
CYAN
 10
-433.122309229
 20
339.4353580953
 40
4.6081761373
 50
163.420970579
 51
220.195643688
  0
LINE
  8
CYAN
 10
-436.642242
 20
336.461243
 11
-428.565887
 21
343.809723
  0
LINE
  8
CYAN
 10
-428.565887
 20
343.809723
 11
-426.563049
 21
341.608521
  0
LINE
  8
CYAN
 10
-426.563049
 20
341.608521
 11
-434.952911
 21
333.974854
  0
ARC
  8
CYAN
 10
-418.3501731118
 20
347.6582374205
 40
21.5147829926
 50
219.4941280582
 51
254.2642701303
  0
LINE
  8
CYAN
 10
-424.184998
 20
326.949768
 11
-419.826599
 21
340.364197
  0
LINE
  8
CYAN
 10
-419.826599
 20
340.364197
 11
-416.996246
 21
339.44458
  0
LINE
  8
CYAN
 10
-416.996246
 20
339.44458
 11
-421.204132
 21
326.493317
  0
ARC
  8
CYAN
 10
-419.2093939446
 20
332.4387790231
 40
6.2711640528
 50
251.4530892225
 51
333.8073577874
  0
ARC
  8
CYAN
 10
-434.2018979562
 20
339.8138621869
 40
22.9794562515
 50
333.806803103
 51
359.8123099401
  0
ARC
  8
CYAN
 10
-406.0012353234
 20
339.7215267355
 40
5.2213575448
 50
78.7381177638
 51
179.8128024012
  0
LINE
  8
CYAN
 10
-404.981537
 20
344.842346
 11
-396.265869
 21
343.106628
  0
ARC
  8
CYAN
 10
-395.7547448146
 20
345.6732741035
 40
2.6170441635
 50
258.7374055916
 51
339.6164279184
  0
ARC
  8
CYAN
 10
-412.1948901383
 20
351.899405993
 40
20.19662111
 50
339.3040652449
 51
348.5715113065
  0
LINE
  8
CYAN
 10
-392.398712
 20
347.897552
 11
-404.756195
 21
350.233002
  0
LINE
  8
CYAN
 10
-404.756195
 20
350.233002
 11
-404.199097
 21
353.180786
  0
LINE
  8
CYAN
 10
-404.199097
 20
353.180786
 11
-392.023956
 21
350.879852
  0
LINE
  8
CYAN
 10
-482.532471
 20
346.899841
 11
-477.11319
 21
347.637512
  0
LINE
  8
CYAN
 10
-477.11319
 20
347.637512
 11
-474.841644
 21
335.381165
  0
LINE
  8
CYAN
 10
-474.841644
 20
335.381165
 11
-471.891846
 21
335.927856
  0
LINE
  8
CYAN
 10
-471.891846
 20
335.927856
 11
-476.476532
 21
360.664856
  0
ARC
  8
CYAN
 10
-497.5340103478
 20
357.0517318683
 40
21.3652067708
 50
9.7362235881
 51
33.9220138997
  0
ARC
  8
CYAN
 10
-476.1918379636
 20
371.4050763643
 40
4.354568118
 50
152.6297057504
 51
213.9230412185
  0
ARC
  8
CYAN
 10
-446.8654500429
 20
356.2222666527
 40
37.3781163702
 50
134.5323424779
 51
152.6286999822
  0
ARC
  8
CYAN
 10
-470.1162290993
 20
379.8556896714
 40
4.224875046
 50
78.7566803202
 51
134.5319487429
  0
LINE
  8
CYAN
 10
-469.29248
 20
383.999481
 11
-462.190674
 21
382.587799
  0
ARC
  8
CYAN
 10
-460.975965442
 20
388.6980569643
 40
6.2298289922
 50
258.7562900191
 51
290.4698724181
  0
LINE
  8
CYAN
 10
-458.797302
 20
382.861603
 11
-454.511322
 21
384.461578
  0
ARC
  8
CYAN
 10
-453.8303946174
 20
382.6375546448
 40
1.9469779919
 50
343.7839689837
 51
110.471139892
  0
ARC
  8
CYAN
 10
-465.4852893266
 20
386.0267629508
 40
14.084659138
 50
305.5987778502
 51
343.785485032
  0
ARC
  8
CYAN
 10
-458.2030464269
 20
375.854570039
 40
1.5744804708
 50
223.9696547356
 51
305.598889136
  0
LINE
  8
CYAN
 10
-459.336212
 20
374.761444
 11
-461.263428
 21
376.759369
  0
ARC
  8
CYAN
 10
-464.8197665739
 20
373.3287433264
 40
4.9413294329
 50
43.9692173518
 51
76.7741577682
  0
ARC
  8
CYAN
 10
-465.1186292328
 20
372.057140833
 40
6.2475804769
 50
76.7741056524
 51
174.5250217164
  0
ARC
  8
CYAN
 10
-460.6181001386
 20
371.6255686738
 40
10.7687547306
 50
174.5239409151
 51
191.4104660615
  0
ARC
  8
CYAN
 10
-454.0999787032
 20
372.9413924532
 40
17.4183636824
 50
191.411436132
 51
225.5779946611
  0
ARC
  8
CYAN
 10
-462.6231789838
 20
364.2445129999
 40
5.2413092255
 50
225.5783141409
 51
314.4874304794
  0
ARC
  8
CYAN
 10
-457.0957721748
 20
358.6172931572
 40
2.6465186879
 50
321.5824298137
 51
134.4871121687
  0
ARC
  8
CYAN
 10
-430.6852504562
 20
337.6720889629
 40
31.0613029003
 50
141.5834521143
 51
159.5040242637
  0
ARC
  8
CYAN
 10
-445.7308070096
 20
343.2961860292
 40
14.9989481596
 50
159.5040186005
 51
236.9488740965
  0
LINE
  8
CYAN
 10
-453.911041
 20
330.724304
 11
-451.736481
 21
329.309418
  0
ARC
  8
CYAN
 10
-454.9731130331
 20
324.3351129048
 40
5.9346017641
 50
264.6629571773
 51
56.9491467115
  0
ARC
  8
CYAN
 10
-536.9685034713
 20
-553.3983540972
 40
875.6204351726
 50
84.6630790692
 51
86.3354030943
  0
ARC
  8
CYAN
 10
-480.8033905309
 20
323.5433182102
 40
3.1179881034
 50
230.4642178907
 51
266.3363950528
  0
LINE
  8
CYAN
 10
-482.788177
 20
321.138641
 11
-482.532471
 21
346.899841
  0
LINE
  8
CYAN
 10
-563.673279
 20
268.18219
 11
-559.543945
 21
271.768616
  0
LINE
  8
CYAN
 10
-559.543945
 20
271.768616
 11
-567.257141
 21
281.56076
  0
LINE
  8
CYAN
 10
-567.257141
 20
281.56076
 11
-564.900513
 21
283.417114
  0
LINE
  8
CYAN
 10
-564.900513
 20
283.417114
 11
-549.332947
 21
263.653687
  0
ARC
  8
CYAN
 10
-565.9390380986
 20
250.2110781943
 40
21.3650647805
 50
14.8042956204
 51
38.9901241867
  0
ARC
  8
CYAN
 10
-541.0731628332
 20
256.7829648358
 40
4.3546056441
 50
194.8048625081
 51
256.0983222644
  0
ARC
  8
CYAN
 10
-533.1392186934
 20
288.8392130589
 40
37.3780900113
 50
256.0985773545
 51
274.1949998051
  0
ARC
  8
CYAN
 10
-530.7140496201
 20
255.7747422382
 40
4.2247994404
 50
274.1954435763
 51
329.9710170455
  0
LINE
  8
CYAN
 10
-527.056335
 20
253.660492
 11
-523.432678
 21
259.929291
  0
ARC
  8
CYAN
 10
-518.0389952084
 20
256.8115037979
 40
6.2299607618
 50
118.2567325422
 51
149.9701883034
  0
LINE
  8
CYAN
 10
-520.988403
 20
262.299072
 11
-516.958679
 21
264.464844
  0
ARC
  8
CYAN
 10
-517.8804370099
 20
266.1798643553
 40
1.9470317532
 50
298.2563336268
 51
64.9415465792
  0
ARC
  8
CYAN
 10
-523.0211101214
 20
255.1846080127
 40
14.0846666989
 50
64.9421442468
 51
103.1288989039
  0
ARC
  8
CYAN
 10
-525.8627262328
 20
267.3678106802
 40
1.5744624895
 50
103.1282774203
 51
184.7580067017
  0
LINE
  8
CYAN
 10
-527.431763
 20
267.237213
 11
-527.201538
 21
264.470886
  0
ARC
  8
CYAN
 10
-532.1257670617
 20
264.0608817007
 40
4.9412686
 50
331.9550036014
 51
4.7596190287
  0
ARC
  8
CYAN
 10
-533.2786376743
 20
264.6752160757
 40
6.2476059812
 50
234.2020210558
 51
331.9535438183
  0
ARC
  8
CYAN
 10
-530.6343234884
 20
268.3423384495
 40
10.7686881508
 50
217.3168661104
 51
234.2033210808
  0
ARC
  8
CYAN
 10
-525.3456009099
 20
272.3732877554
 40
17.41843542
 50
183.1492080223
 51
217.3157189742
  0
ARC
  8
CYAN
 10
-537.5043330645
 20
271.7042729266
 40
5.2413114393
 50
94.239326192
 51
183.148685352
  0
ARC
  8
CYAN
 10
-538.087502999
 20
279.570514921
 40
2.6465178121
 50
274.2410680151
 51
87.1437680996
  0
ARC
  8
CYAN
 10
-536.4078376086
 20
313.2366207089
 40
31.0614627674
 50
249.2232252874
 51
267.1437745483
  0
ARC
  8
CYAN
 10
-542.1055726327
 20
298.2186373765
 40
14.9989596076
 50
171.7783787889
 51
249.2228800178
  0
LINE
  8
CYAN
 10
-556.950378
 20
300.363525
 11
-556.579407
 21
302.931244
  0
ARC
  8
CYAN
 10
-562.4529816952
 20
303.780046282
 40
5.9345888665
 50
351.7769968036
 51
144.062973908
  0
ARC
  8
CYAN
 10
-1276.2230145241
 20
821.1446122567
 40
875.6173119838
 50
322.3917943796
 51
324.0641424008
  0
ARC
  8
CYAN
 10
-580.0869319077
 20
284.8888092581
 40
3.1179904652
 50
142.3916745415
 51
178.2638259897
  0
LINE
  8
CYAN
 10
-583.203491
 20
284.983276
 11
-563.673279
 21
268.18219
  0
LINE
  8
CYAN
 10
-412.278229
 20
72.377296
 11
-414.657104
 21
69.539787
  0
ARC
  8
CYAN
 10
-411.2528044489
 20
66.6858090525
 40
4.4423468526
 50
140.0253776969
 51
169.2730587231
  0
LINE
  8
CYAN
 10
-415.617523
 20
67.512657
 11
-416.018616
 21
65.395927
  0
ARC
  8
CYAN
 10
-420.1232351127
 20
66.173523956
 40
4.1776255321
 50
233.348807282
 51
349.2727624317
  0
LINE
  8
CYAN
 10
-422.617035
 20
62.82188
 11
-426.252075
 21
65.526657
  0
ARC
  8
CYAN
 10
-436.1694939214
 20
52.1978639972
 40
16.6136065011
 50
53.3485474909
 51
122.6128807006
  0
ARC
  8
CYAN
 10
-411.3373103374
 20
13.3879035563
 40
62.6880068876
 50
122.61279087
 51
162.895224863
  0
ARC
  8
CYAN
 10
-462.0222055865
 20
28.9855164569
 40
9.6574106799
 50
162.8968071832
 51
301.2645618775
  0
LINE
  8
CYAN
 10
-457.010101
 20
20.730555
 11
-410.099976
 21
49.131947
  0
ARC
  8
CYAN
 10
-405.1544311277
 20
40.9411309895
 40
9.5680656876
 50
68.2754047604
 51
121.1232213366
  0
LINE
  8
CYAN
 10
-401.612854
 20
49.829613
 11
-399.098022
 21
48.827568
  0
ARC
  8
CYAN
 10
-396.827401238
 20
54.5262559602
 40
6.1343918291
 50
248.2753765896
 51
310.7168571206
  0
ARC
  8
CYAN
 10
-400.3467664953
 20
58.6153808194
 40
11.5294705058
 50
310.7171182742
 51
346.0290867295
  0
LINE
  8
CYAN
 10
-389.158356
 20
55.831829
 11
-388.961578
 21
56.435024
  0
ARC
  8
CYAN
 10
-392.7371499556
 20
57.9727608408
 40
4.0767116876
 50
337.839630212
 51
53.3498623079
  0
LINE
  8
CYAN
 10
-390.30365
 20
61.243488
 11
-406.22287
 21
73.088112
  0
ARC
  8
CYAN
 10
-408.874005464
 20
69.5249690629
 40
4.4412280778
 50
53.3491262828
 51
140.0410700971
  0
ARC
  8
CYAN
 10
-459.4860658347
 20
32.1055618721
 40
6.9833593712
 50
135.4664259264
 51
329.0531286302
  0
LINE
  8
CYAN
 10
-464.464081
 20
37.003181
 11
-453.496826
 21
28.514418
  0
ARC
  8
CYAN
 10
-469.5867879213
 20
158.1388504268
 40
119.5628664217
 50
278.5528196648
 51
284.6549924659
  0
ARC
  8
CYAN
 10
-438.7906362205
 20
40.3739803649
 40
2.1621005339
 50
317.6404369816
 51
104.6542409347
  0
ARC
  8
CYAN
 10
-452.0809230982
 20
52.4926915028
 40
20.148064087
 50
280.6407795946
 51
317.6400145928
  0
ARC
  8
CYAN
 10
-449.1932032318
 20
37.1229421036
 40
4.5093901465
 50
211.2079802715
 51
280.6404602451
  0
ARC
  8
CYAN
 10
-447.7557416017
 20
37.9939368878
 40
6.1901423109
 50
188.2019029623
 51
211.2092738981
  0
ARC
  8
CYAN
 10
-451.4379208353
 20
37.4631832216
 40
2.4699079954
 50
98.5532591036
 51
188.2014736816
  0
ARC
  8
CYAN
 10
-456.2445459703
 20
45.8751908655
 40
2.8151890138
 50
106.8727412368
 51
278.0588536677
  0
ARC
  8
CYAN
 10
-434.0290989843
 20
-27.3670937958
 40
79.3524893788
 50
95.8626531832
 51
106.8732911809
  0
ARC
  8
CYAN
 10
-441.8967969117
 20
49.2557446472
 40
2.3267791146
 50
292.2253180115
 51
95.8633272306
  0
ARC
  8
CYAN
 10
-464.5836795896
 20
104.7758879123
 40
62.303282462
 50
278.058375008
 51
292.2260906278
  0
ARC
  8
CYAN
 10
-436.8572070333
 20
60.8769520794
 40
7.6997165812
 50
182.734370942
 51
222.7258030365
  0
ARC
  8
CYAN
 10
-442.2582553017
 20
60.6189925622
 40
2.2925116184
 50
108.1306183769
 51
182.734240256
  0
ARC
  8
CYAN
 10
-437.1799787825
 20
45.1095799881
 40
18.6121553276
 50
65.610198136
 51
108.1301619064
  0
ARC
  8
CYAN
 10
-430.3704790075
 20
60.1282206796
 40
2.1218898538
 50
291.7144768257
 51
65.6093422572
  0
ARC
  8
CYAN
 10
-456.5593432408
 20
125.8911445518
 40
72.9076141635
 50
283.1154464597
 51
291.7140160031
  0
ARC
  8
CYAN
 10
-440.6051099426
 20
57.4154279824
 40
2.5978614985
 50
222.7268976065
 51
283.1160153991
  0
LINE
  8
CYAN
 10
-434.066345
 20
47.060959
 11
-434.554687
 21
48.072525
  0
ARC
  8
CYAN
 10
-432.1599671027
 20
49.2285647267
 40
2.6591561136
 50
113.0355330537
 51
205.7687077145
  0
ARC
  8
CYAN
 10
-413.1304119227
 20
4.4750125945
 40
51.2904670027
 50
98.9073870542
 51
113.0355691968
  0
ARC
  8
CYAN
 10
-420.7191641887
 20
52.894746475
 40
2.2796540122
 50
304.4192501103
 51
98.9066820505
  0
ARC
  8
CYAN
 10
-445.8684203214
 20
89.597842345
 40
46.7723762313
 50
289.4721057776
 51
304.4192550712
  0
ARC
  8
CYAN
 10
-431.3006680947
 20
48.396105039
 40
3.0710883559
 50
205.7691876861
 51
289.4717148666
  0
ARC
  8
CYAN
 10
-502.7230268904
 20
321.46297233
 40
2.8512444907
 50
118.0314780851
 51
260.5425792511
  0
LINE
  8
CYAN
 10
-504.062988
 20
323.979736
 11
-502.066315
 21
325.042816
  0
ARC
  8
CYAN
 10
-503.3810939776
 20
327.5122780344
 40
2.7976573235
 50
298.0315131169
 51
355.8537044095
  0
ARC
  8
CYAN
 10
-516.9636659314
 20
328.4970343698
 40
16.415880626
 50
355.8533090253
 51
16.5762097156
  0
LINE
  8
CYAN
 10
-501.230011
 20
333.180328
 11
-516.037231
 21
324.720978
  0
LINE
  8
CYAN
 10
-516.037231
 20
324.720978
 11
-519.01355
 21
329.930695
  0
LINE
  8
CYAN
 10
-519.01355
 20
329.930695
 11
-503.967682
 21
338.526459
  0
ARC
  8
CYAN
 10
-516.9638451485
 20
328.4966609271
 40
16.4163670148
 50
37.6591898198
 51
45.8831123093
  0
ARC
  8
CYAN
 10
-509.5182828775
 20
336.1755139807
 40
5.7205182072
 50
45.8820046455
 51
116.2022644116
  0
ARC
  8
CYAN
 10
-486.0310575278
 20
288.448594627
 40
58.9136435677
 50
116.2025493909
 51
134.2868968385
  0
ARC
  8
CYAN
 10
-522.7454957018
 20
326.0884007999
 40
6.3331816153
 50
134.2863047065
 51
184.8272715127
  0
LINE
  8
CYAN
 10
-529.056213
 20
325.55545
 11
-528.700134
 21
321.340088
  0
ARC
  8
CYAN
 10
-533.7938879118
 20
320.9099370788
 40
5.1118840685
 50
258.7538171429
 51
4.8269894759
  0
LINE
  8
CYAN
 10
-534.790833
 20
315.89621
 11
-539.43042
 21
316.818756
  0
ARC
  8
CYAN
 10
-540.5163426903
 20
311.3575452865
 40
5.5681281008
 50
78.7538316327
 51
186.7852831455
  0
LINE
  8
CYAN
 10
-546.045471
 20
310.699677
 11
-545.644897
 21
307.333374
  0
ARC
  8
CYAN
 10
-555.8536189719
 20
306.1187514855
 40
10.2807252736
 50
352.2900213839
 51
6.7850922746
  0
LINE
  8
CYAN
 10
-545.665833
 20
304.739502
 11
-545.926392
 21
302.815125
  0
ARC
  8
CYAN
 10
-541.5007630963
 20
302.2160761576
 40
4.4659882119
 50
172.2913503957
 51
250.5808858141
  0
LINE
  8
CYAN
 10
-542.985596
 20
298.00415
 11
-536.617126
 21
306.079315
  0
LINE
  8
CYAN
 10
-536.617126
 20
306.079315
 11
-534.261597
 21
304.221558
  0
LINE
  8
CYAN
 10
-534.261597
 20
304.221558
 11
-540.553162
 21
296.243927
  0
ARC
  8
CYAN
 10
-528.48082839
 20
318.4562265882
 40
25.2809709423
 50
241.4760218383
 51
248.3192427474
  0
ARC
  8
CYAN
 10
-535.9294063666
 20
299.7204849301
 40
5.1188944284
 50
248.3193334735
 51
313.2645233204
  0
LINE
  8
CYAN
 10
-532.421082
 20
295.99292
 11
-531.617065
 21
296.749634
  0
ARC
  8
CYAN
 10
-529.4038192163
 20
294.398099045
 40
3.2292682675
 50
23.2020432485
 51
133.2647658919
  0
LINE
  8
CYAN
 10
-526.43573
 20
295.670349
 11
-525.011108
 21
292.346802
  0
ARC
  8
CYAN
 10
-516.9699479299
 20
295.7935439501
 40
8.7487304989
 50
203.2017838161
 51
265.8835773569
  0
ARC
  8
CYAN
 10
-505.8506360547
 20
450.2793249786
 40
163.6341579494
 50
265.8831845185
 51
272.859676346
  0
ARC
  8
CYAN
 10
-498.0273358928
 20
293.6628810951
 40
6.8224411674
 50
272.8600460973
 51
350.2879933515
  0
LINE
  8
CYAN
 10
-491.302673
 20
292.511963
 11
-490.442352
 21
297.538544
  0
ARC
  8
CYAN
 10
-485.8726632895
 20
296.7564486549
 40
4.6361328756
 50
109.7341111024
 51
170.2880112485
  0
LINE
  8
CYAN
 10
-487.43808
 20
301.1203
 11
-480.651489
 21
303.554749
  0
ARC
  8
CYAN
 10
-482.4899750263
 20
308.6798705849
 40
5.4448968887
 50
289.7339493747
 51
75.4100542576
  0
ARC
  8
CYAN
 10
-544.6031655463
 20
70.0494711164
 40
252.0265587922
 50
75.4101991762
 51
80.5425807892
  0
ARC
  8
CYAN
 10
-438.8158601876
 20
296.9084025202
 40
2.851232971
 50
308.5737548851
 51
91.0842311654
  0
LINE
  8
CYAN
 10
-438.869812
 20
299.759125
 11
-441.131409
 21
299.716339
  0
ARC
  8
CYAN
 10
-441.1843880297
 20
302.5135420157
 40
2.7977046821
 50
213.2633591272
 51
271.0850524246
  0
ARC
  8
CYAN
 10
-429.7969481451
 20
309.9828723435
 40
16.4162465516
 50
192.5392709841
 51
213.2621935684
  0
LINE
  8
CYAN
 10
-445.821625
 20
306.418762
 11
-428.769287
 21
306.233002
  0
LINE
  8
CYAN
 10
-428.769287
 20
306.233002
 11
-428.703918
 21
312.232635
  0
LINE
  8
CYAN
 10
-428.703918
 20
312.232635
 11
-446.031067
 21
312.421356
  0
ARC
  8
CYAN
 10
-429.7973255995
 20
309.9830463297
 40
16.4158372892
 50
163.2341270611
 51
171.4580218116
  0
ARC
  8
CYAN
 10
-440.0380262182
 20
313.0681536124
 40
5.7205188701
 50
92.9129462305
 51
163.2332827218
  0
ARC
  8
CYAN
 10
-437.3343775124
 20
259.943504055
 40
58.9139217214
 50
74.8290326632
 51
92.9133690933
  0
ARC
  8
CYAN
 10
-423.5740537084
 20
310.6918386038
 40
6.3331270278
 50
24.2875100603
 51
74.8282979861
  0
LINE
  8
CYAN
 10
-417.801453
 20
313.296753
 11
-416.061371
 21
309.440796
  0
ARC
  8
CYAN
 10
-411.4019790093
 20
311.5434180021
 40
5.1118443841
 50
204.28800558
 51
310.3612866838
  0
LINE
  8
CYAN
 10
-408.091522
 20
307.648315
 11
-404.487
 21
310.711884
  0
ARC
  8
CYAN
 10
-400.881056246
 20
306.4691240598
 40
5.5681093979
 50
22.3301269766
 51
130.3613832233
  0
LINE
  8
CYAN
 10
-395.730499
 20
308.584686
 11
-394.442505
 21
305.448822
  0
ARC
  8
CYAN
 10
-384.9326135371
 20
309.3549629463
 40
10.2808546692
 50
202.3301651306
 51
216.8251809959
  0
LINE
  8
CYAN
 10
-393.162109
 20
303.192871
 11
-391.998169
 21
301.638458
  0
ARC
  8
CYAN
 10
-395.5730300095
 20
298.9616357653
 40
4.4659834878
 50
318.5359696964
 51
36.8255231672
  0
LINE
  8
CYAN
 10
-392.226349
 20
296.004486
 11
-401.719299
 21
299.960571
  0
LINE
  8
CYAN
 10
-401.719299
 20
299.960571
 11
-402.873291
 21
297.191406
  0
LINE
  8
CYAN
 10
-402.873291
 20
297.191406
 11
-393.495026
 21
293.283142
  0
ARC
  8
CYAN
 10
-414.8501461736
 20
306.8150095968
 40
25.2814674868
 50
320.7960245418
 51
327.6392342354
  0
ARC
  8
CYAN
 10
-399.2261825984
 20
294.070520133
 40
5.118872181
 50
255.8511624623
 51
320.7968090588
  0
LINE
  8
CYAN
 10
-400.477448
 20
289.106934
 11
-401.548035
 21
289.376831
  0
ARC
  8
CYAN
 10
-402.3374542731
 20
286.2455497636
 40
3.22925765
 50
75.8501687793
 51
185.9130958289
  0
LINE
  8
CYAN
 10
-405.54953
 20
285.912872
 11
-405.176941
 21
282.316162
  0
ARC
  8
CYAN
 10
-413.8791168355
 20
281.4146613461
 40
8.748746636
 50
303.2325015355
 51
5.9144504967
  0
ARC
  8
CYAN
 10
-498.7620191776
 20
410.9710396129
 40
163.6356804282
 50
296.2556318675
 51
303.2320864145
  0
ARC
  8
CYAN
 10
-429.3914522594
 20
270.3363008364
 40
6.8223987672
 50
218.8278374624
 51
296.2556132471
  0
LINE
  8
CYAN
 10
-434.706329
 20
266.058777
 11
-437.903687
 21
270.031647
  0
ARC
  8
CYAN
 10
-441.5154766222
 20
267.1247378558
 40
4.6362856953
 50
38.8284671002
 51
99.382069727
  0
LINE
  8
CYAN
 10
-442.271271
 20
271.699005
 11
-449.384796
 21
270.523712
  0
ARC
  8
CYAN
 10
-450.2723829197
 20
275.8957068393
 40
5.4448268194
 50
133.7053420094
 51
279.3819248922
  0
ARC
  8
CYAN
 10
-279.895870791
 20
97.6414833091
 40
252.0269107013
 50
128.5731661674
 51
133.7055517816
  0
LINE
  8
CYAN
 10
-529.459412
 20
379.359711
 11
-543.479492
 21
381.371002
  0
ARC
  8
CYAN
 10
-578.8453025997
 20
79.8234159897
 40
303.6143724991
 50
83.3108498361
 51
93.7376731138
  0
ARC
  8
CYAN
 10
-596.8293343009
 20
339.3223491252
 40
43.5072308663
 50
92.381840863
 51
107.9329864192
  0
ARC
  8
CYAN
 10
-607.1686970517
 20
368.2632716786
 40
12.8222825646
 50
103.7915455632
 51
237.9512720372
  0
ARC
  8
CYAN
 10
-484.2272796452
 20
564.6395332774
 40
244.5079062737
 50
237.9513585536
 51
248.1476290921
  0
ARC
  8
CYAN
 10
-564.2443872763
 20
365.1112409925
 40
29.532845079
 50
248.1473642775
 51
294.9735288745
  0
ARC
  8
CYAN
 10
-639.7980077263
 20
527.3307257994
 40
208.4839859362
 50
294.9736923303
 51
309.2539244039
  0
ARC
  8
CYAN
 10
-505.5099670545
 20
362.9933386276
 40
3.7424372301
 50
7.7515177493
 51
129.2538348587
  0
LINE
  8
CYAN
 10
-501.801727
 20
363.498108
 11
-501.075653
 21
358.164368
  0
ARC
  8
CYAN
 10
-496.8170862924
 20
358.7440694823
 40
4.2978418086
 50
187.7517963552
 51
279.8666462694
  0
LINE
  8
CYAN
 10
-496.080627
 20
354.509796
 11
-492.905487
 21
355.062073
  0
ARC
  8
CYAN
 10
-493.6653095964
 20
359.4379225394
 40
4.4413274558
 50
279.8506223322
 51
6.541731459
  0
LINE
  8
CYAN
 10
-489.252899
 20
359.943909
 11
-491.513702
 21
379.656952
  0
ARC
  8
CYAN
 10
-495.5639339784
 20
379.1924039849
 40
4.0767859813
 50
6.5430416522
 51
103.4719796896
  0
LINE
  8
CYAN
 10
-496.513702
 20
383.157013
 11
-508.266449
 21
380.341766
  0
ARC
  8
CYAN
 10
-521.4327692438
 20
435.3084240814
 40
56.5215488942
 50
261.8358089592
 51
283.4704225946
  0
LINE
  8
CYAN
 10
-570.457458
 20
340.827759
 11
-568.678345
 21
340.592682
  0
ARC
  8
CYAN
 10
-567.2410504304
 20
351.4725800603
 40
10.9744246994
 50
262.4744875539
 51
289.6126884761
  0
ARC
  8
CYAN
 10
-605.6260579662
 20
459.1929101571
 40
125.3294784559
 50
289.6129646119
 51
296.7959743376
  0
ARC
  8
CYAN
 10
-550.567580101
 20
350.1766412327
 40
3.1984714387
 50
296.7957888519
 51
110.1497406244
  0
ARC
  8
CYAN
 10
-611.786536499
 20
517.0122575456
 40
174.5144529449
 50
283.5820588973
 51
290.1502048166
  0
ARC
  8
CYAN
 10
-570.0205309961
 20
344.1352429255
 40
3.3362186865
 50
103.5812446457
 51
262.4746556594
  0
ARC
  8
CYAN
 10
-540.5505300118
 20
355.3818120277
 40
4.5746015828
 50
113.9390032875
 51
292.3756564733
  0
ARC
  8
CYAN
 10
-572.6463618039
 20
433.3483656614
 40
88.8890481735
 50
292.3751105921
 51
305.5068867821
  0
ARC
  8
CYAN
 10
-522.5045380779
 20
363.0700161835
 40
2.5568473913
 50
305.5065579034
 51
100.4854713366
  0
ARC
  8
CYAN
 10
-507.1643706601
 20
280.1813364857
 40
86.8530748184
 50
100.4850808303
 51
113.9393848191
  0
ARC
  8
CYAN
 10
-542.573583989
 20
370.0311329305
 40
5.325565856
 50
97.1375054303
 51
280.8139151775
  0
ARC
  8
CYAN
 10
-568.0019886889
 20
503.1582027288
 40
140.8594010362
 50
280.813734529
 51
289.5235372853
  0
ARC
  8
CYAN
 10
-521.6974619634
 20
372.568908578
 40
2.3037337326
 50
289.5223711641
 51
80.3790084802
  0
ARC
  8
CYAN
 10
-533.8870609065
 20
300.653173063
 40
75.245212584
 50
80.3798647214
 51
97.1366884399
  0
ARC
  8
CYAN
 10
-552.4504279915
 20
360.0737308985
 40
2.49665234
 50
288.3573924637
 51
81.1987101006
  0
ARC
  8
CYAN
 10
-564.1017910126
 20
284.8338789944
 40
78.6333030064
 50
81.1973534428
 51
98.1581882525
  0
ARC
  8
CYAN
 10
-574.6977640044
 20
358.7470161241
 40
3.9645244976
 50
98.158477153
 51
265.8763586936
  0
ARC
  8
CYAN
 10
-570.648203564
 20
414.9158929296
 40
60.2791909829
 50
265.8763310212
 51
288.3569424781
  0
ARC
  8
CYAN
 10
-569.1402507054
 20
510.5186779283
 40
142.7187341059
 50
267.5581570766
 51
275.476722752
  0
ARC
  8
CYAN
 10
-555.7890259562
 20
371.2680474221
 40
2.8295161558
 50
275.4765419788
 51
72.6657457672
  0
ARC
  8
CYAN
 10
-569.4956914013
 20
327.3561161249
 40
48.830933393
 50
72.6648306566
 51
97.1452321835
  0
ARC
  8
CYAN
 10
-575.192807783
 20
372.8024682535
 40
3.0288804168
 50
97.1445539782
 51
181.711482624
  0
LINE
  8
CYAN
 10
-578.220337
 20
372.712006
 11
-578.166565
 21
370.912994
  0
ARC
  8
CYAN
 10
-575.089705868
 20
371.0049748663
 40
3.0782336815
 50
181.7123131499
 51
267.5587147395
  0
LINE
  8
CYAN
 10
-585.118774
 20
370.488953
 11
-585.566467
 21
372.520905
  0
ARC
  8
CYAN
 10
-588.3365605297
 20
371.9106525917
 40
2.8365165547
 50
12.4238285555
 51
85.6459919796
  0
ARC
  8
CYAN
 10
-595.9858304759
 20
271.436929976
 40
103.6009957473
 50
85.6463436618
 51
96.2181715915
  0
ARC
  8
CYAN
 10
-606.9807660003
 20
372.3485789966
 40
2.0921315276
 50
96.2171111709
 51
253.975685252
  0
ARC
  8
CYAN
 10
-580.9685407322
 20
462.9136923111
 40
96.3188560437
 50
253.974828546
 51
265.6589877036
  0
ARC
  8
CYAN
 10
-588.0332195318
 20
369.8469165393
 40
2.9843263184
 50
265.6581333713
 51
12.423514774
  0
ARC
  8
CYAN
 10
-571.9169378014
 20
447.9434499417
 40
89.3041234991
 50
247.0298087887
 51
260.2561314293
  0
ARC
  8
CYAN
 10
-607.6381394449
 20
363.6677955802
 40
2.2294231654
 50
67.0287980106
 51
199.6452396502
  0
ARC
  8
CYAN
 10
-603.8065370372
 20
365.0354790456
 40
6.2978055306
 50
199.6443939505
 51
238.7694950286
  0
ARC
  8
CYAN
 10
-554.751519708
 20
445.9375503358
 40
100.9103832579
 50
238.7694509255
 51
250.4801106667
  0
ARC
  8
CYAN
 10
-587.4571756398
 20
353.6812722506
 40
3.028409555
 50
250.4791958692
 51
359.1789774593
  0
LINE
  8
CYAN
 10
-584.429077
 20
353.637878
 11
-584.384705
 21
356.742065
  0
ARC
  8
CYAN
 10
-587.5702868858
 20
356.7876568626
 40
3.1859081232
 50
359.1800421193
 51
80.2568076742
  0
LINE
  8
CYAN
 10
-381.389954
 20
200.05162
 11
-381.389954
 21
392.051605
  0
LINE
  8
CYAN
 10
-381.389954
 20
392.051605
 11
-633.389954
 21
392.051605
  0
LINE
  8
CYAN
 10
-633.389954
 20
392.051605
 11
-633.389954
 21
200.05162
  0
ENDSEC
  0
EOF
