0
SECTION
2
HEADER
9
$INSUNITS
70
4
9
$ACADVER
1
AC1014
9
$HANDSEED
5
FFFF
0
ENDSEC
0
SECTION
2
TABLES
0
TABLE
2
VPORT
5
8
100
AcDbSymbolTable
0
ENDTAB
0
TABLE
2
LTYPE
5
5
100
AcDbSymbolTable
0
LTYPE
5
14
100
AcDbSymbolTableRecord
100
AcDbLinetypeTableRecord
2
BYBLOCK
70
0
0
LTYPE
5
15
100
AcDbSymbolTableRecord
100
AcDbLinetypeTableRecord
2
BYLAYER
70
0
0
LTYPE
5
16
100
AcDbSymbolTableRecord
100
AcDbLinetypeTableRecord
2
DASHED
70
0
3
Dashed __ __ __ __ __ __ __ __ __ __ __ __ __ _
72
65
73
2
40
0.75
49
0.5
74
0
49
-0.25
74
0
0
ENDTAB
0
TABLE
2
LAYER
5
2
100
AcDbSymbolTable
70
2
0
LAYER
5
50
100
AcDbSymbolTableRecord
100
AcDbLayerTableRecord
2
0
70
0
62
7
6
CONTINUOUS
0
ENDTAB
0
TABLE
2
STYLE
5
3
100
AcDbSymbolTable
70
1
0
STYLE
5
11
100
AcDbSymbolTableRecord
100
AcDbTextStyleTableRecord
2
STANDARD
70
0
0
ENDTAB
0
TABLE
2
VIEW
5
6
100
AcDbSymbolTable
70
0
0
ENDTAB
0
TABLE
2
UCS
5
7
100
AcDbSymbolTable
70
0
0
ENDTAB
0
TABLE
2
APPID
5
9
100
AcDbSymbolTable
70
2
0
APPID
5
12
100
AcDbSymbolTableRecord
100
AcDbRegAppTableRecord
2
ACAD
70
0
0
ENDTAB
0
TABLE
2
DIMSTYLE
5
A
100
AcDbSymbolTable
70
1
0
ENDTAB
0
TABLE
2
BLOCK_RECORD
5
1
100
AcDbSymbolTable
70
1
0
BLOCK_RECORD
5
1F
100
AcDbSymbolTableRecord
100
AcDbBlockTableRecord
2
*MODEL_SPACE
0
BLOCK_RECORD
5
1B
100
AcDbSymbolTableRecord
100
AcDbBlockTableRecord
2
*PAPER_SPACE
0
ENDTAB
0
ENDSEC
0
SECTION
2
BLOCKS
0
BLOCK
5
20
100
AcDbEntity
100
AcDbBlockBegin
2
*MODEL_SPACE
0
ENDBLK
5
21
100
AcDbEntity
100
AcDbBlockEnd
0
BLOCK
5
1C
100
AcDbEntity
100
AcDbBlockBegin
2
*PAPER_SPACE
0
ENDBLK
5
1D
100
AcDbEntity
100
AcDbBlockEnd
0
ENDSEC
0
SECTION
2
ENTITIES
0
LINE
5
100
100
AcDbEntity
8
0
100
AcDbLine
10
20.000000000000018
20
7.771561172376091e-15
30
0
11
120
21
0
31
0
0
LINE
5
101
100
AcDbEntity
8
0
100
AcDbLine
10
120
20
0
30
0
11
154
21
3.6977854932234928e-31
31
0
0
LINE
5
102
100
AcDbEntity
8
0
100
AcDbLine
10
154
20
3.6977854932234928e-31
30
0
11
254.00000000000011
21
-6.2450045135165055e-15
31
0
0
LINE
5
103
100
AcDbEntity
8
0
100
AcDbLine
10
120
20
-9.999999999999984
30
0
11
120
21
-48.5
31
0
0
LINE
5
104
100
AcDbEntity
8
0
100
AcDbLine
10
154
20
-9.999999999999984
30
0
11
154
21
-48.5
31
0
0
LINE
5
105
100
AcDbEntity
8
0
100
AcDbLine
10
118.61538461538461
20
-49.42307692307692
30
0
11
18.461538461538467
21
-7.6923076923076827
31
0
0
LINE
5
106
100
AcDbEntity
8
0
100
AcDbLine
10
155.38461538461542
20
-49.42307692307692
30
0
11
255.53846153846163
21
-7.6923076923076472
31
0
0
LINE
5
107
100
AcDbEntity
8
0
100
AcDbLine
10
120
20
-9.999999999999984
30
0
11
154
21
-9.999999999999984
31
0
0
LINE
5
108
100
AcDbEntity
8
0
100
AcDbLine
10
4.9999999999999991
20
-5.5511151231257827e-16
30
0
11
508.00000000000006
21
5.995809787970672e-14
31
0
0
ARC
5
109
100
AcDbEntity
8
0
100
AcDbCircle
10
119
20
-48.5
30
0
40
0.99999999999999645
210
0
220
0
230
1
100
AcDbArc
50
-112.61986494804059
51
0
0
ARC
5
110
100
AcDbEntity
8
0
100
AcDbCircle
10
155
20
-48.5
30
0
40
0.99999999999999645
210
0
220
0
230
1
100
AcDbArc
50
180
51
292.61986494804211
0
ARC
5
111
100
AcDbEntity
8
0
100
AcDbCircle
10
20.000000000000018
20
-3.9999999999999947
30
0
40
4.0000000000000027
210
0
220
-0
230
1
100
AcDbArc
50
90
51
247.38013505195943
0
ARC
5
112
100
AcDbEntity
8
0
100
AcDbCircle
10
254.00000000000011
20
-3.9999999999999734
30
0
40
3.9999999999999671
210
-0
220
0
230
1
100
AcDbArc
50
-67.380135051959712
51
90
0
ENDSEC
0
SECTION
2
OBJECTS
0
DICTIONARY
5
C
100
AcDbDictionary
3
ACAD_GROUP
350
D
3
ACAD_MLINESTYLE
350
17
0
DICTIONARY
5
D
100
AcDbDictionary
0
DICTIONARY
5
1A
330
C
100
AcDbDictionary
0
DICTIONARY
5
17
100
AcDbDictionary
0
ENDSEC
0
EOF
