ISO-10303-21;
HEADER;
/* Generated by software containing ST-Developer
 * from STEP Tools, Inc. (www.steptools.com) 
 */

FILE_DESCRIPTION(
/* description */ (''),
/* implementation_level */ '2;1');

FILE_NAME(
/* name */ 
'C:\\Users\\jjdbr\\OneDrive - Loyalist College\\Skills Ontario\\SOC202
3\\AM Part Design\\STP Files\\WASHER - 1_2_ .stp',
/* time_stamp */ '2023-04-23T11:42:12-04:00',
/* author */ ('jjdbr'),
/* organization */ (''),
/* preprocessor_version */ 'ST-DEVELOPER v19',
/* originating_system */ 'Autodesk Inventor 2023',
/* authorisation */ '');

FILE_SCHEMA (('AUTOMOTIVE_DESIGN { 1 0 10303 214 3 1 1 }'));
ENDSEC;

DATA;
#10=MECHANICAL_DESIGN_GEOMETRIC_PRESENTATION_REPRESENTATION('',(#13),#134);
#11=SHAPE_REPRESENTATION_RELATIONSHIP('SRR','None',#141,#12);
#12=ADVANCED_BREP_SHAPE_REPRESENTATION('',(#14),#133);
#13=STYLED_ITEM('',(#151),#14);
#14=MANIFOLD_SOLID_BREP('Solid1',#65);
#15=FACE_BOUND('',#26,.T.);
#16=FACE_BOUND('',#28,.T.);
#17=PLANE('',#94);
#18=PLANE('',#95);
#19=FACE_OUTER_BOUND('',#23,.T.);
#20=FACE_OUTER_BOUND('',#24,.T.);
#21=FACE_OUTER_BOUND('',#25,.T.);
#22=FACE_OUTER_BOUND('',#27,.T.);
#23=EDGE_LOOP('',(#47,#48,#49,#50));
#24=EDGE_LOOP('',(#51,#52,#53,#54));
#25=EDGE_LOOP('',(#55));
#26=EDGE_LOOP('',(#56));
#27=EDGE_LOOP('',(#57));
#28=EDGE_LOOP('',(#58));
#29=LINE('',#121,#31);
#30=LINE('',#127,#32);
#31=VECTOR('',#102,6.5405);
#32=VECTOR('',#109,11.1125);
#33=CIRCLE('',#89,6.5405);
#34=CIRCLE('',#90,6.5405);
#35=CIRCLE('',#92,11.1125);
#36=CIRCLE('',#93,11.1125);
#37=VERTEX_POINT('',#118);
#38=VERTEX_POINT('',#120);
#39=VERTEX_POINT('',#124);
#40=VERTEX_POINT('',#126);
#41=EDGE_CURVE('',#37,#37,#33,.T.);
#42=EDGE_CURVE('',#37,#38,#29,.T.);
#43=EDGE_CURVE('',#38,#38,#34,.T.);
#44=EDGE_CURVE('',#39,#39,#35,.T.);
#45=EDGE_CURVE('',#39,#40,#30,.T.);
#46=EDGE_CURVE('',#40,#40,#36,.T.);
#47=ORIENTED_EDGE('',*,*,#41,.T.);
#48=ORIENTED_EDGE('',*,*,#42,.T.);
#49=ORIENTED_EDGE('',*,*,#43,.F.);
#50=ORIENTED_EDGE('',*,*,#42,.F.);
#51=ORIENTED_EDGE('',*,*,#44,.T.);
#52=ORIENTED_EDGE('',*,*,#45,.T.);
#53=ORIENTED_EDGE('',*,*,#46,.F.);
#54=ORIENTED_EDGE('',*,*,#45,.F.);
#55=ORIENTED_EDGE('',*,*,#46,.T.);
#56=ORIENTED_EDGE('',*,*,#41,.F.);
#57=ORIENTED_EDGE('',*,*,#44,.F.);
#58=ORIENTED_EDGE('',*,*,#43,.T.);
#59=CYLINDRICAL_SURFACE('',#88,6.5405);
#60=CYLINDRICAL_SURFACE('',#91,11.1125);
#61=ADVANCED_FACE('',(#19),#59,.F.);
#62=ADVANCED_FACE('',(#20),#60,.T.);
#63=ADVANCED_FACE('',(#21,#15),#17,.T.);
#64=ADVANCED_FACE('',(#22,#16),#18,.F.);
#65=CLOSED_SHELL('',(#61,#62,#63,#64));
#66=DERIVED_UNIT_ELEMENT(#69,1.);
#67=DERIVED_UNIT_ELEMENT(#136,-3.);
#68=DIMENSIONAL_EXPONENTS(1.,0.,0.,0.,0.,0.,0.);
#69=(
CONVERSION_BASED_UNIT('gram',#71)
MASS_UNIT()
NAMED_UNIT(#68)
);
#70=(
MASS_UNIT()
NAMED_UNIT(*)
SI_UNIT(.KILO.,.GRAM.)
);
#71=MASS_MEASURE_WITH_UNIT(MASS_MEASURE(0.001),#70);
#72=DERIVED_UNIT((#66,#67));
#73=MEASURE_REPRESENTATION_ITEM('density measure',
POSITIVE_RATIO_MEASURE(7.85),#72);
#74=PROPERTY_DEFINITION_REPRESENTATION(#79,#76);
#75=PROPERTY_DEFINITION_REPRESENTATION(#80,#77);
#76=REPRESENTATION('material name',(#78),#133);
#77=REPRESENTATION('density',(#73),#133);
#78=DESCRIPTIVE_REPRESENTATION_ITEM('Steel','Steel');
#79=PROPERTY_DEFINITION('material property','material name',#143);
#80=PROPERTY_DEFINITION('material property','density of part',#143);
#81=DATE_TIME_ROLE('creation_date');
#82=APPLIED_DATE_AND_TIME_ASSIGNMENT(#83,#81,(#143));
#83=DATE_AND_TIME(#84,#85);
#84=CALENDAR_DATE(2023,23,4);
#85=LOCAL_TIME(0,0,0.,#86);
#86=COORDINATED_UNIVERSAL_TIME_OFFSET(0,0,.BEHIND.);
#87=AXIS2_PLACEMENT_3D('placement',#116,#96,#97);
#88=AXIS2_PLACEMENT_3D('',#117,#98,#99);
#89=AXIS2_PLACEMENT_3D('',#119,#100,#101);
#90=AXIS2_PLACEMENT_3D('',#122,#103,#104);
#91=AXIS2_PLACEMENT_3D('',#123,#105,#106);
#92=AXIS2_PLACEMENT_3D('',#125,#107,#108);
#93=AXIS2_PLACEMENT_3D('',#128,#110,#111);
#94=AXIS2_PLACEMENT_3D('',#129,#112,#113);
#95=AXIS2_PLACEMENT_3D('',#130,#114,#115);
#96=DIRECTION('axis',(0.,0.,1.));
#97=DIRECTION('refdir',(1.,0.,0.));
#98=DIRECTION('center_axis',(-1.,0.,0.));
#99=DIRECTION('ref_axis',(0.,0.,1.));
#100=DIRECTION('center_axis',(1.,0.,0.));
#101=DIRECTION('ref_axis',(0.,0.,-1.));
#102=DIRECTION('',(-1.,0.,0.));
#103=DIRECTION('center_axis',(1.,0.,0.));
#104=DIRECTION('ref_axis',(0.,0.,-1.));
#105=DIRECTION('center_axis',(-1.,0.,0.));
#106=DIRECTION('ref_axis',(0.,0.,1.));
#107=DIRECTION('center_axis',(1.,0.,0.));
#108=DIRECTION('ref_axis',(0.,0.,-1.));
#109=DIRECTION('',(1.,0.,0.));
#110=DIRECTION('center_axis',(1.,0.,0.));
#111=DIRECTION('ref_axis',(0.,0.,-1.));
#112=DIRECTION('center_axis',(1.,0.,0.));
#113=DIRECTION('ref_axis',(0.,0.,-1.));
#114=DIRECTION('center_axis',(1.,0.,0.));
#115=DIRECTION('ref_axis',(0.,0.,-1.));
#116=CARTESIAN_POINT('',(0.,0.,0.));
#117=CARTESIAN_POINT('Origin',(1.7526,0.,0.));
#118=CARTESIAN_POINT('',(1.7526,-8.00980238982326E-16,-6.5405));
#119=CARTESIAN_POINT('Origin',(1.7526,0.,0.));
#120=CARTESIAN_POINT('',(0.,-8.00980238982326E-16,-6.5405));
#121=CARTESIAN_POINT('',(1.7526,-8.00980238982326E-16,-6.5405));
#122=CARTESIAN_POINT('Origin',(0.,0.,0.));
#123=CARTESIAN_POINT('Origin',(1.7526,0.,0.));
#124=CARTESIAN_POINT('',(0.,-1.3608887555525E-15,-11.1125));
#125=CARTESIAN_POINT('Origin',(0.,0.,0.));
#126=CARTESIAN_POINT('',(1.7526,-1.3608887555525E-15,-11.1125));
#127=CARTESIAN_POINT('',(1.7526,-1.3608887555525E-15,-11.1125));
#128=CARTESIAN_POINT('Origin',(1.7526,0.,0.));
#129=CARTESIAN_POINT('Origin',(1.7526,0.,0.));
#130=CARTESIAN_POINT('Origin',(0.,0.,0.));
#131=UNCERTAINTY_MEASURE_WITH_UNIT(LENGTH_MEASURE(0.01),#135,
'DISTANCE_ACCURACY_VALUE',
'Maximum model space distance between geometric entities at asserted c
onnectivities');
#132=UNCERTAINTY_MEASURE_WITH_UNIT(LENGTH_MEASURE(0.01),#135,
'DISTANCE_ACCURACY_VALUE',
'Maximum model space distance between geometric entities at asserted c
onnectivities');
#133=(
GEOMETRIC_REPRESENTATION_CONTEXT(3)
GLOBAL_UNCERTAINTY_ASSIGNED_CONTEXT((#131))
GLOBAL_UNIT_ASSIGNED_CONTEXT((#135,#137,#138))
REPRESENTATION_CONTEXT('','3D')
);
#134=(
GEOMETRIC_REPRESENTATION_CONTEXT(3)
GLOBAL_UNCERTAINTY_ASSIGNED_CONTEXT((#132))
GLOBAL_UNIT_ASSIGNED_CONTEXT((#135,#137,#138))
REPRESENTATION_CONTEXT('','3D')
);
#135=(
LENGTH_UNIT()
NAMED_UNIT(*)
SI_UNIT(.MILLI.,.METRE.)
);
#136=(
LENGTH_UNIT()
NAMED_UNIT(*)
SI_UNIT(.CENTI.,.METRE.)
);
#137=(
NAMED_UNIT(*)
PLANE_ANGLE_UNIT()
SI_UNIT($,.RADIAN.)
);
#138=(
NAMED_UNIT(*)
SI_UNIT($,.STERADIAN.)
SOLID_ANGLE_UNIT()
);
#139=SHAPE_DEFINITION_REPRESENTATION(#140,#141);
#140=PRODUCT_DEFINITION_SHAPE('',$,#143);
#141=SHAPE_REPRESENTATION('',(#87),#133);
#142=PRODUCT_DEFINITION_CONTEXT('part definition',#147,'design');
#143=PRODUCT_DEFINITION('WASHER - 1/2" ','WASHER - 1_2_ ',#144,#142);
#144=PRODUCT_DEFINITION_FORMATION('',$,#149);
#145=PRODUCT_RELATED_PRODUCT_CATEGORY('WASHER - 1_2_ ','WASHER - 1_2_ ',
(#149));
#146=APPLICATION_PROTOCOL_DEFINITION('international standard',
'automotive_design',2009,#147);
#147=APPLICATION_CONTEXT(
'Core Data for Automotive Mechanical Design Process');
#148=PRODUCT_CONTEXT('part definition',#147,'mechanical');
#149=PRODUCT('WASHER - 1/2" ','WASHER - 1_2_ ',$,(#148));
#150=PRESENTATION_STYLE_ASSIGNMENT((#152));
#151=PRESENTATION_STYLE_ASSIGNMENT((#153));
#152=SURFACE_STYLE_USAGE(.BOTH.,#158);
#153=SURFACE_STYLE_USAGE(.BOTH.,#159);
#154=SURFACE_STYLE_RENDERING_WITH_PROPERTIES($,#166,(#156));
#155=SURFACE_STYLE_RENDERING_WITH_PROPERTIES($,#167,(#157));
#156=SURFACE_STYLE_TRANSPARENT(0.);
#157=SURFACE_STYLE_TRANSPARENT(0.);
#158=SURFACE_SIDE_STYLE('',(#160,#154));
#159=SURFACE_SIDE_STYLE('',(#161,#155));
#160=SURFACE_STYLE_FILL_AREA(#162);
#161=SURFACE_STYLE_FILL_AREA(#163);
#162=FILL_AREA_STYLE('',(#164));
#163=FILL_AREA_STYLE('',(#165));
#164=FILL_AREA_STYLE_COLOUR('',#166);
#165=FILL_AREA_STYLE_COLOUR('',#167);
#166=COLOUR_RGB('',0.749019607843137,0.749019607843137,0.749019607843137);
#167=COLOUR_RGB('',0.627450980392157,0.627450980392157,0.627450980392157);
ENDSEC;
END-ISO-10303-21;
