  0
SECTION
  2
HEADER
  9
$ACADVER
  1
AC1021
  9
$ACADMAINTVER
 70
    25
  9
$DWGCODEPAGE
  3
ANSI_1252
  9
$LASTSAVEDBY
  1
admin
  9
$INSBASE
 10
0.0
 20
0.0
 30
0.0
  9
$EXTMIN
 10
1.000000000000000E+20
 20
1.000000000000000E+20
 30
1.000000000000000E+20
  9
$EXTMAX
 10
-1.000000000000000E+20
 20
-1.000000000000000E+20
 30
-1.000000000000000E+20
  9
$LIMMIN
 10
0.0
 20
0.0
  9
$LIMMAX
 10
12.0
 20
9.0
  9
$ORTHOMODE
 70
     0
  9
$REGENMODE
 70
     1
  9
$FILLMODE
 70
     1
  9
$QTEXTMODE
 70
     0
  9
$MIRRTEXT
 70
     1
  9
$LTSCALE
 40
1.0
  9
$ATTMODE
 70
     1
  9
$TEXTSIZE
 40
0.2
  9
$TRACEWID
 40
0.05
  9
$TEXTSTYLE
  7
Standard
  9
$CLAYER
  8
0
  9
$CELTYPE
  6
ByLayer
  9
$CECOLOR
 62
   256
  9
$CELTSCALE
 40
1.0
  9
$DISPSILH
 70
     0
  9
$DIMSCALE
 40
1.0
  9
$DIMASZ
 40
0.18
  9
$DIMEXO
 40
0.0625
  9
$DIMDLI
 40
0.38
  9
$DIMRND
 40
0.0
  9
$DIMDLE
 40
0.0
  9
$DIMEXE
 40
0.18
  9
$DIMTP
 40
0.0
  9
$DIMTM
 40
0.0
  9
$DIMTXT
 40
0.18
  9
$DIMCEN
 40
0.09
  9
$DIMTSZ
 40
0.0
  9
$DIMTOL
 70
     0
  9
$DIMLIM
 70
     0
  9
$DIMTIH
 70
     1
  9
$DIMTOH
 70
     1
  9
$DIMSE1
 70
     0
  9
$DIMSE2
 70
     0
  9
$DIMTAD
 70
     0
  9
$DIMZIN
 70
     0
  9
$DIMBLK
  1

  9
$DIMASO
 70
     1
  9
$DIMSHO
 70
     1
  9
$DIMPOST
  1

  9
$DIMAPOST
  1

  9
$DIMALT
 70
     0
  9
$DIMALTD
 70
     2
  9
$DIMALTF
 40
25.4
  9
$DIMLFAC
 40
1.0
  9
$DIMTOFL
 70
     0
  9
$DIMTVP
 40
0.0
  9
$DIMTIX
 70
     0
  9
$DIMSOXD
 70
     0
  9
$DIMSAH
 70
     0
  9
$DIMBLK1
  1

  9
$DIMBLK2
  1

  9
$DIMSTYLE
  2
STANDARD_ACAD
  9
$DIMCLRD
 70
     0
  9
$DIMCLRE
 70
     0
  9
$DIMCLRT
 70
     0
  9
$DIMTFAC
 40
1.0
  9
$DIMGAP
 40
0.09
  9
$DIMJUST
 70
     0
  9
$DIMSD1
 70
     0
  9
$DIMSD2
 70
     0
  9
$DIMTOLJ
 70
     1
  9
$DIMTZIN
 70
     0
  9
$DIMALTZ
 70
     0
  9
$DIMALTTZ
 70
     0
  9
$DIMUPT
 70
     0
  9
$DIMDEC
 70
     4
  9
$DIMTDEC
 70
     4
  9
$DIMALTU
 70
     2
  9
$DIMALTTD
 70
     2
  9
$DIMTXSTY
  7
Standard
  9
$DIMAUNIT
 70
     0
  9
$DIMADEC
 70
     0
  9
$DIMALTRND
 40
0.0
  9
$DIMAZIN
 70
     0
  9
$DIMDSEP
 70
    46
  9
$DIMATFIT
 70
     3
  9
$DIMFRAC
 70
     0
  9
$DIMLDRBLK
  1

  9
$DIMLUNIT
 70
     2
  9
$DIMLWD
 70
    -2
  9
$DIMLWE
 70
    -2
  9
$DIMTMOVE
 70
     2
  9
$DIMFXL
 40
1.0
  9
$DIMFXLON
 70
     0
  9
$DIMJOGANG
 40
0.7853981633974483
  9
$DIMTFILL
 70
     0
  9
$DIMTFILLCLR
 70
     0
  9
$DIMARCSYM
 70
     0
  9
$DIMLTYPE
  6

  9
$DIMLTEX1
  6

  9
$DIMLTEX2
  6

  9
$LUNITS
 70
     2
  9
$LUPREC
 70
     2
  9
$SKETCHINC
 40
0.1
  9
$FILLETRAD
 40
0.0
  9
$AUNITS
 70
     0
  9
$AUPREC
 70
     0
  9
$MENU
  1
.
  9
$ELEVATION
 40
0.0
  9
$PELEVATION
 40
0.0
  9
$THICKNESS
 40
0.0
  9
$LIMCHECK
 70
     0
  9
$CHAMFERA
 40
0.0
  9
$CHAMFERB
 40
0.0
  9
$CHAMFERC
 40
0.0
  9
$CHAMFERD
 40
0.0
  9
$SKPOLY
 70
     0
  9
$TDCREATE
 40
2460970.581665799
  9
$TDUCREATE
 40
2460970.248332465
  9
$TDUPDATE
 40
2460970.581674039
  9
$TDUUPDATE
 40
2460970.248340706
  9
$TDINDWG
 40
0.0000000116
  9
$TDUSRTIMER
 40
0.0000000116
  9
$USRTIMER
 70
     1
  9
$ANGBASE
 50
0.0
  9
$ANGDIR
 70
     0
  9
$PDMODE
 70
     0
  9
$PDSIZE
 40
0.0
  9
$PLINEWID
 40
0.0
  9
$SPLFRAME
 70
     0
  9
$SPLINETYPE
 70
     6
  9
$SPLINESEGS
 70
     8
  9
$HANDSEED
  5
1AD
  9
$SURFTAB1
 70
     6
  9
$SURFTAB2
 70
     6
  9
$SURFTYPE
 70
     6
  9
$SURFU
 70
     6
  9
$SURFV
 70
     6
  9
$UCSBASE
  2

  9
$UCSNAME
  2

  9
$UCSORG
 10
0.0
 20
0.0
 30
0.0
  9
$UCSXDIR
 10
1.0
 20
0.0
 30
0.0
  9
$UCSYDIR
 10
0.0
 20
1.0
 30
0.0
  9
$UCSORTHOREF
  2

  9
$UCSORTHOVIEW
 70
     0
  9
$UCSORGTOP
 10
0.0
 20
0.0
 30
0.0
  9
$UCSORGBOTTOM
 10
0.0
 20
0.0
 30
0.0
  9
$UCSORGLEFT
 10
0.0
 20
0.0
 30
0.0
  9
$UCSORGRIGHT
 10
0.0
 20
0.0
 30
0.0
  9
$UCSORGFRONT
 10
0.0
 20
0.0
 30
0.0
  9
$UCSORGBACK
 10
0.0
 20
0.0
 30
0.0
  9
$PUCSBASE
  2

  9
$PUCSNAME
  2

  9
$PUCSORG
 10
0.0
 20
0.0
 30
0.0
  9
$PUCSXDIR
 10
1.0
 20
0.0
 30
0.0
  9
$PUCSYDIR
 10
0.0
 20
1.0
 30
0.0
  9
$PUCSORTHOREF
  2

  9
$PUCSORTHOVIEW
 70
     0
  9
$PUCSORGTOP
 10
0.0
 20
0.0
 30
0.0
  9
$PUCSORGBOTTOM
 10
0.0
 20
0.0
 30
0.0
  9
$PUCSORGLEFT
 10
0.0
 20
0.0
 30
0.0
  9
$PUCSORGRIGHT
 10
0.0
 20
0.0
 30
0.0
  9
$PUCSORGFRONT
 10
0.0
 20
0.0
 30
0.0
  9
$PUCSORGBACK
 10
0.0
 20
0.0
 30
0.0
  9
$USERI1
 70
     0
  9
$USERI2
 70
     0
  9
$USERI3
 70
     0
  9
$USERI4
 70
     0
  9
$USERI5
 70
     0
  9
$USERR1
 40
0.0
  9
$USERR2
 40
0.0
  9
$USERR3
 40
0.0
  9
$USERR4
 40
0.0
  9
$USERR5
 40
0.0
  9
$WORLDVIEW
 70
     1
  9
$SHADEDGE
 70
     3
  9
$SHADEDIF
 70
    70
  9
$TILEMODE
 70
     1
  9
$MAXACTVP
 70
    64
  9
$PINSBASE
 10
0.0
 20
0.0
 30
0.0
  9
$PLIMCHECK
 70
     0
  9
$PEXTMIN
 10
1.000000000000000E+20
 20
1.000000000000000E+20
 30
1.000000000000000E+20
  9
$PEXTMAX
 10
-1.000000000000000E+20
 20
-1.000000000000000E+20
 30
-1.000000000000000E+20
  9
$PLIMMIN
 10
0.0
 20
0.0
  9
$PLIMMAX
 10
12.0
 20
9.0
  9
$UNITMODE
 70
     0
  9
$VISRETAIN
 70
     1
  9
$PLINEGEN
 70
     0
  9
$PSLTSCALE
 70
     1
  9
$TREEDEPTH
 70
  3020
  9
$CMLSTYLE
  2
Standard
  9
$CMLJUST
 70
     0
  9
$CMLSCALE
 40
1.0
  9
$PROXYGRAPHICS
 70
     1
  9
$MEASUREMENT
 70
     1
  9
$CELWEIGHT
370
    -1
  9
$ENDCAPS
280
     0
  9
$JOINSTYLE
280
     0
  9
$LWDISPLAY
290
     0
  9
$INSUNITS
 70
     5
  9
$HYPERLINKBASE
  1

  9
$STYLESHEET
  1

  9
$XEDIT
290
     1
  9
$CEPSNTYPE
380
     0
  9
$PSTYLEMODE
290
     1
  9
$FINGERPRINTGUID
  2
{7469d8bf-c957-4a0c-94b1-ad73c6e26e19}
  9
$VERSIONGUID
  2
{FAEB1C32-E019-11D5-929B-00C0DF256EC4}
  9
$EXTNAMES
290
     1
  9
$PSVPSCALE
 40
0.0
  9
$OLESTARTUP
290
     0
  9
$SORTENTS
280
   127
  9
$INDEXCTL
280
     0
  9
$HIDETEXT
280
     1
  9
$XCLIPFRAME
290
     0
  9
$HALOGAP
280
     0
  9
$OBSCOLOR
 70
   257
  9
$OBSLTYPE
280
     0
  9
$INTERSECTIONDISPLAY
280
     0
  9
$INTERSECTIONCOLOR
 70
   257
  9
$DIMASSOC
280
     2
  9
$PROJECTNAME
  1

  9
$CAMERADISPLAY
290
     0
  9
$LENSLENGTH
 40
50.0
  9
$CAMERAHEIGHT
 40
0.0
  9
$STEPSPERSEC
 40
2.0
  9
$STEPSIZE
 40
6.0
  9
$3DDWFPREC
 40
2.0
  9
$PSOLWIDTH
 40
0.25
  9
$PSOLHEIGHT
 40
4.0
  9
$LOFTANG1
 40
1.570796326794897
  9
$LOFTANG2
 40
1.570796326794897
  9
$LOFTMAG1
 40
0.0
  9
$LOFTMAG2
 40
0.0
  9
$LOFTPARAM
 70
     7
  9
$LOFTNORMALS
280
     1
  9
$LATITUDE
 40
37.795
  9
$LONGITUDE
 40
-122.394
  9
$NORTHDIRECTION
 40
0.0
  9
$TIMEZONE
 70
 -8000
  9
$LIGHTGLYPHDISPLAY
280
     1
  9
$TILEMODELIGHTSYNCH
280
     1
  9
$CMATERIAL
347
44
  9
$SOLIDHIST
280
     0
  9
$SHOWHIST
280
     1
  9
$DWFFRAME
280
     2
  9
$DGNFRAME
280
     2
  9
$REALWORLDSCALE
290
     1
  9
$INTERFERECOLOR
 62
   256
  9
$CSHADOW
280
     0
  9
$SHADOWPLANELOCATION
 40
0.0
  0
ENDSEC
  0
SECTION
  2
CLASSES
  0
CLASS
  1
ACDBDICTIONARYWDFLT
  2
AcDbDictionaryWithDefault
  3
ObjectDBX Classes
 90
        0
 91
        3
280
     0
281
     0
  0
CLASS
  1
VISUALSTYLE
  2
AcDbVisualStyle
  3
ObjectDBX Classes
 90
     4095
 91
        3
280
     0
281
     0
  0
CLASS
  1
MATERIAL
  2
AcDbMaterial
  3
ObjectDBX Classes
 90
     1153
 91
        3
280
     0
281
     0
  0
CLASS
  1
SCALE
  2
AcDbScale
  3
ObjectDBX Classes
 90
     1153
 91
        3
280
     0
281
     0
  0
CLASS
  1
TABLESTYLE
  2
AcDbTableStyle
  3
ObjectDBX Classes
 90
     4095
 91
        3
280
     0
281
     0
  0
CLASS
  1
MLEADERSTYLE
  2
AcDbMLeaderStyle
  3
ACDB_MLEADERSTYLE_CLASS
 90
     4095
 91
        3
280
     0
281
     0
  0
CLASS
  1
SUN
  2
AcDbSun
  3
SCENEOE
 90
     1153
 91
        3
280
     0
281
     0
  0
CLASS
  1
DICTIONARYVAR
  2
AcDbDictionaryVar
  3
ObjectDBX Classes
 90
        0
 91
        3
280
     0
281
     0
  0
CLASS
  1
CELLSTYLEMAP
  2
AcDbCellStyleMap
  3
ObjectDBX Classes
 90
     1152
 91
        3
280
     0
281
     0
  0
ENDSEC
  0
SECTION
  2
TABLES
  0
TABLE
  2
VPORT
  5
8
330
0
100
AcDbSymbolTable
 70
     1
  0
VPORT
  5
29
330
8
100
AcDbSymbolTableRecord
100
AcDbViewportTableRecord
  2
*Active
 70
     0
 10
0.0
 20
0.0
 11
1.0
 21
1.0
 12
10.42990654205607
 22
4.5
 13
0.0
 23
0.0
 14
0.5
 24
0.5
 15
0.5
 25
0.5
 16
0.0
 26
0.0
 36
1.0
 17
0.0
 27
0.0
 37
0.0
 40
9.0
 41
1.972972972850329
 42
50.0
 43
0.0
 44
0.0
 50
0.0
 51
0.0
 71
     0
 72
   100
 73
     1
 74
     3
 75
     0
 76
     0
 77
     0
 78
     0
281
     0
 65
     1
110
0.0
120
0.0
130
0.0
111
1.0
121
0.0
131
0.0
112
0.0
122
1.0
132
0.0
 79
     0
146
0.0
348
2F
 60
     3
 61
     5
292
     1
282
     1
141
0.0
142
0.0
 63
   250
361
5D
  0
ENDTAB
  0
TABLE
  2
LTYPE
  5
5
330
0
100
AcDbSymbolTable
 70
     1
  0
LTYPE
  5
14
330
5
100
AcDbSymbolTableRecord
100
AcDbLinetypeTableRecord
  2
ByBlock
 70
     0
  3

 72
    65
 73
     0
 40
0.0
  0
LTYPE
  5
15
330
5
100
AcDbSymbolTableRecord
100
AcDbLinetypeTableRecord
  2
ByLayer
 70
     0
  3

 72
    65
 73
     0
 40
0.0
  0
LTYPE
  5
16
330
5
100
AcDbSymbolTableRecord
100
AcDbLinetypeTableRecord
  2
Continuous
 70
     0
  3
Solid line
 72
    65
 73
     0
 40
0.0
  0
ENDTAB
  0
TABLE
  2
LAYER
  5
2
330
0
100
AcDbSymbolTable
 70
     3
  0
LAYER
  5
10
330
2
100
AcDbSymbolTableRecord
100
AcDbLayerTableRecord
  2
0
 70
     0
 62
     7
  6
Continuous
370
    -3
390
F
347
46
  0
LAYER
  5
5F
330
2
100
AcDbSymbolTableRecord
100
AcDbLayerTableRecord
  2
图层 03
 70
     0
 62
     4
420
    65529
  6
Continuous
370
    -3
390
F
347
46
  0
LAYER
  5
169
330
2
100
AcDbSymbolTableRecord
100
AcDbLayerTableRecord
  2
图层01
 70
     0
 62
    12
420
 13107200
  6
Continuous
370
    -3
390
F
347
46
  0
ENDTAB
  0
TABLE
  2
STYLE
  5
3
330
0
100
AcDbSymbolTable
 70
     1
  0
STYLE
  5
11
330
3
100
AcDbSymbolTableRecord
100
AcDbTextStyleTableRecord
  2
Standard
 70
     0
 40
0.0
 41
1.0
 50
0.0
 71
     0
 42
0.2
  3
txt
  4

  0
ENDTAB
  0
TABLE
  2
VIEW
  5
6
330
0
100
AcDbSymbolTable
 70
     0
  0
ENDTAB
  0
TABLE
  2
UCS
  5
7
330
0
100
AcDbSymbolTable
 70
     0
  0
ENDTAB
  0
TABLE
  2
APPID
  5
9
330
0
100
AcDbSymbolTable
 70
     3
  0
APPID
  5
12
330
9
100
AcDbSymbolTableRecord
100
AcDbRegAppTableRecord
  2
ACAD
 70
     0
  0
APPID
  5
5E
330
9
100
AcDbSymbolTableRecord
100
AcDbRegAppTableRecord
  2
Rhino
 70
     0
  0
APPID
  5
1A5
330
9
100
AcDbSymbolTableRecord
100
AcDbRegAppTableRecord
  2
ACAD_MLEADERVER
 70
     0
  0
ENDTAB
  0
TABLE
  2
DIMSTYLE
  5
A
330
0
100
AcDbSymbolTable
 70
     1
100
AcDbDimStyleTable
  0
DIMSTYLE
105
27
330
A
100
AcDbSymbolTableRecord
100
AcDbDimStyleTableRecord
  2
STANDARD_ACAD
 70
     0
178
     0
340
11
  0
ENDTAB
  0
TABLE
  2
BLOCK_RECORD
  5
1
330
0
100
AcDbSymbolTable
 70
     1
  0
BLOCK_RECORD
  5
1F
330
1
100
AcDbSymbolTableRecord
100
AcDbBlockTableRecord
  2
*Model_Space
340
22
 70
     0
280
     1
281
     0
  0
BLOCK_RECORD
  5
1B
330
1
100
AcDbSymbolTableRecord
100
AcDbBlockTableRecord
  2
*Paper_Space
340
1E
 70
     0
280
     1
281
     0
  0
BLOCK_RECORD
  5
23
330
1
100
AcDbSymbolTableRecord
100
AcDbBlockTableRecord
  2
*Paper_Space0
340
26
 70
     0
280
     1
281
     0
  0
ENDTAB
  0
ENDSEC
  0
SECTION
  2
BLOCKS
  0
BLOCK
  5
20
330
1F
100
AcDbEntity
  8
0
100
AcDbBlockBegin
  2
*Model_Space
 70
     0
 10
0.0
 20
0.0
 30
0.0
  3
*Model_Space
  1

  0
ENDBLK
  5
21
330
1F
100
AcDbEntity
  8
0
100
AcDbBlockEnd
  0
BLOCK
  5
1C
330
1B
100
AcDbEntity
 67
     1
  8
0
100
AcDbBlockBegin
  2
*Paper_Space
 70
     0
 10
0.0
 20
0.0
 30
0.0
  3
*Paper_Space
  1

  0
ENDBLK
  5
1D
330
1B
100
AcDbEntity
 67
     1
  8
0
100
AcDbBlockEnd
  0
BLOCK
  5
24
330
23
100
AcDbEntity
  8
0
100
AcDbBlockBegin
  2
*Paper_Space0
 70
     0
 10
0.0
 20
0.0
 30
0.0
  3
*Paper_Space0
  1

  0
ENDBLK
  5
25
330
23
100
AcDbEntity
  8
0
100
AcDbBlockEnd
  0
ENDSEC
  0
SECTION
  2
ENTITIES
  0
SPLINE
  5
60
330
1F
100
AcDbEntity
  8
图层 03
100
AcDbSpline
210
0.0
220
0.0
230
1.0
 70
    11
 71
     3
 72
    29
 73
    25
 74
     0
 42
0.0000000001
 43
0.0000000001
 40
-15.70796326794897
 40
-15.70796326794897
 40
-15.70796326794897
 40
-15.70796326794897
 40
-14.72621556370216
 40
-13.74446785945534
 40
-12.76272015520853
 40
-12.27184630308513
 40
-11.78097245096172
 40
-11.29009859883832
 40
-10.79922474671491
 40
-9.817477042468102
 40
-8.835729338221292
 40
-8.344855486097888
 40
-7.853981633974483
 40
-7.363107781851078
 40
-6.872233929727672
 40
-5.890486225480862
 40
-4.908738521234051
 40
-4.417864669110646
 40
-3.926990816987241
 40
-3.436116964863836
 40
-2.945243112740431
 40
-1.963495408493621
 40
-0.9817477042468103
 40
0.0
 40
0.0
 40
0.0
 40
0.0
 10
4697.784423830311
 20
-430.3543468750736
 30
-0.0000000000004832
 10
4697.784423830305
 20
-430.7071244460133
 30
-0.0000000000004832
 10
4697.656190008831
 20
-431.4720974615916
 30
-0.0000000000004832
 10
4696.968782927627
 20
-432.538758237966
 30
-0.0000000000004832
 10
4696.080749924507
 20
-433.1121871216139
 30
-0.0000000000004832
 10
4695.326328194189
 20
-433.3226437047063
 30
-0.0000000000004832
 10
4694.784420656599
 20
-433.3702017957264
 30
-0.0000000000004832
 10
4694.242532161281
 20
-433.3226303628262
 30
-0.0000000000004832
 10
4693.488034261872
 20
-433.1122627255982
 30
-0.0000000000004832
 10
4692.600325173698
 20
-432.5384457353834
 30
-0.0000000000004832
 10
4692.026507650788
 20
-431.6507361614176
 30
-0.0000000000004832
 10
4691.816141297816
 20
-430.8962393406409
 30
-0.0000000000004832
 10
4691.768565096558
 20
-430.3543468750738
 30
-0.0000000000004832
 10
4691.816141297816
 20
-429.8124544095062
 30
-0.0000000000004832
 10
4692.026507650788
 20
-429.0579575887293
 30
-0.0000000000004832
 10
4692.600325173698
 20
-428.170248014764
 30
-0.0000000000004832
 10
4693.488034261873
 20
-427.5964310245481
 30
-0.0000000000004832
 10
4694.242532161281
 20
-427.3860633873205
 30
-0.0000000000004832
 10
4694.784420656599
 20
-427.3384919544199
 30
-0.0000000000004832
 10
4695.326328194189
 20
-427.3860500454405
 30
-0.0000000000004832
 10
4696.080749924507
 20
-427.5965066285328
 30
-0.0000000000004832
 10
4696.968782927626
 20
-428.1699355121805
 30
-0.0000000000004832
 10
4697.65619000883
 20
-429.236596288556
 30
-0.0000000000004832
 10
4697.784423830306
 20
-430.0015693041344
 30
-0.0000000000004832
 10
4697.784423830311
 20
-430.3543468750736
 30
-0.0000000000004832
  0
SPLINE
  5
61
330
1F
100
AcDbEntity
  8
图层 03
100
AcDbSpline
210
0.0
220
0.0
230
1.0
 70
    11
 71
     3
 72
    29
 73
    25
 74
     0
 42
0.0000000001
 43
0.0000000001
 40
-15.70796326794897
 40
-15.70796326794897
 40
-15.70796326794897
 40
-15.70796326794897
 40
-14.72621556370216
 40
-13.74446785945534
 40
-12.76272015520853
 40
-12.27184630308513
 40
-11.78097245096172
 40
-11.29009859883832
 40
-10.79922474671491
 40
-9.817477042468102
 40
-8.835729338221292
 40
-8.344855486097888
 40
-7.853981633974483
 40
-7.363107781851078
 40
-6.872233929727672
 40
-5.890486225480862
 40
-4.908738521234051
 40
-4.417864669110646
 40
-3.926990816987241
 40
-3.436116964863836
 40
-2.945243112740431
 40
-1.963495408493621
 40
-0.9817477042468103
 40
0.0
 40
0.0
 40
0.0
 40
0.0
 10
4620.341580124925
 20
-438.5971362191422
 30
-0.0000000000004832
 10
4620.34158012492
 20
-438.9499137900816
 30
-0.0000000000004832
 10
4620.213346303444
 20
-439.7148868056597
 30
-0.0000000000004832
 10
4619.525939222242
 20
-440.7815475820348
 30
-0.0000000000004832
 10
4618.637906219121
 20
-441.354976465683
 30
-0.0000000000004832
 10
4617.883484488803
 20
-441.5654330487753
 30
-0.0000000000004832
 10
4617.341576951212
 20
-441.6129911397957
 30
-0.0000000000004832
 10
4616.799688455894
 20
-441.565419706895
 30
-0.0000000000004832
 10
4616.045190556486
 20
-441.3550520696676
 30
-0.0000000000004832
 10
4615.157481468312
 20
-440.7812350794516
 30
-0.0000000000004832
 10
4614.583663945401
 20
-439.8935255054867
 30
-0.0000000000004832
 10
4614.37329759243
 20
-439.139028684709
 30
-0.0000000000004832
 10
4614.325721391172
 20
-438.5971362191428
 30
-0.0000000000004832
 10
4614.373297592429
 20
-438.0552437535746
 30
-0.0000000000004832
 10
4614.583663945401
 20
-437.3007469327972
 30
-0.0000000000004832
 10
4615.157481468313
 20
-436.4130373588323
 30
-0.0000000000004832
 10
4616.045190556486
 20
-435.839220368616
 30
-0.0000000000004832
 10
4616.799688455894
 20
-435.6288527313886
 30
-0.0000000000004832
 10
4617.341576951212
 20
-435.5812812984884
 30
-0.0000000000004832
 10
4617.883484488803
 20
-435.6288393895088
 30
-0.0000000000004832
 10
4618.637906219121
 20
-435.8392959726011
 30
-0.0000000000004832
 10
4619.525939222242
 20
-436.4127248562488
 30
-0.0000000000004832
 10
4620.213346303445
 20
-437.4793856326253
 30
-0.0000000000004832
 10
4620.341580124919
 20
-438.2443586482018
 30
-0.0000000000004832
 10
4620.341580124925
 20
-438.5971362191422
 30
-0.0000000000004832
  0
SPLINE
  5
62
330
1F
100
AcDbEntity
  8
图层 03
100
AcDbSpline
210
0.0
220
0.0
230
1.0
 70
     8
 71
     3
 72
     8
 73
     4
 74
     0
 42
0.0000000001
 43
0.0000000001
 40
622.9699170939251
 40
622.9699170939251
 40
622.9699170939251
 40
622.9699170939251
 40
650.8705867216072
 40
650.8705867216072
 40
650.8705867216072
 40
650.8705867216072
 10
4680.438998263395
 20
-429.7508756791131
 30
-0.0000000000004832
 10
4680.466973512522
 20
-431.9156025318764
 30
-0.0000000000004832
 10
4680.493732645398
 20
-434.0802756859762
 30
-0.0000000000004832
 10
4680.519291915591
 20
-436.2448915651657
 30
-0.0000000000004832
  0
SPLINE
  5
63
330
1F
100
AcDbEntity
  8
图层 03
100
AcDbSpline
210
0.0
220
0.0
230
1.0
 70
     8
 71
     3
 72
     8
 73
     4
 74
     0
 42
0.0000000001
 43
0.0000000001
 40
650.8705867216072
 40
650.8705867216072
 40
650.8705867216072
 40
650.8705867216072
 40
674.4849096415824
 40
674.4849096415824
 40
674.4849096415824
 40
674.4849096415824
 10
4680.519291915591
 20
-436.2448915651657
 30
-0.0000000000004832
 10
4680.770552494086
 20
-438.0721719151252
 30
-0.0000000000004832
 10
4681.022923319144
 20
-439.8993550090222
 30
-0.0000000000004832
 10
4681.276413904967
 20
-441.7264355311784
 30
-0.0000000000004832
  0
SPLINE
  5
64
330
1F
100
AcDbEntity
  8
图层 03
100
AcDbSpline
210
0.0
220
0.0
230
1.0
 70
     8
 71
     3
 72
     8
 73
     4
 74
     0
 42
0.0000000001
 43
0.0000000001
 40
674.4849096415824
 40
674.4849096415824
 40
674.4849096415824
 40
674.4849096415824
 40
695.3066095766196
 40
695.3066095766196
 40
695.3066095766196
 40
695.3066095766196
 10
4681.276413904967
 20
-441.7264355311784
 30
-0.0000000000004832
 10
4681.953358588159
 20
-443.2217953324136
 30
-0.0000000000004832
 10
4682.632397625789
 20
-444.7162482335893
 30
-0.0000000000004832
 10
4683.313616571762
 20
-446.2097322068066
 30
-0.0000000000004832
  0
SPLINE
  5
65
330
1F
100
AcDbEntity
  8
图层 03
100
AcDbSpline
210
0.0
220
0.0
230
1.0
 70
     8
 71
     3
 72
     8
 73
     4
 74
     0
 42
0.0000000001
 43
0.0000000001
 40
695.3066095766196
 40
695.3066095766196
 40
695.3066095766196
 40
695.3066095766196
 40
718.1170611227897
 40
718.1170611227897
 40
718.1170611227897
 40
718.1170611227897
 10
4683.313616571762
 20
-446.2097322068066
 30
-0.0000000000004832
 10
4684.611303348006
 20
-447.4416199585939
 30
-0.0000000000004832
 10
4685.901047773776
 20
-448.6828320724346
 30
-0.0000000000004832
 10
4687.180191641739
 20
-449.9353048766652
 30
-0.0000000000004832
  0
SPLINE
  5
66
330
1F
100
AcDbEntity
  8
图层 03
100
AcDbSpline
210
0.0
220
0.0
230
1.0
 70
     8
 71
     3
 72
     8
 73
     4
 74
     0
 42
0.0000000001
 43
0.0000000001
 40
718.1170611227897
 40
718.1170611227897
 40
718.1170611227897
 40
718.1170611227897
 40
729.9869210669369
 40
729.9869210669369
 40
729.9869210669369
 40
729.9869210669369
 10
4687.180191641739
 20
-449.9353048766652
 30
-0.0000000000004832
 10
4687.960976084909
 20
-450.3940524810605
 30
-0.0000000000004832
 10
4688.777638272445
 20
-450.8822212998075
 30
-0.0000000000004832
 10
4689.548731047748
 20
-451.3594199773102
 30
-0.0000000000004832
  0
SPLINE
  5
67
330
1F
100
AcDbEntity
  8
图层 03
100
AcDbSpline
210
0.0
220
0.0
230
1.0
 70
     8
 71
     3
 72
     8
 73
     4
 74
     0
 42
0.0000000001
 43
0.0000000001
 40
729.9869210669369
 40
729.9869210669369
 40
729.9869210669369
 40
729.9869210669369
 40
749.3980957465607
 40
749.3980957465607
 40
749.3980957465607
 40
749.3980957465607
 10
4689.548731047748
 20
-451.3594199773102
 30
-0.0000000000004832
 10
4690.90621276201
 20
-451.9902254950644
 30
-0.0000000000004832
 10
4692.26161364186
 20
-452.6264526962213
 30
-0.0000000000004832
 10
4693.615203983931
 20
-453.2670889838575
 30
-0.0000000000004832
  0
SPLINE
  5
68
330
1F
100
AcDbEntity
  8
图层 03
100
AcDbSpline
210
0.0
220
0.0
230
1.0
 70
     8
 71
     3
 72
     8
 73
     4
 74
     0
 42
0.0000000001
 43
0.0000000001
 40
749.3980957465607
 40
749.3980957465607
 40
749.3980957465607
 40
749.3980957465607
 40
764.4256844454615
 40
764.4256844454615
 40
764.4256844454615
 40
764.4256844454615
 10
4693.615203983931
 20
-453.2670889838575
 30
-0.0000000000004832
 10
4694.697322226006
 20
-453.6639962374318
 30
-0.0000000000004832
 10
4695.777063396083
 20
-454.0691884254823
 30
-0.0000000000004832
 10
4696.855436285092
 20
-454.4784573066881
 30
-0.0000000000004832
  0
SPLINE
  5
69
330
1F
100
AcDbEntity
  8
图层 03
100
AcDbSpline
210
0.0
220
0.0
230
1.0
 70
     8
 71
     3
 72
     8
 73
     4
 74
     0
 42
0.0000000001
 43
0.0000000001
 40
764.4256844454615
 40
764.4256844454615
 40
764.4256844454615
 40
764.4256844454615
 40
803.528107838333
 40
803.528107838333
 40
803.528107838333
 40
803.528107838333
 10
4696.855436285092
 20
-454.4784573066881
 30
-0.0000000000004832
 10
4699.741098222341
 20
-455.220415588532
 30
-0.0000000000004832
 10
4702.62373850114
 20
-455.9790558246541
 30
-0.0000000000004832
 10
4705.503712702731
 20
-456.7501255364614
 30
-0.0000000000004832
  0
SPLINE
  5
6A
330
1F
100
AcDbEntity
  8
图层 03
100
AcDbSpline
210
0.0
220
0.0
230
1.0
 70
     8
 71
     3
 72
     8
 73
     4
 74
     0
 42
0.0000000001
 43
0.0000000001
 40
803.528107838333
 40
803.528107838333
 40
803.528107838333
 40
803.528107838333
 40
838.4590141637389
 40
838.4590141637389
 40
838.4590141637389
 40
838.4590141637389
 10
4705.503712702731
 20
-456.7501255364614
 30
-0.0000000000004832
 10
4708.128148553735
 20
-456.9581695762931
 30
-0.0000000000004832
 10
4710.753052705923
 20
-457.1511605157552
 30
-0.0000000000004832
 10
4713.37786122017
 20
-457.3242902342527
 30
-0.0000000000004832
  0
SPLINE
  5
6B
330
1F
100
AcDbEntity
  8
图层 03
100
AcDbSpline
210
0.0
220
0.0
230
1.0
 70
     8
 71
     3
 72
     8
 73
     4
 74
     0
 42
0.0000000001
 43
0.0000000001
 40
838.4590141637389
 40
838.4590141637389
 40
838.4590141637389
 40
838.4590141637389
 40
849.7030745032528
 40
849.7030745032528
 40
849.7030745032528
 40
849.7030745032528
 10
4713.37786122017
 20
-457.3242902342527
 30
-0.0000000000004832
 10
4714.189325007915
 20
-457.1290228477146
 30
-0.0000000000004832
 10
4715.001509575461
 20
-456.936264098365
 30
-0.0000000000004832
 10
4715.81495014776
 20
-456.7482914395173
 30
-0.0000000000004832
  0
SPLINE
  5
6C
330
1F
100
AcDbEntity
  8
图层 03
100
AcDbSpline
210
0.0
220
0.0
230
1.0
 70
     8
 71
     3
 72
     8
 73
     4
 74
     0
 42
0.0000000001
 43
0.0000000001
 40
849.7030745032528
 40
849.7030745032528
 40
849.7030745032528
 40
849.7030745032528
 40
863.5030771930001
 40
863.5030771930001
 40
863.5030771930001
 40
863.5030771930001
 10
4715.81495014776
 20
-456.7482914395173
 30
-0.0000000000004832
 10
4716.708619641088
 20
-456.2349012986558
 30
-0.0000000000004832
 10
4717.532695531698
 20
-455.6742120687286
 30
-0.0000000000004832
 10
4718.336206442249
 20
-455.026153243643
 30
-0.0000000000004832
  0
SPLINE
  5
6D
330
1F
100
AcDbEntity
  8
图层 03
100
AcDbSpline
210
0.0
220
0.0
230
1.0
 70
     8
 71
     3
 72
     8
 73
     4
 74
     0
 42
0.0000000001
 43
0.0000000001
 40
863.5030771930001
 40
863.5030771930001
 40
863.5030771930001
 40
863.5030771930001
 40
872.9021656158833
 40
872.9021656158833
 40
872.9021656158833
 40
872.9021656158833
 10
4718.336206442249
 20
-455.026153243643
 30
-0.0000000000004832
 10
4718.652643020861
 20
-454.4078342009889
 30
-0.0000000000004832
 10
4718.994978414536
 20
-453.7609527045881
 30
-0.0000000000004832
 10
4719.323481608038
 20
-453.1499001343677
 30
-0.0000000000004832
  0
SPLINE
  5
6E
330
1F
100
AcDbEntity
  8
图层 03
100
AcDbSpline
210
0.0
220
0.0
230
1.0
 70
     8
 71
     3
 72
     8
 73
     4
 74
     0
 42
0.0000000001
 43
0.0000000001
 40
872.9021656158833
 40
872.9021656158833
 40
872.9021656158833
 40
872.9021656158833
 40
900.954057244076
 40
900.954057244076
 40
900.954057244076
 40
900.954057244076
 10
4719.323481608038
 20
-453.1499001343677
 30
-0.0000000000004832
 10
4719.307533304724
 20
-450.9741087358659
 30
-0.0000000000004832
 10
4719.269272837204
 20
-448.7969226638945
 30
-0.0000000000004832
 10
4719.217220384707
 20
-446.6197344977254
 30
-0.0000000000004832
  0
SPLINE
  5
6F
330
1F
100
AcDbEntity
  8
图层 03
100
AcDbSpline
210
0.0
220
0.0
230
1.0
 70
     8
 71
     3
 72
     8
 73
     4
 74
     0
 42
0.0000000001
 43
0.0000000001
 40
900.954057244076
 40
900.954057244076
 40
900.954057244076
 40
900.954057244076
 40
938.0558846218274
 40
938.0558846218274
 40
938.0558846218274
 40
938.0558846218274
 10
4719.217220384707
 20
-446.6197344977254
 30
-0.0000000000004832
 10
4718.389758991496
 20
-443.8239394360462
 30
-0.0000000000004832
 10
4717.557176326623
 20
-441.0294694873053
 30
-0.0000000000004832
 10
4716.720226140198
 20
-438.2361848223006
 30
-0.0000000000004832
  0
SPLINE
  5
70
330
1F
100
AcDbEntity
  8
图层 03
100
AcDbSpline
210
0.0
220
0.0
230
1.0
 70
     8
 71
     3
 72
     8
 73
     4
 74
     0
 42
0.0000000001
 43
0.0000000001
 40
938.0558846218274
 40
938.0558846218274
 40
938.0558846218274
 40
938.0558846218274
 40
976.68306699446
 40
976.68306699446
 40
976.68306699446
 40
976.68306699446
 10
4716.720226140198
 20
-438.2361848223006
 30
-0.0000000000004832
 10
4715.542722586894
 20
-435.4293791011198
 30
-0.0000000000004832
 10
4714.364623436687
 20
-432.6228107726997
 30
-0.0000000000004832
 10
4713.185948244211
 20
-429.8164729931418
 30
-0.0000000000004832
  0
SPLINE
  5
71
330
1F
100
AcDbEntity
  8
图层 03
100
AcDbSpline
210
0.0
220
0.0
230
1.0
 70
     8
 71
     3
 72
     8
 73
     4
 74
     0
 42
0.0000000001
 43
0.0000000001
 40
976.68306699446
 40
976.68306699446
 40
976.68306699446
 40
976.68306699446
 40
1009.428148231966
 40
1009.428148231966
 40
1009.428148231966
 40
1009.428148231966
 10
4713.185948244211
 20
-429.8164729931418
 30
-0.0000000000004832
 10
4712.089176310197
 20
-427.479140686014
 30
-0.0000000000004832
 10
4710.993468487675
 20
-425.1413232965688
 30
-0.0000000000004832
 10
4709.898841820952
 20
-422.803017104834
 30
-0.0000000000004832
  0
SPLINE
  5
72
330
1F
100
AcDbEntity
  8
图层 03
100
AcDbSpline
210
0.0
220
0.0
230
1.0
 70
     8
 71
     3
 72
     8
 73
     4
 74
     0
 42
0.0000000001
 43
0.0000000001
 40
1009.428148231966
 40
1009.428148231966
 40
1009.428148231966
 40
1009.428148231966
 40
1035.612928736088
 40
1035.612928736088
 40
1035.612928736088
 40
1035.612928736088
 10
4709.898841820952
 20
-422.803017104834
 30
-0.0000000000004832
 10
4708.846160840672
 20
-421.0257703368252
 30
-0.0000000000004832
 10
4707.800551496888
 20
-419.2442389965036
 30
-0.0000000000004832
 10
4706.763035247879
 20
-417.4581134835562
 30
-0.0000000000004832
  0
SPLINE
  5
73
330
1F
100
AcDbEntity
  8
图层 03
100
AcDbSpline
210
0.0
220
0.0
230
1.0
 70
     8
 71
     3
 72
     8
 73
     4
 74
     0
 42
0.0000000001
 43
0.0000000001
 40
1035.612928736088
 40
1035.612928736088
 40
1035.612928736088
 40
1035.612928736088
 40
1056.511437951297
 40
1056.511437951297
 40
1056.511437951297
 40
1056.511437951297
 10
4706.763035247879
 20
-417.4581134835562
 30
-0.0000000000004832
 10
4705.670179024108
 20
-416.2394333017337
 30
-0.0000000000004832
 10
4704.5770455911
 20
-414.9930970379123
 30
-0.0000000000004832
 10
4703.516729888421
 20
-413.7444093134229
 30
-0.0000000000004832
  0
SPLINE
  5
74
330
1F
100
AcDbEntity
  8
图层 03
100
AcDbSpline
210
0.0
220
0.0
230
1.0
 70
     8
 71
     3
 72
     8
 73
     4
 74
     0
 42
0.0000000001
 43
0.0000000001
 40
1056.511437951297
 40
1056.511437951297
 40
1056.511437951297
 40
1056.511437951297
 40
1064.557057295433
 40
1064.557057295433
 40
1064.557057295433
 40
1064.557057295433
 10
4703.516729888421
 20
-413.7444093134229
 30
-0.0000000000004832
 10
4703.012043099096
 20
-413.3904383837612
 30
-0.0000000000004832
 10
4702.485578622419
 20
-413.0124372655375
 30
-0.0000000000004832
 10
4701.992224274706
 20
-412.6409901936509
 30
-0.0000000000004832
  0
SPLINE
  5
75
330
1F
100
AcDbEntity
  8
图层 03
100
AcDbSpline
210
0.0
220
0.0
230
1.0
 70
     8
 71
     3
 72
     8
 73
     4
 74
     0
 42
0.0000000001
 43
0.0000000001
 40
1064.557057295433
 40
1064.557057295433
 40
1064.557057295433
 40
1064.557057295433
 40
1076.379967262039
 40
1076.379967262039
 40
1076.379967262039
 40
1076.379967262039
 10
4701.992224274706
 20
-412.6409901936509
 30
-0.0000000000004832
 10
4701.166640537065
 20
-412.2536346211127
 30
-0.0000000000004832
 10
4700.340936595936
 20
-411.8665832928855
 30
-0.0000000000004832
 10
4699.51511243146
 20
-411.4798382598683
 30
-0.0000000000004832
  0
SPLINE
  5
76
330
1F
100
AcDbEntity
  8
图层 03
100
AcDbSpline
210
0.0
220
0.0
230
1.0
 70
     8
 71
     3
 72
     8
 73
     4
 74
     0
 42
0.0000000001
 43
0.0000000001
 40
1076.379967262039
 40
1076.379967262039
 40
1076.379967262039
 40
1076.379967262039
 40
1084.907525374085
 40
1084.907525374085
 40
1084.907525374085
 40
1084.907525374085
 10
4699.51511243146
 20
-411.4798382598683
 30
-0.0000000000004832
 10
4698.894275905702
 20
-411.3176833381817
 30
-0.0000000000004832
 10
4698.251313843633
 20
-411.1394820545047
 30
-0.0000000000004832
 10
4697.633427230499
 20
-410.9629499290845
 30
-0.0000000000004832
  0
SPLINE
  5
77
330
1F
100
AcDbEntity
  8
图层 03
100
AcDbSpline
210
0.0
220
0.0
230
1.0
 70
     8
 71
     3
 72
     8
 73
     4
 74
     0
 42
0.0000000001
 43
0.0000000001
 40
1084.907525374085
 40
1084.907525374085
 40
1084.907525374085
 40
1084.907525374085
 40
1106.914376121187
 40
1106.914376121187
 40
1106.914376121187
 40
1106.914376121187
 10
4697.633427230499
 20
-410.9629499290845
 30
-0.0000000000004832
 10
4695.980326625651
 20
-410.9134576887795
 30
-0.0000000000004832
 10
4694.326855681354
 20
-410.8533593883908
 30
-0.0000000000004832
 10
4692.673381133059
 20
-410.7848569461489
 30
-0.0000000000004832
  0
SPLINE
  5
78
330
1F
100
AcDbEntity
  8
图层 03
100
AcDbSpline
210
0.0
220
0.0
230
1.0
 70
     8
 71
     3
 72
     8
 73
     4
 74
     0
 42
0.0000000001
 43
0.0000000001
 40
1106.914376121187
 40
1106.914376121187
 40
1106.914376121187
 40
1106.914376121187
 40
1129.299191656959
 40
1129.299191656959
 40
1129.299191656959
 40
1129.299191656959
 10
4692.673381133059
 20
-410.7848569461489
 30
-0.0000000000004832
 10
4691.079863540121
 20
-411.2470141417036
 30
-0.0000000000004832
 10
4689.488279614361
 20
-411.7153398856694
 30
-0.0000000000004832
 10
4687.899337993762
 20
-412.1914711380289
 30
-0.0000000000004832
  0
SPLINE
  5
79
330
1F
100
AcDbEntity
  8
图层 03
100
AcDbSpline
210
0.0
220
0.0
230
1.0
 70
     8
 71
     3
 72
     8
 73
     4
 74
     0
 42
0.0000000001
 43
0.0000000001
 40
1129.299191656959
 40
1129.299191656959
 40
1129.299191656959
 40
1129.299191656959
 40
1138.467712394327
 40
1138.467712394327
 40
1138.467712394327
 40
1138.467712394327
 10
4687.899337993762
 20
-412.1914711380289
 30
-0.0000000000004832
 10
4687.3412571387
 20
-412.5754870459925
 30
-0.0000000000004832
 10
4686.781680727987
 20
-412.9573420550837
 30
-0.0000000000004832
 10
4686.21929973057
 20
-413.3348834969042
 30
-0.0000000000004832
  0
SPLINE
  5
7A
330
1F
100
AcDbEntity
  8
图层 03
100
AcDbSpline
210
0.0
220
0.0
230
1.0
 70
     8
 71
     3
 72
     8
 73
     4
 74
     0
 42
0.0000000001
 43
0.0000000001
 40
1138.467712394327
 40
1138.467712394327
 40
1138.467712394327
 40
1138.467712394327
 40
1151.913160119334
 40
1151.913160119334
 40
1151.913160119334
 40
1151.913160119334
 10
4686.21929973057
 20
-413.3348834969042
 30
-0.0000000000004832
 10
4685.509730755557
 20
-414.0500906305601
 30
-0.0000000000004832
 10
4684.840214163059
 20
-414.7629225477749
 30
-0.0000000000004832
 10
4684.167455185518
 20
-415.5152366808427
 30
-0.0000000000004832
  0
SPLINE
  5
7B
330
1F
100
AcDbEntity
  8
图层 03
100
AcDbSpline
210
0.0
220
0.0
230
1.0
 70
     8
 71
     3
 72
     8
 73
     4
 74
     0
 42
0.0000000001
 43
0.0000000001
 40
1151.913160119334
 40
1151.913160119334
 40
1151.913160119334
 40
1151.913160119334
 40
1161.836529288445
 40
1161.836529288445
 40
1161.836529288445
 40
1161.836529288445
 10
4684.167455185518
 20
-415.5152366808427
 30
-0.0000000000004832
 10
4683.797984371835
 20
-416.146110126587
 30
-0.0000000000004832
 10
4683.400047610999
 20
-416.8053501517713
 30
-0.0000000000004832
 10
4683.018671644259
 20
-417.428171752
 30
-0.0000000000004832
  0
SPLINE
  5
7C
330
1F
100
AcDbEntity
  8
图层 03
100
AcDbSpline
210
0.0
220
0.0
230
1.0
 70
     8
 71
     3
 72
     8
 73
     4
 74
     0
 42
0.0000000001
 43
0.0000000001
 40
1161.836529288445
 40
1161.836529288445
 40
1161.836529288445
 40
1161.836529288445
 40
1187.914175264686
 40
1187.914175264686
 40
1187.914175264686
 40
1187.914175264686
 10
4683.018671644259
 20
-417.4281717519998
 30
-0.0000000000004832
 10
4682.428216828136
 20
-419.3213422961112
 30
-0.0000000000004832
 10
4681.826591196948
 20
-421.2102956972619
 30
-0.0000000000004832
 10
4681.21774537176
 20
-423.0962431092289
 30
-0.0000000000004832
  0
SPLINE
  5
7D
330
1F
100
AcDbEntity
  8
图层 03
100
AcDbSpline
210
0.0
220
0.0
230
1.0
 70
     8
 71
     3
 72
     8
 73
     4
 74
     0
 42
0.0000000001
 43
0.0000000001
 40
1187.914175264686
 40
1187.914175264686
 40
1187.914175264686
 40
1187.914175264686
 40
1216.927004726268
 40
1216.927004726268
 40
1216.927004726268
 40
1216.927004726268
 10
4681.21774537176
 20
-423.0962431092289
 30
-0.0000000000004832
 10
4680.964970153795
 20
-425.3156828214246
 30
-0.0000000000004832
 10
4680.705121052486
 20
-427.5338889116124
 30
-0.0000000000004832
 10
4680.438998263395
 20
-429.7508756791131
 30
-0.0000000000004832
  0
SPLINE
  5
7E
330
1F
100
AcDbEntity
  8
图层 03
100
AcDbSpline
210
0.0
220
0.0
230
1.0
 70
     8
 71
     3
 72
     8
 73
     4
 74
     0
 42
0.0000000001
 43
0.0000000001
 40
1714.820080949615
 40
1714.820080949615
 40
1714.820080949615
 40
1714.820080949615
 40
1766.424182269031
 40
1766.424182269031
 40
1766.424182269031
 40
1766.424182269031
 10
4611.277671240012
 20
-525.8643531805412
 30
-0.0000000000004832
 10
4614.546533896447
 20
-526.9586525878863
 30
-0.0000000000004832
 10
4617.812541687095
 20
-528.0640366073999
 30
-0.0000000000004832
 10
4621.07556323274
 20
-529.18012894926
 30
-0.0000000000004832
  0
SPLINE
  5
7F
330
1F
100
AcDbEntity
  8
图层 03
100
AcDbSpline
210
0.0
220
0.0
230
1.0
 70
     8
 71
     3
 72
     8
 73
     4
 74
     0
 42
0.0000000001
 43
0.0000000001
 40
1766.424182269031
 40
1766.424182269031
 40
1766.424182269031
 40
1766.424182269031
 40
1824.423867061228
 40
1824.423867061228
 40
1824.423867061228
 40
1824.423867061228
 10
4621.07556323274
 20
-529.18012894926
 30
-0.0000000000004832
 10
4624.594418115195
 20
-530.8754149441281
 30
-0.0000000000004832
 10
4628.101911955509
 20
-532.5998201748698
 30
-0.0000000000004832
 10
4631.595851582424
 20
-534.3543543651158
 30
-0.0000000000004832
  0
SPLINE
  5
80
330
1F
100
AcDbEntity
  8
图层 03
100
AcDbSpline
210
0.0
220
0.0
230
1.0
 70
     8
 71
     3
 72
     8
 73
     4
 74
     0
 42
0.0000000001
 43
0.0000000001
 40
1824.423867061228
 40
1824.423867061228
 40
1824.423867061228
 40
1824.423867061228
 40
1865.520813769212
 40
1865.520813769212
 40
1865.520813769212
 40
1865.520813769212
 10
4631.595851582424
 20
-534.3543543651158
 30
-0.0000000000004832
 10
4633.881782976274
 20
-535.9611345065889
 30
-0.0000000000004832
 10
4636.158900630787
 20
-537.5823589672536
 30
-0.0000000000004832
 10
4638.425191419097
 20
-539.2197877206795
 30
-0.0000000000004832
  0
SPLINE
  5
81
330
1F
100
AcDbEntity
  8
图层 03
100
AcDbSpline
210
0.0
220
0.0
230
1.0
 70
     8
 71
     3
 72
     8
 73
     4
 74
     0
 42
0.0000000001
 43
0.0000000001
 40
1865.520813769212
 40
1865.520813769212
 40
1865.520813769212
 40
1865.520813769212
 40
1887.065344355528
 40
1887.065344355528
 40
1887.065344355528
 40
1887.065344355528
 10
4638.425191419097
 20
-539.2197877206795
 30
-0.0000000000004832
 10
4639.709709885185
 20
-539.9020527511816
 30
-0.0000000000004832
 10
4640.992570308868
 20
-540.588006254123
 30
-0.0000000000004832
 10
4642.273621625296
 20
-541.2778003348624
 30
-0.0000000000004832
  0
SPLINE
  5
82
330
1F
100
AcDbEntity
  8
图层 03
100
AcDbSpline
210
0.0
220
0.0
230
1.0
 70
     8
 71
     3
 72
     8
 73
     4
 74
     0
 42
0.0000000001
 43
0.0000000001
 40
1887.065344355528
 40
1887.065344355528
 40
1887.065344355528
 40
1887.065344355528
 40
1926.114321814151
 40
1926.114321814151
 40
1926.114321814151
 40
1926.114321814151
 10
4642.273621625296
 20
-541.2778003348624
 30
-0.0000000000004832
 10
4644.537890002053
 20
-542.6434300305714
 30
-0.0000000000004832
 10
4646.779510617775
 20
-544.0541889430301
 30
-0.0000000000004832
 10
4648.992587480881
 20
-545.5121861938255
 30
-0.0000000000004832
  0
SPLINE
  5
83
330
1F
100
AcDbEntity
  8
图层 03
100
AcDbSpline
210
0.0
220
0.0
230
1.0
 70
     8
 71
     3
 72
     8
 73
     4
 74
     0
 42
0.0000000001
 43
0.0000000001
 40
1926.114321814151
 40
1926.114321814151
 40
1926.114321814151
 40
1926.114321814151
 40
1948.324655849206
 40
1948.324655849206
 40
1948.324655849206
 40
1948.324655849206
 10
4648.992587480881
 20
-545.5121861938255
 30
-0.0000000000004832
 10
4650.449426890281
 20
-545.6102134923456
 30
-0.0000000000004832
 10
4651.901779123342
 20
-545.7891937181782
 30
-0.0000000000004832
 10
4653.348293768456
 20
-546.054246254205
 30
-0.0000000000004832
  0
SPLINE
  5
84
330
1F
100
AcDbEntity
  8
图层 03
100
AcDbSpline
210
0.0
220
0.0
230
1.0
 70
     8
 71
     3
 72
     8
 73
     4
 74
     0
 42
0.0000000001
 43
0.0000000001
 40
1948.324655849206
 40
1948.324655849206
 40
1948.324655849206
 40
1948.324655849206
 40
1953.953855469747
 40
1953.953855469747
 40
1953.953855469747
 40
1953.953855469747
 10
4653.348293768456
 20
-546.054246254205
 30
-0.0000000000004832
 10
4653.717369900019
 20
-546.0701700344287
 30
-0.0000000000004832
 10
4654.086459422496
 20
-546.0935061058203
 30
-0.0000000000004832
 10
4654.455470580309
 20
-546.1245149680208
 30
-0.0000000000004832
  0
SPLINE
  5
85
330
1F
100
AcDbEntity
  8
图层 03
100
AcDbSpline
210
0.0
220
0.0
230
1.0
 70
     8
 71
     3
 72
     8
 73
     4
 74
     0
 42
0.0000000001
 43
0.0000000001
 40
1953.953855469747
 40
1953.953855469747
 40
1953.953855469747
 40
1953.953855469747
 40
1976.550671686168
 40
1976.550671686168
 40
1976.550671686168
 40
1976.550671686168
 10
4654.455470580309
 20
-546.1245149680208
 30
-0.0000000000004832
 10
4655.127852750928
 20
-544.808134797453
 30
-0.0000000000004832
 10
4655.824986306885
 20
-543.4875523470346
 30
-0.0000000000004832
 10
4656.538332397704
 20
-542.1960044090579
 30
-0.0000000000004832
  0
SPLINE
  5
86
330
1F
100
AcDbEntity
  8
图层 03
100
AcDbSpline
210
0.0
220
0.0
230
1.0
 70
     8
 71
     3
 72
     8
 73
     4
 74
     0
 42
0.0000000001
 43
0.0000000001
 40
1976.550671686168
 40
1976.550671686168
 40
1976.550671686168
 40
1976.550671686168
 40
2006.08188212355
 40
2006.08188212355
 40
2006.08188212355
 40
2006.08188212355
 10
4656.538332397704
 20
-542.1960044090579
 30
-0.0000000000004832
 10
4656.382890072292
 20
-540.1954270826636
 30
-0.0000000000004832
 10
4656.233253305564
 20
-538.1946834056446
 30
-0.0000000000004832
 10
4656.088706096351
 20
-536.1938864509079
 30
-0.0000000000004832
  0
SPLINE
  5
87
330
1F
100
AcDbEntity
  8
图层 03
100
AcDbSpline
210
0.0
220
0.0
230
1.0
 70
     8
 71
     3
 72
     8
 73
     4
 74
     0
 42
0.0000000001
 43
0.0000000001
 40
2006.08188212355
 40
2006.08188212355
 40
2006.08188212355
 40
2006.08188212355
 40
2018.711761652269
 40
2018.711761652269
 40
2018.711761652269
 40
2018.711761652269
 10
4656.088706096351
 20
-536.1938864509079
 30
-0.0000000000004832
 10
4655.978987139591
 20
-535.3405098837379
 30
-0.0000000000004832
 10
4655.871608303527
 20
-534.4869379277507
 30
-0.0000000000004832
 10
4655.766383672899
 20
-533.6332240006302
 30
-0.0000000000004832
  0
SPLINE
  5
88
330
1F
100
AcDbEntity
  8
图层 03
100
AcDbSpline
210
0.0
220
0.0
230
1.0
 70
     8
 71
     3
 72
     8
 73
     4
 74
     0
 42
0.0000000001
 43
0.0000000001
 40
2018.711761652269
 40
2018.711761652269
 40
2018.711761652269
 40
2018.711761652269
 40
2100.069052880135
 40
2100.069052880135
 40
2100.069052880135
 40
2100.069052880135
 10
4655.766383672899
 20
-533.6332240006302
 30
-0.0000000000004832
 10
4654.018511029592
 20
-528.3746257050866
 30
-0.0000000000004832
 10
4652.518033816102
 20
-522.9148424956968
 30
-0.0000000000004832
 10
4651.227286047442
 20
-517.5435600952212
 30
-0.0000000000004832
  0
SPLINE
  5
89
330
1F
100
AcDbEntity
  8
图层 03
100
AcDbSpline
210
0.0
220
0.0
230
1.0
 70
     8
 71
     3
 72
     8
 73
     4
 74
     0
 42
0.0000000001
 43
0.0000000001
 40
2100.069052880135
 40
2100.069052880135
 40
2100.069052880135
 40
2100.069052880135
 40
2114.202804732062
 40
2114.202804732062
 40
2114.202804732062
 40
2114.202804732062
 10
4651.227286047442
 20
-517.5435600952212
 30
-0.0000000000004832
 10
4650.900833275507
 20
-516.6294522445542
 30
-0.0000000000004832
 10
4650.580184688273
 20
-515.7133593032604
 30
-0.0000000000004832
 10
4650.265270039957
 20
-514.7955737805312
 30
-0.0000000000004832
  0
SPLINE
  5
8A
330
1F
100
AcDbEntity
  8
图层 03
100
AcDbSpline
210
0.0
220
0.0
230
1.0
 70
     8
 71
     3
 72
    11
 73
     7
 74
     0
 42
0.0000000001
 43
0.0000000001
 40
2114.202804732062
 40
2114.202804732062
 40
2114.202804732062
 40
2114.202804732062
 40
2199.772978743294
 40
2199.772978743294
 40
2199.772978743294
 40
2257.951327922198
 40
2257.951327922198
 40
2257.951327922198
 40
2257.951327922198
 10
4650.265270039957
 20
-514.7955737805312
 30
-0.0000000000004832
 10
4647.9321800813
 20
-509.3801291366767
 30
-0.0000000000004832
 10
4646.045099210764
 20
-503.8398893095698
 30
-0.0000000000004832
 10
4644.499211244968
 20
-498.1740322209798
 30
-0.0000000000004832
 10
4643.441518619628
 20
-494.3301605073684
 30
-0.0000000000004832
 10
4642.394836554852
 20
-490.4834622281323
 30
-0.0000000000004832
 10
4641.376329031695
 20
-486.6305371510762
 30
-0.0000000000004832
  0
SPLINE
  5
8B
330
1F
100
AcDbEntity
  8
图层 03
100
AcDbSpline
210
0.0
220
0.0
230
1.0
 70
     8
 71
     3
 72
     8
 73
     4
 74
     0
 42
0.0000000001
 43
0.0000000001
 40
2257.951327922198
 40
2257.951327922198
 40
2257.951327922198
 40
2257.951327922198
 40
2297.676261608132
 40
2297.676261608132
 40
2297.676261608132
 40
2297.676261608132
 10
4641.376329031695
 20
-486.6305371510762
 30
-0.0000000000004832
 10
4640.800404000864
 20
-483.9756353007197
 30
-0.0000000000004832
 10
4640.218020437221
 20
-481.3218119919657
 30
-0.0000000000004832
 10
4639.624989883085
 20
-478.6699881475511
 30
-0.0000000000004832
  0
SPLINE
  5
8C
330
1F
100
AcDbEntity
  8
图层 03
100
AcDbSpline
210
0.0
220
0.0
230
1.0
 70
     8
 71
     3
 72
     8
 73
     4
 74
     0
 42
0.0000000001
 43
0.0000000001
 40
2297.676261608132
 40
2297.676261608132
 40
2297.676261608132
 40
2297.676261608132
 40
2327.706513081916
 40
2327.706513081916
 40
2327.706513081916
 40
2327.706513081916
 10
4639.624989883085
 20
-478.6699881475511
 30
-0.0000000000004832
 10
4639.584597517995
 20
-476.6364378440499
 30
-0.0000000000004832
 10
4639.555579597883
 20
-474.6031557866318
 30
-0.0000000000004832
 10
4639.542477487477
 20
-472.5708987987064
 30
-0.0000000000004832
  0
SPLINE
  5
8D
330
1F
100
AcDbEntity
  8
图层 03
100
AcDbSpline
210
0.0
220
0.0
230
1.0
 70
     8
 71
     3
 72
     8
 73
     4
 74
     0
 42
0.0000000001
 43
0.0000000001
 40
2327.706513081916
 40
2327.706513081916
 40
2327.706513081916
 40
2327.706513081916
 40
2339.731595086138
 40
2339.731595086138
 40
2339.731595086138
 40
2339.731595086138
 10
4639.542477487477
 20
-472.5708987987064
 30
-0.0000000000004832
 10
4639.84078347317
 20
-471.8356617819741
 30
-0.0000000000004832
 10
4640.145539225762
 20
-471.1027631538577
 30
-0.0000000000004832
 10
4640.456809701383
 20
-470.3738957431337
 30
-0.0000000000004832
  0
SPLINE
  5
8E
330
1F
100
AcDbEntity
  8
图层 03
100
AcDbSpline
210
0.0
220
0.0
230
1.0
 70
     8
 71
     3
 72
     8
 73
     4
 74
     0
 42
0.0000000001
 43
0.0000000001
 40
2339.731595086138
 40
2339.731595086138
 40
2339.731595086138
 40
2339.731595086138
 40
2353.585541073842
 40
2353.585541073842
 40
2353.585541073842
 40
2353.585541073842
 10
4640.456809701383
 20
-470.3738957431337
 30
-0.0000000000004832
 10
4640.574425479645
 20
-469.4514565353807
 30
-0.0000000000004832
 10
4640.696172596805
 20
-468.5297837653993
 30
-0.0000000000004832
 10
4640.822177094704
 20
-467.6090250143477
 30
-0.0000000000004832
  0
SPLINE
  5
8F
330
1F
100
AcDbEntity
  8
图层 03
100
AcDbSpline
210
0.0
220
0.0
230
1.0
 70
     8
 71
     3
 72
    11
 73
     7
 74
     0
 42
0.0000000001
 43
0.0000000001
 40
2353.585541073842
 40
2353.585541073842
 40
2353.585541073842
 40
2353.585541073842
 40
2377.457686251536
 40
2377.457686251536
 40
2377.457686251536
 40
2389.896834655872
 40
2389.896834655872
 40
2389.896834655872
 40
2389.896834655872
 10
4640.822177094704
 20
-467.6090250143477
 30
-0.0000000000004832
 10
4641.282044427988
 20
-466.0924989904588
 30
-0.0000000000004832
 10
4641.718928230915
 20
-464.5670648295807
 30
-0.0000000000004832
 10
4642.133993678852
 20
-463.0344513622235
 30
-0.0000000000004832
 10
4642.360184012601
 20
-462.2393260079755
 30
-0.0000000000004832
 10
4642.568645300298
 20
-461.4377971270949
 30
-0.0000000000004832
 10
4642.760608374623
 20
-460.6312995235487
 30
-0.0000000000004832
  0
SPLINE
  5
90
330
1F
100
AcDbEntity
  8
图层 03
100
AcDbSpline
210
0.0
220
0.0
230
1.0
 70
     8
 71
     3
 72
     8
 73
     4
 74
     0
 42
0.0000000001
 43
0.0000000001
 40
2389.896834655872
 40
2389.896834655872
 40
2389.896834655872
 40
2389.896834655872
 40
2402.397321245738
 40
2402.397321245738
 40
2402.397321245738
 40
2402.397321245738
 10
4642.760608374623
 20
-460.6312995235487
 30
-0.0000000000004832
 10
4642.822912246587
 20
-459.7917240736865
 30
-0.0000000000004832
 10
4642.881792684677
 20
-458.9516543497825
 30
-0.0000000000004832
 10
4642.937350342876
 20
-458.1111908052412
 30
-0.0000000000004832
  0
SPLINE
  5
91
330
1F
100
AcDbEntity
  8
图层 03
100
AcDbSpline
210
0.0
220
0.0
230
1.0
 70
     8
 71
     3
 72
     8
 73
     4
 74
     0
 42
0.0000000001
 43
0.0000000001
 40
2402.397321245738
 40
2402.397321245738
 40
2402.397321245738
 40
2402.397321245738
 40
2430.045332579964
 40
2430.045332579964
 40
2430.045332579964
 40
2430.045332579964
 10
4642.937350342876
 20
-458.1111908052412
 30
-0.0000000000004832
 10
4642.957228524008
 20
-456.2441542055035
 30
-0.0000000000004832
 10
4642.935743550509
 20
-454.3681777411375
 30
-0.0000000000004832
 10
4642.880938289762
 20
-452.497542979514
 30
-0.0000000000004832
  0
SPLINE
  5
92
330
1F
100
AcDbEntity
  8
图层 03
100
AcDbSpline
210
0.0
220
0.0
230
1.0
 70
     8
 71
     3
 72
    11
 73
     7
 74
     0
 42
0.0000000001
 43
0.0000000001
 40
2430.045332579964
 40
2430.045332579964
 40
2430.045332579964
 40
2430.045332579964
 40
2462.385103405661
 40
2462.385103405661
 40
2462.385103405661
 40
2500.831079931427
 40
2500.831079931427
 40
2500.831079931427
 40
2500.831079931427
 10
4642.880938289762
 20
-452.497542979514
 30
-0.0000000000004832
 10
4642.745529350335
 20
-450.3062194257384
 30
-0.0000000000004832
 10
4642.590865456205
 20
-448.1147917478502
 30
-0.0000000000004832
 10
4642.420502772738
 20
-445.9241331811486
 30
-0.0000000000004832
 10
4642.182095622185
 20
-443.3207608696139
 30
-0.0000000000004832
 10
4641.94319056166
 20
-440.7174078827063
 30
-0.0000000000004832
 10
4641.703810899789
 20
-438.1140738968688
 30
-0.0000000000004832
  0
SPLINE
  5
93
330
1F
100
AcDbEntity
  8
图层 03
100
AcDbSpline
210
0.0
220
0.0
230
1.0
 70
     8
 71
     3
 72
     8
 73
     4
 74
     0
 42
0.0000000001
 43
0.0000000001
 40
2500.831079931427
 40
2500.831079931427
 40
2500.831079931427
 40
2500.831079931427
 40
2542.670616836281
 40
2542.670616836281
 40
2542.670616836281
 40
2542.670616836281
 10
4641.703810899789
 20
-438.1140738968688
 30
-0.0000000000004832
 10
4641.18920920273
 20
-435.303451028808
 30
-0.0000000000004832
 10
4640.666221525235
 20
-432.4939391807429
 30
-0.0000000000004832
 10
4640.134488313549
 20
-429.6857630212471
 30
-0.0000000000004832
  0
SPLINE
  5
94
330
1F
100
AcDbEntity
  8
图层 03
100
AcDbSpline
210
0.0
220
0.0
230
1.0
 70
     8
 71
     3
 72
     8
 73
     4
 74
     0
 42
0.0000000001
 43
0.0000000001
 40
2542.670616836281
 40
2542.670616836281
 40
2542.670616836281
 40
2542.670616836281
 40
2583.445217121897
 40
2583.445217121897
 40
2583.445217121897
 40
2583.445217121897
 10
4640.134488313549
 20
-429.6857630212471
 30
-0.0000000000004832
 10
4639.043057595354
 20
-427.1039004993781
 30
-0.0000000000004832
 10
4637.8949727185
 20
-424.5438536324082
 30
-0.0000000000004832
 10
4636.686489224738
 20
-422.0126131671195
 30
-0.0000000000004832
  0
SPLINE
  5
95
330
1F
100
AcDbEntity
  8
图层 03
100
AcDbSpline
210
0.0
220
0.0
230
1.0
 70
     8
 71
     3
 72
     8
 73
     4
 74
     0
 42
0.0000000001
 43
0.0000000001
 40
2583.445217121897
 40
2583.445217121897
 40
2583.445217121897
 40
2583.445217121897
 40
2622.907560987022
 40
2622.907560987022
 40
2622.907560987022
 40
2622.907560987022
 10
4636.686489224738
 20
-422.0126131671195
 30
-0.0000000000004832
 10
4634.615032574804
 20
-420.2928136618029
 30
-0.0000000000004832
 10
4632.484105923218
 20
-418.6487603704327
 30
-0.0000000000004832
 10
4630.294278074007
 20
-417.0995382588208
 30
-0.0000000000004832
  0
SPLINE
  5
96
330
1F
100
AcDbEntity
  8
图层 03
100
AcDbSpline
210
0.0
220
0.0
230
1.0
 70
     8
 71
     3
 72
    11
 73
     7
 74
     0
 42
0.0000000001
 43
0.0000000001
 40
2622.907560987022
 40
2622.907560987022
 40
2622.907560987022
 40
2622.907560987022
 40
2636.68993579737
 40
2636.68993579737
 40
2636.68993579737
 40
2670.798189576357
 40
2670.798189576357
 40
2670.798189576357
 40
2670.798189576357
 10
4630.294278074007
 20
-417.0995382588208
 30
-0.0000000000004832
 10
4629.393645842798
 20
-416.9695539180261
 30
-0.0000000000004832
 10
4628.492744188995
 20
-416.842652743193
 30
-0.0000000000004832
 10
4627.591589587266
 20
-416.7195739338367
 30
-0.0000000000004832
 10
4625.360654268217
 20
-416.4263967386109
 30
-0.0000000000004832
 10
4623.128416438324
 20
-416.1487209808483
 30
-0.0000000000004832
 10
4620.895340764446
 20
-415.8926490125882
 30
-0.0000000000004832
  0
SPLINE
  5
97
330
1F
100
AcDbEntity
  8
图层 03
100
AcDbSpline
210
0.0
220
0.0
230
1.0
 70
     8
 71
     3
 72
     8
 73
     4
 74
     0
 42
0.0000000001
 43
0.0000000001
 40
2670.798189576357
 40
2670.798189576357
 40
2670.798189576357
 40
2670.798189576357
 40
2725.142735109263
 40
2725.142735109263
 40
2725.142735109263
 40
2725.142735109263
 10
4620.895340764446
 20
-415.8926490125882
 30
-0.0000000000004832
 10
4617.418688679834
 20
-416.4939825053516
 30
-0.0000000000004832
 10
4613.945543670057
 20
-417.1128635778182
 30
-0.0000000000004832
 10
4610.479715538648
 20
-417.7625417957372
 30
-0.0000000000004832
  0
SPLINE
  5
98
330
1F
100
AcDbEntity
  8
图层 03
100
AcDbSpline
210
0.0
220
0.0
230
1.0
 70
     8
 71
     3
 72
     8
 73
     4
 74
     0
 42
0.0000000001
 43
0.0000000001
 40
2725.142735109263
 40
2725.142735109263
 40
2725.142735109263
 40
2725.142735109263
 40
2771.707553390381
 40
2771.707553390381
 40
2771.707553390381
 40
2771.707553390381
 10
4610.479715538648
 20
-417.7625417957372
 30
-0.0000000000004832
 10
4607.764497292845
 20
-418.9632745877848
 30
-0.0000000000004832
 10
4604.964204563004
 20
-420.2243583677741
 30
-0.0000000000004832
 10
4602.272749190028
 20
-421.4759593615181
 30
-0.0000000000004832
  0
SPLINE
  5
99
330
1F
100
AcDbEntity
  8
图层 03
100
AcDbSpline
210
0.0
220
0.0
230
1.0
 70
     8
 71
     3
 72
     8
 73
     4
 74
     0
 42
0.0000000001
 43
0.0000000001
 40
2771.707553390381
 40
2771.707553390381
 40
2771.707553390381
 40
2771.707553390381
 40
2776.762976927631
 40
2776.762976927631
 40
2776.762976927631
 40
2776.762976927631
 10
4602.272749190028
 20
-421.4759593615181
 30
-0.0000000000004832
 10
4601.987062090036
 20
-421.6326040721729
 30
-0.0000000000004832
 10
4601.701670943805
 20
-421.7897888157268
 30
-0.0000000000004832
 10
4601.416606878226
 20
-421.9475562246562
 30
-0.0000000000004832
  0
SPLINE
  5
9A
330
1F
100
AcDbEntity
  8
图层 03
100
AcDbSpline
210
0.0
220
0.0
230
1.0
 70
     8
 71
     3
 72
     8
 73
     4
 74
     0
 42
0.0000000001
 43
0.0000000001
 40
2776.762976927631
 40
2776.762976927631
 40
2776.762976927631
 40
2776.762976927631
 40
2815.499779918592
 40
2815.499779918592
 40
2815.499779918592
 40
2815.499779918592
 10
4601.416606878226
 20
-421.9475562246562
 30
-0.0000000000004832
 10
4599.547978490345
 20
-423.6125754960958
 30
-0.0000000000004832
 10
4597.678816453821
 20
-425.2769867587556
 30
-0.0000000000004832
 10
4595.804085144435
 20
-426.9347769658445
 30
-0.0000000000004832
  0
SPLINE
  5
9B
330
1F
100
AcDbEntity
  8
图层 03
100
AcDbSpline
210
0.0
220
0.0
230
1.0
 70
     8
 71
     3
 72
     8
 73
     4
 74
     0
 42
0.0000000001
 43
0.0000000001
 40
2815.499779918592
 40
2815.499779918592
 40
2815.499779918592
 40
2815.499779918592
 40
2844.551459607912
 40
2844.551459607912
 40
2844.551459607912
 40
2844.551459607912
 10
4595.804085144435
 20
-426.9347769658445
 30
-0.0000000000004832
 10
4594.847582092727
 20
-428.5781570806171
 30
-0.0000000000004832
 10
4593.884946507324
 20
-430.2175234757729
 30
-0.0000000000004832
 10
4592.920451257885
 20
-431.8556068870244
 30
-0.0000000000004832
  0
SPLINE
  5
9C
330
1F
100
AcDbEntity
  8
图层 03
100
AcDbSpline
210
0.0
220
0.0
230
1.0
 70
     8
 71
     3
 72
     8
 73
     4
 74
     0
 42
0.0000000001
 43
0.0000000001
 40
2844.551459607912
 40
2844.551459607912
 40
2844.551459607912
 40
2844.551459607912
 40
2878.624802830394
 40
2878.624802830394
 40
2878.624802830394
 40
2878.624802830394
 10
4592.920451257885
 20
-431.8556068870244
 30
-0.0000000000004832
 10
4592.3082930817
 20
-434.036494945572
 30
-0.0000000000004832
 10
4591.70679058813
 20
-436.2212090304918
 30
-0.0000000000004832
 10
4591.112530082886
 20
-438.4082960627356
 30
-0.0000000000004832
  0
SPLINE
  5
9D
330
1F
100
AcDbEntity
  8
图层 03
100
AcDbSpline
210
0.0
220
0.0
230
1.0
 70
     8
 71
     3
 72
     8
 73
     4
 74
     0
 42
0.0000000001
 43
0.0000000001
 40
2878.624802830394
 40
2878.624802830394
 40
2878.624802830394
 40
2878.624802830394
 40
2912.561971755705
 40
2912.561971755705
 40
2912.561971755705
 40
2912.561971755705
 10
4591.112530082886
 20
-438.4082960627356
 30
-0.0000000000004832
 10
4591.027200012696
 20
-440.697520818351
 30
-0.0000000000004832
 10
4590.951740935036
 20
-442.9877816710614
 30
-0.0000000000004832
 10
4590.884881991424
 20
-445.2787157587825
 30
-0.0000000000004832
  0
SPLINE
  5
9E
330
1F
100
AcDbEntity
  8
图层 03
100
AcDbSpline
210
0.0
220
0.0
230
1.0
 70
     8
 71
     3
 72
     8
 73
     4
 74
     0
 42
0.0000000001
 43
0.0000000001
 40
2912.561971755705
 40
2912.561971755705
 40
2912.561971755705
 40
2912.561971755705
 40
2942.714181906125
 40
2942.714181906125
 40
2942.714181906125
 40
2942.714181906125
 10
4590.884881991424
 20
-445.2787157587825
 30
-0.0000000000004832
 10
4591.160497134089
 20
-447.3149179782622
 30
-0.0000000000004832
 10
4591.437799740831
 20
-449.3509770064372
 30
-0.0000000000004832
 10
4591.716829394785
 20
-451.3868800224745
 30
-0.0000000000004832
  0
SPLINE
  5
9F
330
1F
100
AcDbEntity
  8
图层 03
100
AcDbSpline
210
0.0
220
0.0
230
1.0
 70
     8
 71
     3
 72
     8
 73
     4
 74
     0
 42
0.0000000001
 43
0.0000000001
 40
2942.714181906125
 40
2942.714181906125
 40
2942.714181906125
 40
2942.714181906125
 40
2966.45675336461
 40
2966.45675336461
 40
2966.45675336461
 40
2966.45675336461
 10
4591.716829394785
 20
-451.3868800224745
 30
-0.0000000000004832
 10
4592.130806395053
 20
-452.9596838899761
 30
-0.0000000000004832
 10
4592.547234464535
 20
-454.5319431044161
 30
-0.0000000000004832
 10
4592.966541715885
 20
-456.1035294610058
 30
-0.0000000000004832
  0
SPLINE
  5
A0
330
1F
100
AcDbEntity
  8
图层 03
100
AcDbSpline
210
0.0
220
0.0
230
1.0
 70
     8
 71
     3
 72
     8
 73
     4
 74
     0
 42
0.0000000001
 43
0.0000000001
 40
2966.45675336461
 40
2966.45675336461
 40
2966.45675336461
 40
2966.45675336461
 40
2987.195658854293
 40
2987.195658854293
 40
2987.195658854293
 40
2987.195658854293
 10
4592.966541715885
 20
-456.1035294610058
 30
-0.0000000000004832
 10
4593.363997218283
 20
-457.466187664158
 30
-0.0000000000004832
 10
4593.775739672821
 20
-458.8326905433678
 30
-0.0000000000004832
 10
4594.201079975059
 20
-460.1878557195305
 30
-0.0000000000004832
  0
SPLINE
  5
A1
330
1F
100
AcDbEntity
  8
图层 03
100
AcDbSpline
210
0.0
220
0.0
230
1.0
 70
     8
 71
     3
 72
     8
 73
     4
 74
     0
 42
0.0000000001
 43
0.0000000001
 40
2987.195658854293
 40
2987.195658854293
 40
2987.195658854293
 40
2987.195658854293
 40
3009.425041071038
 40
3009.425041071038
 40
3009.425041071038
 40
3009.425041071038
 10
4594.201079975059
 20
-460.1878557195305
 30
-0.0000000000004832
 10
4594.438104741648
 20
-461.6811423323838
 30
-0.0000000000004832
 10
4594.689313595671
 20
-463.1863983539463
 30
-0.0000000000004832
 10
4594.954897687842
 20
-464.6762095919858
 30
-0.0000000000004832
  0
SPLINE
  5
A2
330
1F
100
AcDbEntity
  8
图层 03
100
AcDbSpline
210
0.0
220
0.0
230
1.0
 70
     8
 71
     3
 72
     8
 73
     4
 74
     0
 42
0.0000000001
 43
0.0000000001
 40
3009.425041071038
 40
3009.425041071038
 40
3009.425041071038
 40
3009.425041071038
 40
3038.858280101515
 40
3038.858280101515
 40
3038.858280101515
 40
3038.858280101515
 10
4594.954897687842
 20
-464.6762095919858
 30
-0.0000000000004832
 10
4594.821577168128
 20
-466.6548058908738
 30
-0.0000000000004832
 10
4594.675684769278
 20
-468.6319451355444
 30
-0.0000000000004832
 10
4594.51372827759
 20
-470.6065088738801
 30
-0.0000000000004832
  0
SPLINE
  5
A3
330
1F
100
AcDbEntity
  8
图层 03
100
AcDbSpline
210
0.0
220
0.0
230
1.0
 70
     8
 71
     3
 72
     8
 73
     4
 74
     0
 42
0.0000000001
 43
0.0000000001
 40
3038.858280101515
 40
3038.858280101515
 40
3038.858280101515
 40
3038.858280101515
 40
3077.249730577284
 40
3077.249730577284
 40
3077.249730577284
 40
3077.249730577284
 10
4594.51372827759
 20
-470.6065088738801
 30
-0.0000000000004832
 10
4593.861725861307
 20
-473.0767868471198
 30
-0.0000000000004832
 10
4593.205171270114
 20
-475.5455524333534
 30
-0.0000000000004832
 10
4592.544131488436
 20
-478.0127723082549
 30
-0.0000000000004832
  0
SPLINE
  5
A4
330
1F
100
AcDbEntity
  8
图层 03
100
AcDbSpline
210
0.0
220
0.0
230
1.0
 70
     8
 71
     3
 72
     8
 73
     4
 74
     0
 42
0.0000000001
 43
0.0000000001
 40
3077.249730577284
 40
3077.249730577284
 40
3077.249730577284
 40
3077.249730577284
 40
3081.423258019815
 40
3081.423258019815
 40
3081.423258019815
 40
3081.423258019815
 10
4592.544131488436
 20
-478.0127723082549
 30
-0.0000000000004832
 10
4592.505934378459
 20
-478.2901115231155
 30
-0.0000000000004832
 10
4592.46782941524
 20
-478.5674696188271
 30
-0.0000000000004832
 10
4592.42981680905
 20
-478.8448464400974
 30
-0.0000000000004832
  0
SPLINE
  5
A5
330
1F
100
AcDbEntity
  8
图层 03
100
AcDbSpline
210
0.0
220
0.0
230
1.0
 70
     8
 71
     3
 72
    11
 73
     7
 74
     0
 42
0.0000000001
 43
0.0000000001
 40
3081.423258019815
 40
3081.423258019815
 40
3081.423258019815
 40
3081.423258019815
 40
3130.337723022898
 40
3130.337723022898
 40
3130.337723022898
 40
3179.931496564169
 40
3179.931496564169
 40
3179.931496564169
 40
3179.931496564169
 10
4592.42981680905
 20
-478.8448464400976
 30
-0.0000000000004832
 10
4591.88171447406
 20
-482.0696141891108
 30
-0.0000000000004832
 10
4591.383150708201
 20
-485.3162760878135
 30
-0.0000000000004832
 10
4590.9285668793
 20
-488.561792510706
 30
-0.0000000000004832
 10
4590.490154986777
 20
-491.8435207287853
 30
-0.0000000000004832
 10
4590.11809008314
 20
-495.1888284860172
 30
-0.0000000000004832
 10
4589.798625104091
 20
-498.4918730032791
 30
-0.0000000000004832
  0
SPLINE
  5
A6
330
1F
100
AcDbEntity
  8
图层 03
100
AcDbSpline
210
0.0
220
0.0
230
1.0
 70
     8
 71
     3
 72
     8
 73
     4
 74
     0
 42
0.0000000001
 43
0.0000000001
 40
3179.931496564169
 40
3179.931496564169
 40
3179.931496564169
 40
3179.931496564169
 40
3222.41890907631
 40
3222.41890907631
 40
3222.41890907631
 40
3222.41890907631
 10
4589.798625104091
 20
-498.4918730032791
 30
-0.0000000000004832
 10
4589.592310598418
 20
-501.3335244440023
 30
-0.0000000000004832
 10
4589.426007740807
 20
-504.218480706106
 30
-0.0000000000004832
 10
4589.29003147999
 20
-507.0686984902677
 30
-0.0000000000004832
  0
SPLINE
  5
A7
330
1F
100
AcDbEntity
  8
图层 03
100
AcDbSpline
210
0.0
220
0.0
230
1.0
 70
     8
 71
     3
 72
     8
 73
     4
 74
     0
 42
0.0000000001
 43
0.0000000001
 40
3222.41890907631
 40
3222.41890907631
 40
3222.41890907631
 40
3222.41890907631
 40
3252.01444989354
 40
3252.01444989354
 40
3252.01444989354
 40
3252.01444989354
 10
4589.29003147999
 20
-507.0686984902677
 30
-0.0000000000004832
 10
4589.318112086889
 20
-509.0723061342887
 30
-0.0000000000004832
 10
4589.364193197172
 20
-511.0769317390655
 30
-0.0000000000004832
 10
4589.424795690241
 20
-513.0815782126397
 30
-0.0000000000004832
  0
SPLINE
  5
A8
330
1F
100
AcDbEntity
  8
图层 03
100
AcDbSpline
210
0.0
220
0.0
230
1.0
 70
     8
 71
     3
 72
     8
 73
     4
 74
     0
 42
0.0000000001
 43
0.0000000001
 40
3252.01444989354
 40
3252.01444989354
 40
3252.01444989354
 40
3252.01444989354
 40
3271.567845055277
 40
3271.567845055277
 40
3271.567845055277
 40
3271.567845055277
 10
4589.424795690241
 20
-513.0815782126397
 30
-0.0000000000004832
 10
4589.757989964448
 20
-514.3785843038954
 30
-0.0000000000004832
 10
4590.096693334726
 20
-515.6744268705072
 30
-0.0000000000004832
 10
4590.440610114858
 20
-516.9690159737465
 30
-0.0000000000004832
  0
SPLINE
  5
A9
330
1F
100
AcDbEntity
  8
图层 03
100
AcDbSpline
210
0.0
220
0.0
230
1.0
 70
     8
 71
     3
 72
     8
 73
     4
 74
     0
 42
0.0000000001
 43
0.0000000001
 40
3271.567845055277
 40
3271.567845055277
 40
3271.567845055277
 40
3271.567845055277
 40
3288.385876581899
 40
3288.385876581899
 40
3288.385876581899
 40
3288.385876581899
 10
4590.440610114858
 20
-516.9690159737465
 30
-0.0000000000004832
 10
4591.196637130615
 20
-517.8418529612832
 30
-0.0000000000004832
 10
4591.952006333353
 20
-518.7152922679593
 30
-0.0000000000004832
 10
4592.706641835671
 20
-519.5893961315135
 30
-0.0000000000004832
  0
SPLINE
  5
AA
330
1F
100
AcDbEntity
  8
图层 03
100
AcDbSpline
210
0.0
220
0.0
230
1.0
 70
     8
 71
     3
 72
     8
 73
     4
 74
     0
 42
0.0000000001
 43
0.0000000001
 40
3288.385876581899
 40
3288.385876581899
 40
3288.385876581899
 40
3288.385876581899
 40
3310.581553866539
 40
3310.581553866539
 40
3310.581553866539
 40
3310.581553866539
 10
4592.706641835671
 20
-519.5893961315135
 30
-0.0000000000004832
 10
4594.048973059553
 20
-520.2487018783972
 30
-0.0000000000004832
 10
4595.391229255783
 20
-520.9081881014383
 30
-0.0000000000004832
 10
4596.733397563464
 20
-521.5678852255587
 30
-0.0000000000004832
  0
SPLINE
  5
AB
330
1F
100
AcDbEntity
  8
图层 03
100
AcDbSpline
210
0.0
220
0.0
230
1.0
 70
     8
 71
     3
 72
     8
 73
     4
 74
     0
 42
0.0000000001
 43
0.0000000001
 40
3310.581553866539
 40
3310.581553866539
 40
3310.581553866539
 40
3310.581553866539
 40
3343.240426343251
 40
3343.240426343251
 40
3343.240426343251
 40
3343.240426343251
 10
4596.733397563464
 20
-521.5678852255587
 30
-0.0000000000004832
 10
4598.815020134188
 20
-522.20914270612
 30
-0.0000000000004832
 10
4600.896510950227
 20
-522.8509563325256
 30
-0.0000000000004832
 10
4602.977873401225
 20
-523.4933080544665
 30
-0.0000000000004832
  0
SPLINE
  5
AC
330
1F
100
AcDbEntity
  8
图层 03
100
AcDbSpline
210
0.0
220
0.0
230
1.0
 70
     8
 71
     3
 72
     8
 73
     4
 74
     0
 42
0.0000000001
 43
0.0000000001
 40
3343.240426343251
 40
3343.240426343251
 40
3343.240426343251
 40
3343.240426343251
 40
3386.44029412124
 40
3386.44029412124
 40
3386.44029412124
 40
3386.44029412124
 10
4602.977873401225
 20
-523.4933080544665
 30
-0.0000000000004832
 10
4605.744323576184
 20
-524.2843470081343
 30
-0.0000000000004832
 10
4608.510926060976
 20
-525.0746821464254
 30
-0.0000000000004832
 10
4611.277671240012
 20
-525.8643531805412
 30
-0.0000000000004832
  0
SPLINE
  5
AD
330
1F
100
AcDbEntity
  8
图层 03
100
AcDbSpline
210
0.0
220
0.0
230
1.0
 70
     8
 71
     3
 72
     8
 73
     4
 74
     0
 42
0.0000000001
 43
0.0000000001
 40
400.4130368591091
 40
400.4130368591091
 40
400.4130368591091
 40
400.4130368591091
 40
401.5326345425312
 40
401.5326345425312
 40
401.5326345425312
 40
401.5326345425312
 10
4537.778374147349
 20
-535.8903901765393
 30
-0.0000000000004832
 10
4537.770549509636
 20
-535.9763609896727
 30
-0.0000000000004832
 10
4537.762748745885
 20
-536.0623355212269
 30
-0.0000000000004832
 10
4537.754972625251
 20
-536.1483138467559
 30
-0.0000000000004832
  0
SPLINE
  5
AE
330
1F
100
AcDbEntity
  8
图层 03
100
AcDbSpline
210
0.0
220
0.0
230
1.0
 70
     8
 71
     3
 72
     8
 73
     4
 74
     0
 42
0.0000000001
 43
0.0000000001
 40
401.5326345425312
 40
401.5326345425312
 40
401.5326345425312
 40
401.5326345425312
 40
422.2538480855959
 40
422.2538480855959
 40
422.2538480855959
 40
422.2538480855959
 10
4537.754972625251
 20
-536.1483138467559
 30
-0.0000000000004832
 10
4537.849870653203
 20
-537.7574907311541
 30
-0.0000000000004832
 10
4537.954161940257
 20
-539.3667831006017
 30
-0.0000000000004832
 10
4538.072705174333
 20
-540.9756114097772
 30
-0.0000000000004832
  0
SPLINE
  5
AF
330
1F
100
AcDbEntity
  8
图层 03
100
AcDbSpline
210
0.0
220
0.0
230
1.0
 70
     8
 71
     3
 72
     8
 73
     4
 74
     0
 42
0.0000000001
 43
0.0000000001
 40
422.2538480855959
 40
422.2538480855959
 40
422.2538480855959
 40
422.2538480855959
 40
429.4439503720959
 40
429.4439503720959
 40
429.4439503720959
 40
429.4439503720959
 10
4538.072705174333
 20
-540.9756114097772
 30
-0.0000000000004832
 10
4538.20517706963
 20
-541.5249751756351
 30
-0.0000000000004832
 10
4538.341638444969
 20
-542.0702272602628
 30
-0.0000000000004832
 10
4538.483457340883
 20
-542.6176151409243
 30
-0.0000000000004832
  0
SPLINE
  5
B0
330
1F
100
AcDbEntity
  8
图层 03
100
AcDbSpline
210
0.0
220
0.0
230
1.0
 70
     8
 71
     3
 72
     8
 73
     4
 74
     0
 42
0.0000000001
 43
0.0000000001
 40
429.4439503720959
 40
429.4439503720959
 40
429.4439503720959
 40
429.4439503720959
 40
448.6291527706568
 40
448.6291527706568
 40
448.6291527706568
 40
448.6291527706568
 10
4538.483457340883
 20
-542.6176151409243
 30
-0.0000000000004832
 10
4539.111506913285
 20
-543.9935055424517
 30
-0.0000000000004832
 10
4539.75112607896
 20
-545.3644799019723
 30
-0.0000000000004832
 10
4540.400364752983
 20
-546.730728869049
 30
-0.0000000000004832
  0
SPLINE
  5
B1
330
1F
100
AcDbEntity
  8
图层 03
100
AcDbSpline
210
0.0
220
0.0
230
1.0
 70
     8
 71
     3
 72
     8
 73
     4
 74
     0
 42
0.0000000001
 43
0.0000000001
 40
448.6291527706568
 40
448.6291527706568
 40
448.6291527706568
 40
448.6291527706568
 40
465.2603963789111
 40
465.2603963789111
 40
465.2603963789111
 40
465.2603963789111
 10
4540.400364752983
 20
-546.730728869049
 30
-0.0000000000004832
 10
4541.223155776821
 20
-547.7497753493885
 30
-0.0000000000004832
 10
4542.039584363972
 20
-548.7743440927229
 30
-0.0000000000004832
 10
4542.848241004996
 20
-549.8050540856921
 30
-0.0000000000004832
  0
SPLINE
  5
B2
330
1F
100
AcDbEntity
  8
图层 03
100
AcDbSpline
210
0.0
220
0.0
230
1.0
 70
     8
 71
     3
 72
     8
 73
     4
 74
     0
 42
0.0000000001
 43
0.0000000001
 40
465.2603963789111
 40
465.2603963789111
 40
465.2603963789111
 40
465.2603963789111
 40
471.274506897941
 40
471.274506897941
 40
471.274506897941
 40
471.274506897941
 10
4542.848241004996
 20
-549.8050540856921
 30
-0.0000000000004832
 10
4543.237229245356
 20
-550.065341166599
 30
-0.0000000000004832
 10
4543.627980984755
 20
-550.32275447459
 30
-0.0000000000004832
 10
4544.020634248071
 20
-550.5766992464578
 30
-0.0000000000004832
  0
SPLINE
  5
B3
330
1F
100
AcDbEntity
  8
图层 03
100
AcDbSpline
210
0.0
220
0.0
230
1.0
 70
     8
 71
     3
 72
     8
 73
     4
 74
     0
 42
0.0000000001
 43
0.0000000001
 40
471.274506897941
 40
471.274506897941
 40
471.274506897941
 40
471.274506897941
 40
481.1042037800098
 40
481.1042037800098
 40
481.1042037800098
 40
481.1042037800098
 10
4544.020634248071
 20
-550.5766992464578
 30
-0.0000000000004832
 10
4544.74715165369
 20
-550.7528118851701
 30
-0.0000000000004832
 10
4545.473889694679
 20
-550.9407004288707
 30
-0.0000000000004832
 10
4546.196568144474
 20
-551.1371552981852
 30
-0.0000000000004832
  0
SPLINE
  5
B4
330
1F
100
AcDbEntity
  8
图层 03
100
AcDbSpline
210
0.0
220
0.0
230
1.0
 70
     8
 71
     3
 72
     8
 73
     4
 74
     0
 42
0.0000000001
 43
0.0000000001
 40
481.1042037800098
 40
481.1042037800098
 40
481.1042037800098
 40
481.1042037800098
 40
483.7517486290001
 40
483.7517486290001
 40
483.7517486290001
 40
483.7517486290001
 10
4546.196568144474
 20
-551.1371552981852
 30
-0.0000000000004832
 10
4546.384578270605
 20
-551.0810721488542
 30
-0.0000000000004832
 10
4546.572388170816
 20
-551.0243716834748
 30
-0.0000000000004832
 10
4546.760010899454
 20
-550.9671261527915
 30
-0.0000000000004832
  0
SPLINE
  5
B5
330
1F
100
AcDbEntity
  8
图层 03
100
AcDbSpline
210
0.0
220
0.0
230
1.0
 70
     8
 71
     3
 72
     8
 73
     4
 74
     0
 42
0.0000000001
 43
0.0000000001
 40
483.7517486290001
 40
483.7517486290001
 40
483.7517486290001
 40
483.7517486290001
 40
496.0414985241352
 40
496.0414985241352
 40
496.0414985241352
 40
496.0414985241352
 10
4546.760010899454
 20
-550.9671261527915
 30
-0.0000000000004832
 10
4547.452701107536
 20
-550.3776821989318
 30
-0.0000000000004832
 10
4548.148072827955
 20
-549.7914932588915
 30
-0.0000000000004832
 10
4548.845808769311
 20
-549.2083188124852
 30
-0.0000000000004832
  0
SPLINE
  5
B6
330
1F
100
AcDbEntity
  8
图层 03
100
AcDbSpline
210
0.0
220
0.0
230
1.0
 70
     8
 71
     3
 72
     8
 73
     4
 74
     0
 42
0.0000000001
 43
0.0000000001
 40
496.0414985241352
 40
496.0414985241352
 40
496.0414985241352
 40
496.0414985241352
 40
510.6322619710368
 40
510.6322619710368
 40
510.6322619710368
 40
510.6322619710368
 10
4548.845808769311
 20
-549.2083188124852
 30
-0.0000000000004832
 10
4549.55740489582
 20
-548.3889698262744
 30
-0.0000000000004832
 10
4550.276945283209
 20
-547.5788562524929
 30
-0.0000000000004832
 10
4551.006570785024
 20
-546.7767762119902
 30
-0.0000000000004832
  0
SPLINE
  5
B7
330
1F
100
AcDbEntity
  8
图层 03
100
AcDbSpline
210
0.0
220
0.0
230
1.0
 70
     8
 71
     3
 72
     8
 73
     4
 74
     0
 42
0.0000000001
 43
0.0000000001
 40
510.6322619710368
 40
510.6322619710368
 40
510.6322619710368
 40
510.6322619710368
 40
522.0402615485484
 40
522.0402615485484
 40
522.0402615485484
 40
522.0402615485484
 10
4551.006570785024
 20
-546.7767762119902
 30
-0.0000000000004832
 10
4551.55638745774
 20
-546.130232294799
 30
-0.0000000000004832
 10
4552.111847839202
 20
-545.4897427983074
 30
-0.0000000000004832
 10
4552.674107082887
 20
-544.8548652619693
 30
-0.0000000000004832
  0
SPLINE
  5
B8
330
1F
100
AcDbEntity
  8
图层 03
100
AcDbSpline
210
0.0
220
0.0
230
1.0
 70
     8
 71
     3
 72
     8
 73
     4
 74
     0
 42
0.0000000001
 43
0.0000000001
 40
522.0402615485484
 40
522.0402615485484
 40
522.0402615485484
 40
522.0402615485484
 40
526.9483194979439
 40
526.9483194979439
 40
526.9483194979439
 40
526.9483194979439
 10
4552.674107082887
 20
-544.8548652619693
 30
-0.0000000000004832
 10
4552.877861808996
 20
-544.5496581916859
 30
-0.0000000000004832
 10
4553.082485321076
 20
-544.2450904173613
 30
-0.0000000000004832
 10
4553.287973651208
 20
-543.9411808789648
 30
-0.0000000000004832
  0
SPLINE
  5
B9
330
1F
100
AcDbEntity
  8
图层 03
100
AcDbSpline
210
0.0
220
0.0
230
1.0
 70
     8
 71
     3
 72
     8
 73
     4
 74
     0
 42
0.0000000001
 43
0.0000000001
 40
526.9483194979439
 40
526.9483194979439
 40
526.9483194979439
 40
526.9483194979439
 40
545.632139339986
 40
545.632139339986
 40
545.632139339986
 40
545.632139339986
 10
4553.287973651208
 20
-543.9411808789648
 30
-0.0000000000004832
 10
4553.977974780724
 20
-542.7187922967382
 30
-0.0000000000004832
 10
4554.677984694678
 20
-541.5070073894817
 30
-0.0000000000004832
 10
4555.392596685246
 20
-540.3007154135016
 30
-0.0000000000004832
  0
SPLINE
  5
BA
330
1F
100
AcDbEntity
  8
图层 03
100
AcDbSpline
210
0.0
220
0.0
230
1.0
 70
     8
 71
     3
 72
     8
 73
     4
 74
     0
 42
0.0000000001
 43
0.0000000001
 40
545.632139339986
 40
545.632139339986
 40
545.632139339986
 40
545.632139339986
 40
565.9524012886686
 40
565.9524012886686
 40
565.9524012886686
 40
565.9524012886686
 10
4555.392596685246
 20
-540.3007154135016
 30
-0.0000000000004832
 10
4555.955121830337
 20
-538.8682026383815
 30
-0.0000000000004832
 10
4556.532847819114
 20
-537.4456405897895
 30
-0.0000000000004832
 10
4557.13106386415
 20
-536.0303345542609
 30
-0.0000000000004832
  0
SPLINE
  5
BB
330
1F
100
AcDbEntity
  8
图层 03
100
AcDbSpline
210
0.0
220
0.0
230
1.0
 70
     8
 71
     3
 72
    11
 73
     7
 74
     0
 42
0.0000000001
 43
0.0000000001
 40
565.9524012886686
 40
565.9524012886686
 40
565.9524012886686
 40
565.9524012886686
 40
587.8871255999293
 40
587.8871255999293
 40
587.8871255999293
 40
588.4136135080817
 40
588.4136135080817
 40
588.4136135080817
 40
588.4136135080817
 10
4557.13106386415
 20
-536.0303345542609
 30
-0.0000000000004832
 10
4557.427930837199
 20
-534.373063691563
 30
-0.0000000000004832
 10
4557.743881915723
 20
-532.7262294934958
 30
-0.0000000000004832
 10
4558.083294239145
 20
-531.0800783283332
 30
-0.0000000000004832
 10
4558.091022831723
 20
-531.04049868626
 30
-0.0000000000004832
 10
4558.098766521287
 20
-531.0009230253818
 30
-0.0000000000004832
 10
4558.106525310882
 20
-530.961351384324
 30
-0.0000000000004832
  0
SPLINE
  5
BC
330
1F
100
AcDbEntity
  8
图层 03
100
AcDbSpline
210
0.0
220
0.0
230
1.0
 70
     8
 71
     3
 72
     8
 73
     4
 74
     0
 42
0.0000000001
 43
0.0000000001
 40
588.4136135080817
 40
588.4136135080817
 40
588.4136135080817
 40
588.4136135080817
 40
613.3876679313987
 40
613.3876679313987
 40
613.3876679313987
 40
613.3876679313987
 10
4558.106525310882
 20
-530.961351384324
 30
-0.0000000000004832
 10
4558.008782747002
 20
-529.0214289141695
 30
-0.0000000000004832
 10
4557.933684658351
 20
-527.0830739235664
 30
-0.0000000000004832
 10
4557.881297509226
 20
-525.1439485361152
 30
-0.0000000000004832
  0
SPLINE
  5
BD
330
1F
100
AcDbEntity
  8
图层 03
100
AcDbSpline
210
0.0
220
0.0
230
1.0
 70
     8
 71
     3
 72
     8
 73
     4
 74
     0
 42
0.0000000001
 43
0.0000000001
 40
613.3876679313987
 40
613.3876679313987
 40
613.3876679313987
 40
613.3876679313987
 40
636.7097688745386
 40
636.7097688745386
 40
636.7097688745386
 40
636.7097688745386
 10
4557.881297509226
 20
-525.1439485361152
 30
-0.0000000000004832
 10
4557.378644577528
 20
-523.3820444780472
 30
-0.0000000000004832
 10
4556.878497215537
 20
-521.6195070641079
 30
-0.0000000000004832
 10
4556.380901752065
 20
-519.8563503703863
 30
-0.0000000000004832
  0
SPLINE
  5
BE
330
1F
100
AcDbEntity
  8
图层 03
100
AcDbSpline
210
0.0
220
0.0
230
1.0
 70
     8
 71
     3
 72
     8
 73
     4
 74
     0
 42
0.0000000001
 43
0.0000000001
 40
636.7097688745386
 40
636.7097688745386
 40
636.7097688745386
 40
636.7097688745386
 40
655.4947587811984
 40
655.4947587811984
 40
655.4947587811984
 40
655.4947587811984
 10
4556.380901752065
 20
-519.8563503703863
 30
-0.0000000000004832
 10
4555.509566644803
 20
-518.6591162219547
 30
-0.0000000000004832
 10
4554.638119981828
 20
-517.4619657709356
 30
-0.0000000000004832
 10
4553.766558245888
 20
-516.2649017728661
 30
-0.0000000000004832
  0
SPLINE
  5
BF
330
1F
100
AcDbEntity
  8
图层 03
100
AcDbSpline
210
0.0
220
0.0
230
1.0
 70
     8
 71
     3
 72
    11
 73
     7
 74
     0
 42
0.0000000001
 43
0.0000000001
 40
655.4947587811984
 40
655.4947587811984
 40
655.4947587811984
 40
655.4947587811984
 40
659.6673272918209
 40
659.6673272918209
 40
659.6673272918209
 40
669.968891393441
 40
669.968891393441
 40
669.968891393441
 40
669.968891393441
 10
4553.766558245888
 20
-516.2649017728661
 30
-0.0000000000004832
 10
4553.463726263997
 20
-516.1631309945942
 30
-0.0000000000004832
 10
4553.161686085336
 20
-516.0585215396259
 30
-0.0000000000004832
 10
4552.86041930196
 20
-515.951047112587
 30
-0.0000000000004832
 10
4552.118952374914
 20
-515.6790679134037
 30
-0.0000000000004832
 10
4551.381085922355
 20
-515.3915891942768
 30
-0.0000000000004832
 10
4550.649822568704
 20
-515.0874714010247
 30
-0.0000000000004832
  0
SPLINE
  5
C0
330
1F
100
AcDbEntity
  8
图层 03
100
AcDbSpline
210
0.0
220
0.0
230
1.0
 70
     8
 71
     3
 72
     8
 73
     4
 74
     0
 42
0.0000000001
 43
0.0000000001
 40
669.968891393441
 40
669.968891393441
 40
669.968891393441
 40
669.968891393441
 40
684.5802510210308
 40
684.5802510210308
 40
684.5802510210308
 40
684.5802510210308
 10
4550.649822568704
 20
-515.0874714010247
 30
-0.0000000000004832
 10
4549.670348442067
 20
-515.5458529044431
 30
-0.0000000000004832
 10
4548.679600459069
 20
-515.9672904053382
 30
-0.0000000000004832
 10
4547.668151645426
 20
-516.3533825910431
 30
-0.0000000000004832
  0
SPLINE
  5
C1
330
1F
100
AcDbEntity
  8
图层 03
100
AcDbSpline
210
0.0
220
0.0
230
1.0
 70
     8
 71
     3
 72
     8
 73
     4
 74
     0
 42
0.0000000001
 43
0.0000000001
 40
684.5802510210308
 40
684.5802510210308
 40
684.5802510210308
 40
684.5802510210308
 40
702.6285859823034
 40
702.6285859823034
 40
702.6285859823034
 40
702.6285859823034
 10
4547.668151645426
 20
-516.3533825910429
 30
-0.0000000000004832
 10
4546.762937702874
 20
-517.345296617314
 30
-0.0000000000004832
 10
4545.848148568541
 20
-518.3182863380725
 30
-0.0000000000004832
 10
4544.915562733857
 20
-519.2826435527779
 30
-0.0000000000004832
  0
SPLINE
  5
C2
330
1F
100
AcDbEntity
  8
图层 03
100
AcDbSpline
210
0.0
220
0.0
230
1.0
 70
     8
 71
     3
 72
     8
 73
     4
 74
     0
 42
0.0000000001
 43
0.0000000001
 40
702.6285859823034
 40
702.6285859823034
 40
702.6285859823034
 40
702.6285859823034
 40
717.0806398185854
 40
717.0806398185854
 40
717.0806398185854
 40
717.0806398185854
 10
4544.915562733857
 20
-519.2826435527779
 30
-0.0000000000004832
 10
4544.338795413615
 20
-520.198140151118
 30
-0.0000000000004832
 10
4543.759796879983
 20
-521.1120751468247
 30
-0.0000000000004832
 10
4543.178577391056
 20
-522.0244091509173
 30
-0.0000000000004832
  0
SPLINE
  5
C3
330
1F
100
AcDbEntity
  8
图层 03
100
AcDbSpline
210
0.0
220
0.0
230
1.0
 70
     8
 71
     3
 72
     8
 73
     4
 74
     0
 42
0.0000000001
 43
0.0000000001
 40
717.0806398185854
 40
717.0806398185854
 40
717.0806398185854
 40
717.0806398185854
 40
723.2732451566196
 40
723.2732451566196
 40
723.2732451566196
 40
723.2732451566196
 10
4543.178577391056
 20
-522.0244091509173
 30
-0.0000000000004832
 10
4542.96083026768
 20
-522.4359251966507
 30
-0.0000000000004832
 10
4542.742131868772
 20
-522.846870217189
 30
-0.0000000000004832
 10
4542.522503812617
 20
-523.2572401924192
 30
-0.0000000000004832
  0
SPLINE
  5
C4
330
1F
100
AcDbEntity
  8
图层 03
100
AcDbSpline
210
0.0
220
0.0
230
1.0
 70
     8
 71
     3
 72
     8
 73
     4
 74
     0
 42
0.0000000001
 43
0.0000000001
 40
723.2732451566196
 40
723.2732451566196
 40
723.2732451566196
 40
723.2732451566196
 40
744.7900699280453
 40
744.7900699280453
 40
744.7900699280453
 40
744.7900699280453
 10
4542.522503812617
 20
-523.2572401924192
 30
-0.0000000000004832
 10
4541.883751553467
 20
-524.7522232471265
 30
-0.0000000000004832
 10
4541.238078396993
 20
-526.2437938580417
 30
-0.0000000000004832
 10
4540.585357260054
 20
-527.7316459067756
 30
-0.0000000000004832
  0
SPLINE
  5
C5
330
1F
100
AcDbEntity
  8
图层 03
100
AcDbSpline
210
0.0
220
0.0
230
1.0
 70
     8
 71
     3
 72
     8
 73
     4
 74
     0
 42
0.0000000001
 43
0.0000000001
 40
744.7900699280453
 40
744.7900699280453
 40
744.7900699280453
 40
744.7900699280453
 40
764.6277887036654
 40
764.6277887036654
 40
764.6277887036654
 40
764.6277887036654
 10
4540.585357260054
 20
-527.7316459067756
 30
-0.0000000000004832
 10
4540.03457873226
 20
-529.1284914394978
 30
-0.0000000000004832
 10
4539.47878991113
 20
-530.52302333941
 30
-0.0000000000004832
 10
4538.917805524427
 20
-531.9150193849446
 30
-0.0000000000004832
  0
SPLINE
  5
C6
330
1F
100
AcDbEntity
  8
图层 03
100
AcDbSpline
210
0.0
220
0.0
230
1.0
 70
     8
 71
     3
 72
     8
 73
     4
 74
     0
 42
0.0000000001
 43
0.0000000001
 40
764.6277887036654
 40
764.6277887036654
 40
764.6277887036654
 40
764.6277887036654
 40
782.7269312109418
 40
782.7269312109418
 40
782.7269312109418
 40
782.7269312109418
 10
4538.917805524427
 20
-531.9150193849446
 30
-0.0000000000004832
 10
4538.538571196137
 20
-533.2403496013617
 30
-0.0000000000004832
 10
4538.158795617504
 20
-534.5654863049047
 30
-0.0000000000004832
 10
4537.778374147349
 20
-535.8903901765393
 30
-0.0000000000004832
  0
SPLINE
  5
C7
330
1F
100
AcDbEntity
  8
图层 03
100
AcDbSpline
210
0.0
220
0.0
230
1.0
 70
    11
 71
     3
 72
    29
 73
    25
 74
     0
 42
0.0000000001
 43
0.0000000001
 40
-15.70796326794897
 40
-15.70796326794897
 40
-15.70796326794897
 40
-15.70796326794897
 40
-14.72621556370216
 40
-13.74446785945534
 40
-12.76272015520853
 40
-12.27184630308513
 40
-11.78097245096172
 40
-11.29009859883832
 40
-10.79922474671491
 40
-9.817477042468102
 40
-8.835729338221292
 40
-8.344855486097888
 40
-7.853981633974483
 40
-7.363107781851078
 40
-6.872233929727672
 40
-5.890486225480862
 40
-4.908738521234051
 40
-4.417864669110646
 40
-3.926990816987241
 40
-3.436116964863836
 40
-2.945243112740431
 40
-1.963495408493621
 40
-0.9817477042468103
 40
0.0
 40
0.0
 40
0.0
 40
0.0
 10
4550.005116047503
 20
-536.9285049705309
 30
-0.0000000000004832
 10
4550.005116047498
 20
-537.2812825414696
 30
-0.0000000000004832
 10
4549.876882226023
 20
-538.0462555570491
 30
-0.0000000000004832
 10
4549.18947514482
 20
-539.1129163334233
 30
-0.0000000000004832
 10
4548.301442141699
 20
-539.6863452170714
 30
-0.0000000000004832
 10
4547.547020411382
 20
-539.8968018001638
 30
-0.0000000000004832
 10
4547.005112873791
 20
-539.9443598911844
 30
-0.0000000000004832
 10
4546.463224378473
 20
-539.8967884582839
 30
-0.0000000000004832
 10
4545.708726479064
 20
-539.6864208210568
 30
-0.0000000000004832
 10
4544.821017390891
 20
-539.1126038308403
 30
-0.0000000000004832
 10
4544.247199867979
 20
-538.2248942568749
 30
-0.0000000000004832
 10
4544.036833515009
 20
-537.4703974360982
 30
-0.0000000000004832
 10
4543.98925731375
 20
-536.9285049705311
 30
-0.0000000000004832
 10
4544.036833515009
 20
-536.3866125049633
 30
-0.0000000000004832
 10
4544.24719986798
 20
-535.6321156841864
 30
-0.0000000000004832
 10
4544.82101739089
 20
-534.7444061102212
 30
-0.0000000000004832
 10
4545.708726479064
 20
-534.1705891200054
 30
-0.0000000000004832
 10
4546.463224378473
 20
-533.9602214827778
 30
-0.0000000000004832
 10
4547.005112873791
 20
-533.9126500498778
 30
-0.0000000000004832
 10
4547.547020411381
 20
-533.9602081408975
 30
-0.0000000000004832
 10
4548.3014421417
 20
-534.1706647239903
 30
-0.0000000000004832
 10
4549.189475144819
 20
-534.7440936076384
 30
-0.0000000000004832
 10
4549.876882226023
 20
-535.8107543840131
 30
-0.0000000000004832
 10
4550.005116047498
 20
-536.575727399591
 30
-0.0000000000004832
 10
4550.005116047503
 20
-536.9285049705309
 30
-0.0000000000004832
  0
SPLINE
  5
C8
330
1F
100
AcDbEntity
  8
图层 03
100
AcDbSpline
210
0.0
220
0.0
230
1.0
 70
    11
 71
     3
 72
    29
 73
    25
 74
     0
 42
0.0000000001
 43
0.0000000001
 40
-15.70796326794897
 40
-15.70796326794897
 40
-15.70796326794897
 40
-15.70796326794897
 40
-14.72621556370216
 40
-13.74446785945534
 40
-12.76272015520853
 40
-12.27184630308513
 40
-11.78097245096172
 40
-11.29009859883832
 40
-10.79922474671491
 40
-9.817477042468102
 40
-8.835729338221292
 40
-8.344855486097888
 40
-7.853981633974483
 40
-7.363107781851078
 40
-6.872233929727672
 40
-5.890486225480862
 40
-4.908738521234051
 40
-4.417864669110646
 40
-3.926990816987241
 40
-3.436116964863836
 40
-2.945243112740431
 40
-1.963495408493621
 40
-0.9817477042468103
 40
0.0
 40
0.0
 40
0.0
 40
0.0
 10
4586.05006552645
 20
-296.6956959790855
 30
-0.0000000000004832
 10
4586.050065526444
 20
-297.0484735500245
 30
-0.0000000000004832
 10
4585.921831704969
 20
-297.813446565604
 30
-0.0000000000004832
 10
4585.234424623766
 20
-298.8801073419779
 30
-0.0000000000004832
 10
4584.346391620646
 20
-299.4535362256267
 30
-0.0000000000004832
 10
4583.591969890328
 20
-299.6639928087183
 30
-0.0000000000004832
 10
4583.050062352737
 20
-299.7115508997394
 30
-0.0000000000004832
 10
4582.508173857419
 20
-299.6639794668386
 30
-0.0000000000004832
 10
4581.753675958011
 20
-299.4536118296112
 30
-0.0000000000004832
 10
4580.865966869836
 20
-298.8797948393953
 30
-0.0000000000004832
 10
4580.292149346927
 20
-297.9920852654293
 30
-0.0000000000004832
 10
4580.081782993955
 20
-297.2375884446531
 30
-0.0000000000004832
 10
4580.034206792697
 20
-296.6956959790856
 30
-0.0000000000004832
 10
4580.081782993954
 20
-296.1538035135184
 30
-0.0000000000004832
 10
4580.292149346927
 20
-295.3993066927405
 30
-0.0000000000004832
 10
4580.865966869836
 20
-294.5115971187763
 30
-0.0000000000004832
 10
4581.753675958011
 20
-293.9377801285598
 30
-0.0000000000004832
 10
4582.508173857419
 20
-293.7274124913323
 30
-0.0000000000004832
 10
4583.050062352737
 20
-293.6798410584322
 30
-0.0000000000004832
 10
4583.591969890327
 20
-293.7273991494526
 30
-0.0000000000004832
 10
4584.346391620647
 20
-293.9378557325451
 30
-0.0000000000004832
 10
4585.234424623765
 20
-294.5112846161923
 30
-0.0000000000004832
 10
4585.92183170497
 20
-295.5779453925688
 30
-0.0000000000004832
 10
4586.050065526444
 20
-296.3429184081451
 30
-0.0000000000004832
 10
4586.05006552645
 20
-296.6956959790855
 30
-0.0000000000004832
  0
SPLINE
  5
C9
330
1F
100
AcDbEntity
  8
图层 03
100
AcDbSpline
210
0.0
220
0.0
230
1.0
 70
    11
 71
     3
 72
    29
 73
    25
 74
     0
 42
0.0000000001
 43
0.0000000001
 40
-15.70796326794897
 40
-15.70796326794897
 40
-15.70796326794897
 40
-15.70796326794897
 40
-14.72621556370216
 40
-13.74446785945534
 40
-12.76272015520853
 40
-12.27184630308513
 40
-11.78097245096172
 40
-11.29009859883832
 40
-10.79922474671491
 40
-9.817477042468102
 40
-8.835729338221292
 40
-8.344855486097888
 40
-7.853981633974483
 40
-7.363107781851078
 40
-6.872233929727672
 40
-5.890486225480862
 40
-4.908738521234051
 40
-4.417864669110646
 40
-3.926990816987241
 40
-3.436116964863836
 40
-2.945243112740431
 40
-1.963495408493621
 40
-0.9817477042468103
 40
0.0
 40
0.0
 40
0.0
 40
0.0
 10
4677.784423830311
 20
-240.3543468750735
 30
-0.0000000000004832
 10
4677.784423830306
 20
-240.7071244460128
 30
-0.0000000000004832
 10
4677.656190008831
 20
-241.4720974615916
 30
-0.0000000000004832
 10
4676.968782927626
 20
-242.5387582379662
 30
-0.0000000000004832
 10
4676.080749924507
 20
-243.1121871216146
 30
-0.0000000000004832
 10
4675.326328194189
 20
-243.3226437047065
 30
-0.0000000000004832
 10
4674.784420656599
 20
-243.3702017957273
 30
-0.0000000000004832
 10
4674.242532161281
 20
-243.3226303628263
 30
-0.0000000000004832
 10
4673.488034261873
 20
-243.1122627255991
 30
-0.0000000000004832
 10
4672.600325173698
 20
-242.5384457353834
 30
-0.0000000000004832
 10
4672.026507650788
 20
-241.6507361614172
 30
-0.0000000000004832
 10
4671.816141297816
 20
-240.8962393406409
 30
-0.0000000000004832
 10
4671.768565096558
 20
-240.3543468750738
 30
-0.0000000000004832
 10
4671.816141297816
 20
-239.8124544095064
 30
-0.0000000000004832
 10
4672.026507650788
 20
-239.0579575887286
 30
-0.0000000000004832
 10
4672.600325173698
 20
-238.170248014764
 30
-0.0000000000004832
 10
4673.488034261873
 20
-237.5964310245479
 30
-0.0000000000004832
 10
4674.24253216128
 20
-237.3860633873204
 30
-0.0000000000004832
 10
4674.784420656599
 20
-237.3384919544196
 30
-0.0000000000004832
 10
4675.326328194189
 20
-237.3860500454401
 30
-0.0000000000004832
 10
4676.080749924507
 20
-237.5965066285322
 30
-0.0000000000004832
 10
4676.968782927626
 20
-238.1699355121808
 30
-0.0000000000004832
 10
4677.656190008831
 20
-239.2365962885556
 30
-0.0000000000004832
 10
4677.784423830306
 20
-240.0015693041343
 30
-0.0000000000004832
 10
4677.784423830311
 20
-240.3543468750735
 30
-0.0000000000004832
  0
SPLINE
  5
CA
330
1F
100
AcDbEntity
  8
图层 03
100
AcDbSpline
210
0.0
220
0.0
230
1.0
 70
    11
 71
     3
 72
    29
 73
    25
 74
     0
 42
0.0000000001
 43
0.0000000001
 40
-15.70796326794897
 40
-15.70796326794897
 40
-15.70796326794897
 40
-15.70796326794897
 40
-14.72621556370216
 40
-13.74446785945534
 40
-12.76272015520853
 40
-12.27184630308513
 40
-11.78097245096172
 40
-11.29009859883832
 40
-10.79922474671491
 40
-9.817477042468102
 40
-8.835729338221292
 40
-8.344855486097888
 40
-7.853981633974483
 40
-7.363107781851078
 40
-6.872233929727672
 40
-5.890486225480862
 40
-4.908738521234051
 40
-4.417864669110646
 40
-3.926990816987241
 40
-3.436116964863836
 40
-2.945243112740431
 40
-1.963495408493621
 40
-0.9817477042468103
 40
0.0
 40
0.0
 40
0.0
 40
0.0
 10
4701.641028941242
 20
-331.1498451317469
 30
-0.0000000000004832
 10
4701.641028941236
 20
-331.5026227026871
 30
-0.0000000000004832
 10
4701.512795119761
 20
-332.2675957182644
 30
-0.0000000000004832
 10
4700.825388038557
 20
-333.33425649464
 30
-0.0000000000004832
 10
4699.937355035438
 20
-333.9076853782876
 30
-0.0000000000004832
 10
4699.182933305119
 20
-334.11814196138
 30
-0.0000000000004832
 10
4698.641025767529
 20
-334.1657000524006
 30
-0.0000000000004832
 10
4698.099137272211
 20
-334.1181286194999
 30
-0.0000000000004832
 10
4697.344639372803
 20
-333.9077609822724
 30
-0.0000000000004832
 10
4696.456930284628
 20
-333.3339439920568
 30
-0.0000000000004832
 10
4695.883112761718
 20
-332.4462344180911
 30
-0.0000000000004832
 10
4695.672746408746
 20
-331.6917375973147
 30
-0.0000000000004832
 10
4695.625170207489
 20
-331.149845131747
 30
-0.0000000000004832
 10
4695.672746408746
 20
-330.6079526661797
 30
-0.0000000000004832
 10
4695.883112761719
 20
-329.8534558454026
 30
-0.0000000000004832
 10
4696.456930284628
 20
-328.9657462714379
 30
-0.0000000000004832
 10
4697.344639372803
 20
-328.3919292812213
 30
-0.0000000000004832
 10
4698.099137272211
 20
-328.1815616439944
 30
-0.0000000000004832
 10
4698.641025767529
 20
-328.1339902110934
 30
-0.0000000000004832
 10
4699.182933305119
 20
-328.1815483021145
 30
-0.0000000000004832
 10
4699.937355035438
 20
-328.3920048852065
 30
-0.0000000000004832
 10
4700.825388038556
 20
-328.9654337688546
 30
-0.0000000000004832
 10
4701.512795119761
 20
-330.0320945452297
 30
-0.0000000000004832
 10
4701.641028941236
 20
-330.7970675608078
 30
-0.0000000000004832
 10
4701.641028941242
 20
-331.1498451317469
 30
-0.0000000000004832
  0
SPLINE
  5
CB
330
1F
100
AcDbEntity
  8
图层 03
100
AcDbSpline
210
0.0
220
0.0
230
1.0
 70
     8
 71
     3
 72
     8
 73
     4
 74
     0
 42
0.0000000001
 43
0.0000000001
 40
2913.79430719073
 40
2913.79430719073
 40
2913.79430719073
 40
2913.79430719073
 40
2945.862913944052
 40
2945.862913944052
 40
2945.862913944052
 40
2945.862913944052
 10
4576.104735996771
 20
-242.1704938604535
 30
-0.0000000000004832
 10
4575.071172596836
 20
-244.3076419941405
 30
-0.0000000000004832
 10
4574.048933010876
 20
-246.5949069204723
 30
-0.0000000000004832
 10
4573.10918097135
 20
-248.7816522393513
 30
-0.0000000000004832
  0
SPLINE
  5
CC
330
1F
100
AcDbEntity
  8
图层 03
100
AcDbSpline
210
0.0
220
0.0
230
1.0
 70
     8
 71
     3
 72
     8
 73
     4
 74
     0
 42
0.0000000001
 43
0.0000000001
 40
2945.862913944052
 40
2945.862913944052
 40
2945.862913944052
 40
2945.862913944052
 40
2959.788398343494
 40
2959.788398343494
 40
2959.788398343494
 40
2959.788398343494
 10
4573.10918097135
 20
-248.7816522393513
 30
-0.0000000000004832
 10
4572.821091743073
 20
-249.8026598382852
 30
-0.0000000000004832
 10
4572.539404576645
 20
-250.8259973966553
 30
-0.0000000000004832
 10
4572.263057938082
 20
-251.8510602934269
 30
-0.0000000000004832
  0
SPLINE
  5
CD
330
1F
100
AcDbEntity
  8
图层 03
100
AcDbSpline
210
0.0
220
0.0
230
1.0
 70
     8
 71
     3
 72
     8
 73
     4
 74
     0
 42
0.0000000001
 43
0.0000000001
 40
2959.788398343494
 40
2959.788398343494
 40
2959.788398343494
 40
2959.788398343494
 40
2981.889578666507
 40
2981.889578666507
 40
2981.889578666507
 40
2981.889578666507
 10
4572.263057938082
 20
-251.8510602934269
 30
-0.0000000000004832
 10
4571.673581157385
 20
-253.4183966838335
 30
-0.0000000000004832
 10
4571.082135177169
 20
-254.9848496093327
 30
-0.0000000000004832
 10
4570.489132679282
 20
-256.5505908223195
 30
-0.0000000000004832
  0
SPLINE
  5
CE
330
1F
100
AcDbEntity
  8
图层 03
100
AcDbSpline
210
0.0
220
0.0
230
1.0
 70
     8
 71
     3
 72
     8
 73
     4
 74
     0
 42
0.0000000001
 43
0.0000000001
 40
2981.889578666507
 40
2981.889578666507
 40
2981.889578666507
 40
2981.889578666507
 40
3015.111234810053
 40
3015.111234810053
 40
3015.111234810053
 40
3015.111234810053
 10
4570.489132679282
 20
-256.5505908223195
 30
-0.0000000000004832
 10
4569.890156935387
 20
-259.0159145233819
 30
-0.0000000000004832
 10
4569.285073890151
 20
-261.4793443778372
 30
-0.0000000000004832
 10
4568.674860570388
 20
-263.9411013449997
 30
-0.0000000000004832
  0
SPLINE
  5
CF
330
1F
100
AcDbEntity
  8
图层 03
100
AcDbSpline
210
0.0
220
0.0
230
1.0
 70
     8
 71
     3
 72
     8
 73
     4
 74
     0
 42
0.0000000001
 43
0.0000000001
 40
3015.111234810053
 40
3015.111234810053
 40
3015.111234810053
 40
3015.111234810053
 40
3045.250253513878
 40
3045.250253513878
 40
3045.250253513878
 40
3045.250253513878
 10
4568.674860570388
 20
-263.9411013449997
 30
-0.0000000000004832
 10
4568.41153697771
 20
-266.2465703713831
 30
-0.0000000000004832
 10
4568.150305129971
 20
-268.5524183868047
 30
-0.0000000000004832
 10
4567.8910957786
 20
-270.8586211486999
 30
-0.0000000000004832
  0
SPLINE
  5
D0
330
1F
100
AcDbEntity
  8
图层 03
100
AcDbSpline
210
0.0
220
0.0
230
1.0
 70
     8
 71
     3
 72
     8
 73
     4
 74
     0
 42
0.0000000001
 43
0.0000000001
 40
3045.250253513878
 40
3045.250253513878
 40
3045.250253513878
 40
3045.250253513878
 40
3056.920635713017
 40
3056.920635713017
 40
3056.920635713017
 40
3056.920635713017
 10
4567.8910957786
 20
-270.8586211486999
 30
-0.0000000000004832
 10
4567.881779297774
 20
-271.7628813082995
 30
-0.0000000000004832
 10
4567.873683888238
 20
-272.667229621293
 30
-0.0000000000004832
 10
4567.866817152295
 20
-273.5716560269692
 30
-0.0000000000004832
  0
SPLINE
  5
D1
330
1F
100
AcDbEntity
  8
图层 03
100
AcDbSpline
210
0.0
220
0.0
230
1.0
 70
     8
 71
     3
 72
     8
 73
     4
 74
     0
 42
0.0000000001
 43
0.0000000001
 40
3056.920635713017
 40
3056.920635713017
 40
3056.920635713017
 40
3056.920635713017
 40
3076.503432015048
 40
3076.503432015048
 40
3076.503432015048
 40
3076.503432015048
 10
4567.866817152295
 20
-273.5716560269692
 30
-0.0000000000004832
 10
4567.777849590353
 20
-275.0819757880339
 30
-0.0000000000004832
 10
4567.695015140562
 20
-276.5930836725381
 30
-0.0000000000004832
 10
4567.618405008599
 20
-278.1048293776157
 30
-0.0000000000004832
  0
SPLINE
  5
D2
330
1F
100
AcDbEntity
  8
图层 03
100
AcDbSpline
210
0.0
220
0.0
230
1.0
 70
     8
 71
     3
 72
     8
 73
     4
 74
     0
 42
0.0000000001
 43
0.0000000001
 40
3076.503432015048
 40
3076.503432015048
 40
3076.503432015048
 40
3076.503432015048
 40
3112.364596748719
 40
3112.364596748719
 40
3112.364596748719
 40
3112.364596748719
 10
4567.618405008599
 20
-278.1048293776157
 30
-0.0000000000004832
 10
4567.681549112342
 20
-280.8882285555997
 30
-0.0000000000004832
 10
4567.760226953218
 20
-283.6723216391836
 30
-0.0000000000004832
 10
4567.854888704249
 20
-286.4565530504308
 30
-0.0000000000004832
  0
SPLINE
  5
D3
330
1F
100
AcDbEntity
  8
图层 03
100
AcDbSpline
210
0.0
220
0.0
230
1.0
 70
     8
 71
     3
 72
     8
 73
     4
 74
     0
 42
0.0000000001
 43
0.0000000001
 40
3112.364596748719
 40
3112.364596748719
 40
3112.364596748719
 40
3112.364596748719
 40
3154.974247670647
 40
3154.974247670647
 40
3154.974247670647
 40
3154.974247670647
 10
4567.854888704249
 20
-286.4565530504308
 30
-0.0000000000004832
 10
4568.089088262413
 20
-289.7652151975751
 30
-0.0000000000004832
 10
4568.331296054756
 20
-293.0737778423502
 30
-0.0000000000004832
 10
4568.581746033638
 20
-296.3821083237056
 30
-0.0000000000004832
  0
SPLINE
  5
D4
330
1F
100
AcDbEntity
  8
图层 03
100
AcDbSpline
210
0.0
220
0.0
230
1.0
 70
     8
 71
     3
 72
     8
 73
     4
 74
     0
 42
0.0000000001
 43
0.0000000001
 40
3154.974247670647
 40
3154.974247670647
 40
3154.974247670647
 40
3154.974247670647
 40
3199.224185974643
 40
3199.224185974643
 40
3199.224185974643
 40
3199.224185974643
 10
4568.581746033638
 20
-296.3821083237056
 30
-0.0000000000004832
 10
4569.151232659142
 20
-299.795846264737
 30
-0.0000000000004832
 10
4569.710227721398
 20
-303.2109077082362
 30
-0.0000000000004832
 10
4570.258437373881
 20
-306.627108070407
 30
-0.0000000000004832
  0
SPLINE
  5
D5
330
1F
100
AcDbEntity
  8
图层 03
100
AcDbSpline
210
0.0
220
0.0
230
1.0
 70
     8
 71
     3
 72
     8
 73
     4
 74
     0
 42
0.0000000001
 43
0.0000000001
 40
3199.224185974643
 40
3199.224185974643
 40
3199.224185974643
 40
3199.224185974643
 40
3238.935557554971
 40
3238.935557554971
 40
3238.935557554971
 40
3238.935557554971
 10
4570.258437373881
 20
-306.627108070407
 30
-0.0000000000004832
 10
4571.312348684443
 20
-309.569780110684
 30
-0.0000000000004832
 10
4572.335049522203
 20
-312.5225507571697
 30
-0.0000000000004832
 10
4573.325644105067
 20
-315.4853186857736
 30
-0.0000000000004832
  0
SPLINE
  5
D6
330
1F
100
AcDbEntity
  8
图层 03
100
AcDbSpline
210
0.0
220
0.0
230
1.0
 70
     8
 71
     3
 72
     8
 73
     4
 74
     0
 42
0.0000000001
 43
0.0000000001
 40
3238.935557554971
 40
3238.935557554971
 40
3238.935557554971
 40
3238.935557554971
 40
3257.012217340367
 40
3257.012217340367
 40
3257.012217340367
 40
3257.012217340367
 10
4573.325644105067
 20
-315.4853186857736
 30
-0.0000000000004832
 10
4574.248502055533
 20
-316.5680473788432
 30
-0.0000000000004832
 10
4575.16098745477
 20
-317.6602507551395
 30
-0.0000000000004832
 10
4576.06224055293
 20
-318.7619094030313
 30
-0.0000000000004832
  0
SPLINE
  5
D7
330
1F
100
AcDbEntity
  8
图层 03
100
AcDbSpline
210
0.0
220
0.0
230
1.0
 70
     8
 71
     3
 72
     8
 73
     4
 74
     0
 42
0.0000000001
 43
0.0000000001
 40
3257.012217340367
 40
3257.012217340367
 40
3257.012217340367
 40
3257.012217340367
 40
3271.023644560841
 40
3271.023644560841
 40
3271.023644560841
 40
3271.023644560841
 10
4576.06224055293
 20
-318.7619094030313
 30
-0.0000000000004832
 10
4576.745004179111
 20
-319.6291143886267
 30
-0.0000000000004832
 10
4577.423662388614
 20
-320.4997469102141
 30
-0.0000000000004832
 10
4578.098140636475
 20
-321.3736420939581
 30
-0.0000000000004832
  0
SPLINE
  5
D8
330
1F
100
AcDbEntity
  8
图层 03
100
AcDbSpline
210
0.0
220
0.0
230
1.0
 70
     8
 71
     3
 72
     8
 73
     4
 74
     0
 42
0.0000000001
 43
0.0000000001
 40
3271.023644560841
 40
3271.023644560841
 40
3271.023644560841
 40
3271.023644560841
 40
3301.416796847344
 40
3301.416796847344
 40
3301.416796847344
 40
3301.416796847344
 10
4578.098140636475
 20
-321.3736420939581
 30
-0.0000000000004832
 10
4580.32708418654
 20
-322.0188381835104
 30
-0.0000000000004832
 10
4582.552345531603
 20
-322.6818966283281
 30
-0.0000000000004832
 10
4584.773100878477
 20
-323.3625864678024
 30
-0.0000000000004832
  0
SPLINE
  5
D9
330
1F
100
AcDbEntity
  8
图层 03
100
AcDbSpline
210
0.0
220
0.0
230
1.0
 70
     8
 71
     3
 72
     8
 73
     4
 74
     0
 42
0.0000000001
 43
0.0000000001
 40
3301.416796847344
 40
3301.416796847344
 40
3301.416796847344
 40
3301.416796847344
 40
3336.58898568747
 40
3336.58898568747
 40
3336.58898568747
 40
3336.58898568747
 10
4584.773100878477
 20
-323.3625864678024
 30
-0.0000000000004832
 10
4587.373753571586
 20
-323.0292648081681
 30
-0.0000000000004832
 10
4589.978578382115
 20
-322.7182501371979
 30
-0.0000000000004832
 10
4592.586507172966
 20
-322.4296141384416
 30
-0.0000000000004832
  0
SPLINE
  5
DA
330
1F
100
AcDbEntity
  8
图层 03
100
AcDbSpline
210
0.0
220
0.0
230
1.0
 70
     8
 71
     3
 72
     8
 73
     4
 74
     0
 42
0.0000000001
 43
0.0000000001
 40
3336.58898568747
 40
3336.58898568747
 40
3336.58898568747
 40
3336.58898568747
 40
3373.198568398055
 40
3373.198568398055
 40
3373.198568398055
 40
3373.198568398055
 10
4592.586507172966
 20
-322.4296141384416
 30
-0.0000000000004832
 10
4595.194361437847
 20
-321.6775056023772
 30
-0.0000000000004832
 10
4597.821550890843
 20
-320.993196427348
 30
-0.0000000000004832
 10
4600.470370381543
 20
-320.3802796395337
 30
-0.0000000000004832
  0
SPLINE
  5
DB
330
1F
100
AcDbEntity
  8
图层 03
100
AcDbSpline
210
0.0
220
0.0
230
1.0
 70
     8
 71
     3
 72
     8
 73
     4
 74
     0
 42
0.0000000001
 43
0.0000000001
 40
3373.198568398055
 40
3373.198568398055
 40
3373.198568398055
 40
3373.198568398055
 40
3401.77113647966
 40
3401.77113647966
 40
3401.77113647966
 40
3401.77113647966
 10
4600.470370381543
 20
-320.3802796395337
 30
-0.0000000000004832
 10
4602.577703892886
 20
-320.0840316406237
 30
-0.0000000000004832
 10
4604.714916358686
 20
-320.0113954078355
 30
-0.0000000000004832
 10
4606.861924184187
 20
-320.2408504046965
 30
-0.0000000000004832
  0
SPLINE
  5
DC
330
1F
100
AcDbEntity
  8
图层 03
100
AcDbSpline
210
0.0
220
0.0
230
1.0
 70
     8
 71
     3
 72
     8
 73
     4
 74
     0
 42
0.0000000001
 43
0.0000000001
 40
3401.77113647966
 40
3401.77113647966
 40
3401.77113647966
 40
3401.77113647966
 40
3409.387862233154
 40
3409.387862233154
 40
3409.387862233154
 40
3409.387862233154
 10
4606.861924184187
 20
-320.2408504046965
 30
-0.0000000000004832
 10
4607.189287164838
 20
-320.7400610491342
 30
-0.0000000000004832
 10
4607.527449607531
 20
-321.2455471695137
 30
-0.0000000000004832
 10
4607.866505232092
 20
-321.7367431845099
 30
-0.0000000000004832
  0
SPLINE
  5
DD
330
1F
100
AcDbEntity
  8
图层 03
100
AcDbSpline
210
0.0
220
0.0
230
1.0
 70
     8
 71
     3
 72
     8
 73
     4
 74
     0
 42
0.0000000001
 43
0.0000000001
 40
3409.387862233154
 40
3409.387862233154
 40
3409.387862233154
 40
3409.387862233154
 40
3424.324432096665
 40
3424.324432096665
 40
3424.324432096665
 40
3424.324432096665
 10
4607.866505232092
 20
-321.7367431845099
 30
-0.0000000000004832
 10
4608.610935861649
 20
-322.6473032005471
 30
-0.0000000000004832
 10
4609.360115332061
 20
-323.5539251248183
 30
-0.0000000000004832
 10
4610.116162599881
 20
-324.4543449419281
 30
-0.0000000000004832
  0
SPLINE
  5
DE
330
1F
100
AcDbEntity
  8
图层 03
100
AcDbSpline
210
0.0
220
0.0
230
1.0
 70
     8
 71
     3
 72
     8
 73
     4
 74
     0
 42
0.0000000001
 43
0.0000000001
 40
3424.324432096665
 40
3424.324432096665
 40
3424.324432096665
 40
3424.324432096665
 40
3450.121857017384
 40
3450.121857017384
 40
3450.121857017384
 40
3450.121857017384
 10
4610.116162599881
 20
-324.4543449419281
 30
-0.0000000000004832
 10
4610.379430130139
 20
-326.4094700128946
 30
-0.0000000000004832
 10
4610.671189396312
 20
-328.4882267003782
 30
-0.0000000000004832
 10
4610.971547935891
 20
-330.4398452197725
 30
-0.0000000000004832
  0
SPLINE
  5
DF
330
1F
100
AcDbEntity
  8
图层 03
100
AcDbSpline
210
0.0
220
0.0
230
1.0
 70
     8
 71
     3
 72
     8
 73
     4
 74
     0
 42
0.0000000001
 43
0.0000000001
 40
3450.121857017384
 40
3450.121857017384
 40
3450.121857017384
 40
3450.121857017384
 40
3477.748260394953
 40
3477.748260394953
 40
3477.748260394953
 40
3477.748260394953
 10
4610.971547935891
 20
-330.4398452197725
 30
-0.0000000000004832
 10
4610.566280271216
 20
-332.5167802211614
 30
-0.0000000000004832
 10
4610.162083033378
 20
-334.5940005319785
 30
-0.0000000000004832
 10
4609.760154664197
 20
-336.6718140226699
 30
-0.0000000000004832
  0
SPLINE
  5
E0
330
1F
100
AcDbEntity
  8
图层 03
100
AcDbSpline
210
0.0
220
0.0
230
1.0
 70
     8
 71
     3
 72
     8
 73
     4
 74
     0
 42
0.0000000001
 43
0.0000000001
 40
3477.748260394953
 40
3477.748260394953
 40
3477.748260394953
 40
3477.748260394953
 40
3488.688877848652
 40
3488.688877848652
 40
3488.688877848652
 40
3488.688877848652
 10
4609.760154664197
 20
-336.6718140226699
 30
-0.0000000000004832
 10
4609.357109581068
 20
-337.3874378898981
 30
-0.0000000000004832
 10
4608.952998998087
 20
-338.1023846589143
 30
-0.0000000000004832
 10
4608.547695389832
 20
-338.8165582803836
 30
-0.0000000000004832
  0
SPLINE
  5
E1
330
1F
100
AcDbEntity
  8
图层 03
100
AcDbSpline
210
0.0
220
0.0
230
1.0
 70
     8
 71
     3
 72
     8
 73
     4
 74
     0
 42
0.0000000001
 43
0.0000000001
 40
3488.688877848652
 40
3488.688877848652
 40
3488.688877848652
 40
3488.688877848652
 40
3509.363986500456
 40
3509.363986500456
 40
3509.363986500456
 40
3509.363986500456
 10
4608.547695389832
 20
-338.8165582803836
 30
-0.0000000000004832
 10
4608.04345109608
 20
-340.3024409653689
 30
-0.0000000000004832
 10
4607.568879592054
 20
-341.8022435049122
 30
-0.0000000000004832
 10
4607.132497164736
 20
-343.3144381920429
 30
-0.0000000000004832
  0
SPLINE
  5
E2
330
1F
100
AcDbEntity
  8
图层 03
100
AcDbSpline
210
0.0
220
0.0
230
1.0
 70
     8
 71
     3
 72
     8
 73
     4
 74
     0
 42
0.0000000001
 43
0.0000000001
 40
3509.363986500456
 40
3509.363986500456
 40
3509.363986500456
 40
3509.363986500456
 40
3520.322970270041
 40
3520.322970270041
 40
3520.322970270041
 40
3520.322970270041
 10
4607.132497164736
 20
-343.3144381920429
 30
-0.0000000000004832
 10
4606.698232982503
 20
-344.0109226085992
 30
-0.0000000000004832
 10
4606.273039791435
 20
-344.7134100177287
 30
-0.0000000000004832
 10
4605.857070015196
 20
-345.4223498572093
 30
-0.0000000000004832
  0
SPLINE
  5
E3
330
1F
100
AcDbEntity
  8
图层 03
100
AcDbSpline
210
0.0
220
0.0
230
1.0
 70
     8
 71
     3
 72
     8
 73
     4
 74
     0
 42
0.0000000001
 43
0.0000000001
 40
3520.322970270041
 40
3520.322970270041
 40
3520.322970270041
 40
3520.322970270041
 40
3538.662558874289
 40
3538.662558874289
 40
3538.662558874289
 40
3538.662558874289
 10
4605.857070015196
 20
-345.4223498572093
 30
-0.0000000000004832
 10
4605.727374398984
 20
-346.8314281110659
 30
-0.0000000000004832
 10
4605.672496909337
 20
-348.2469936541631
 30
-0.0000000000004832
 10
4605.686829036863
 20
-349.6706821328016
 30
-0.0000000000004832
  0
SPLINE
  5
E4
330
1F
100
AcDbEntity
  8
图层 03
100
AcDbSpline
210
0.0
220
0.0
230
1.0
 70
     8
 71
     3
 72
     8
 73
     4
 74
     0
 42
0.0000000001
 43
0.0000000001
 40
3538.662558874289
 40
3538.662558874289
 40
3538.662558874289
 40
3538.662558874289
 40
3554.479352520269
 40
3554.479352520269
 40
3554.479352520269
 40
3554.479352520269
 10
4605.686829036863
 20
-349.6706821328016
 30
-0.0000000000004832
 10
4606.715719858435
 20
-350.3452814147309
 30
-0.0000000000004832
 10
4607.744951598674
 20
-351.0192937884844
 30
-0.0000000000004832
 10
4608.774482262423
 20
-351.6927874341726
 30
-0.0000000000004832
  0
SPLINE
  5
E5
330
1F
100
AcDbEntity
  8
图层 03
100
AcDbSpline
210
0.0
220
0.0
230
1.0
 70
     8
 71
     3
 72
     8
 73
     4
 74
     0
 42
0.0000000001
 43
0.0000000001
 40
3554.479352520269
 40
3554.479352520269
 40
3554.479352520269
 40
3554.479352520269
 40
3577.87498451907
 40
3577.87498451907
 40
3577.87498451907
 40
3577.87498451907
 10
4608.774482262423
 20
-351.6927874341726
 30
-0.0000000000004832
 10
4610.531056192312
 20
-351.7197004060268
 30
-0.0000000000004832
 10
4612.287539740715
 20
-351.7442772949046
 30
-0.0000000000004832
 10
4614.04390941862
 20
-351.7663925448001
 30
-0.0000000000004832
  0
SPLINE
  5
E6
330
1F
100
AcDbEntity
  8
图层 03
100
AcDbSpline
210
0.0
220
0.0
230
1.0
 70
     8
 71
     3
 72
     8
 73
     4
 74
     0
 42
0.0000000001
 43
0.0000000001
 40
3577.87498451907
 40
3577.87498451907
 40
3577.87498451907
 40
3577.87498451907
 40
3601.114116841479
 40
3601.114116841479
 40
3601.114116841479
 40
3601.114116841479
 10
4614.04390941862
 20
-351.7663925448001
 30
-0.0000000000004832
 10
4615.725501182886
 20
-351.3793247451891
 30
-0.0000000000004832
 10
4617.404097982635
 20
-350.9805154630701
 30
-0.0000000000004832
 10
4619.078858089195
 20
-350.5687848825748
 30
-0.0000000000004832
  0
SPLINE
  5
E7
330
1F
100
AcDbEntity
  8
图层 03
100
AcDbSpline
210
0.0
220
0.0
230
1.0
 70
     8
 71
     3
 72
     8
 73
     4
 74
     0
 42
0.0000000001
 43
0.0000000001
 40
3601.114116841479
 40
3601.114116841479
 40
3601.114116841479
 40
3601.114116841479
 40
3607.239498113066
 40
3607.239498113066
 40
3607.239498113066
 40
3607.239498113066
 10
4619.078858089195
 20
-350.5687848825748
 30
-0.0000000000004832
 10
4619.502688780765
 20
-350.4084751166354
 30
-0.0000000000004832
 10
4619.925185069358
 20
-350.2447234141591
 30
-0.0000000000004832
 10
4620.346225361887
 20
-350.0776465828749
 30
-0.0000000000004832
  0
SPLINE
  5
E8
330
1F
100
AcDbEntity
  8
图层 03
100
AcDbSpline
210
0.0
220
0.0
230
1.0
 70
     8
 71
     3
 72
     8
 73
     4
 74
     0
 42
0.0000000001
 43
0.0000000001
 40
3607.239498113066
 40
3607.239498113066
 40
3607.239498113066
 40
3607.239498113066
 40
3641.296912218091
 40
3641.296912218091
 40
3641.296912218091
 40
3641.296912218091
 10
4620.346225361887
 20
-350.0776465828749
 30
-0.0000000000004832
 10
4622.505618298285
 20
-348.7851089532946
 30
-0.0000000000004832
 10
4624.614634374598
 20
-347.4175165212139
 30
-0.0000000000004832
 10
4626.678917149218
 20
-345.9760834153919
 30
-0.0000000000004832
  0
SPLINE
  5
E9
330
1F
100
AcDbEntity
  8
图层 03
100
AcDbSpline
210
0.0
220
0.0
230
1.0
 70
     8
 71
     3
 72
     8
 73
     4
 74
     0
 42
0.0000000001
 43
0.0000000001
 40
3641.296912218091
 40
3641.296912218091
 40
3641.296912218091
 40
3641.296912218091
 40
3641.370111333288
 40
3641.370111333288
 40
3641.370111333288
 40
3641.370111333288
 10
4626.678917149218
 20
-345.9760834153919
 30
-0.0000000000004832
 10
4626.682917332959
 20
-345.9724231786183
 30
-0.0000000000004832
 10
4626.686917238076
 20
-345.9687626208171
 30
-0.0000000000004832
 10
4626.690916864382
 20
-345.9651017420399
 30
-0.0000000000004832
  0
SPLINE
  5
EA
330
1F
100
AcDbEntity
  8
图层 03
100
AcDbSpline
210
0.0
220
0.0
230
1.0
 70
     8
 71
     3
 72
     8
 73
     4
 74
     0
 42
0.0000000001
 43
0.0000000001
 40
3641.370111333288
 40
3641.370111333288
 40
3641.370111333288
 40
3641.370111333288
 40
3675.817233019937
 40
3675.817233019937
 40
3675.817233019937
 40
3675.817233019937
 10
4626.690916864382
 20
-345.9651017420399
 30
-0.0000000000004832
 10
4628.411729353122
 20
-344.0712350411246
 30
-0.0000000000004832
 10
4630.117209307939
 20
-342.1620615936054
 30
-0.0000000000004832
 10
4631.808680523516
 20
-340.2400869512246
 30
-0.0000000000004832
  0
SPLINE
  5
EB
330
1F
100
AcDbEntity
  8
图层 03
100
AcDbSpline
210
0.0
220
0.0
230
1.0
 70
     8
 71
     3
 72
     8
 73
     4
 74
     0
 42
0.0000000001
 43
0.0000000001
 40
3675.817233019937
 40
3675.817233019937
 40
3675.817233019937
 40
3675.817233019937
 40
3690.933291276398
 40
3690.933291276398
 40
3690.933291276398
 40
3690.933291276398
 10
4631.808680523516
 20
-340.2400869512246
 30
-0.0000000000004832
 10
4632.61072844228
 20
-339.4573803009023
 30
-0.0000000000004832
 10
4633.422124523935
 20
-338.6848510920944
 30
-0.0000000000004832
 10
4634.242106734584
 20
-337.9220757662088
 30
-0.0000000000004832
  0
SPLINE
  5
EC
330
1F
100
AcDbEntity
  8
图层 03
100
AcDbSpline
210
0.0
220
0.0
230
1.0
 70
     8
 71
     3
 72
     8
 73
     4
 74
     0
 42
0.0000000001
 43
0.0000000001
 40
3690.933291276398
 40
3690.933291276398
 40
3690.933291276398
 40
3690.933291276398
 40
3708.074221436041
 40
3708.074221436041
 40
3708.074221436041
 40
3708.074221436041
 10
4634.242106734584
 20
-337.9220757662088
 30
-0.0000000000004832
 10
4635.079113490725
 20
-336.9611632564261
 30
-0.0000000000004832
 10
4635.917942944639
 20
-336.0019563809016
 30
-0.0000000000004832
 10
4636.758496882145
 20
-335.0443973010813
 30
-0.0000000000004832
  0
SPLINE
  5
ED
330
1F
100
AcDbEntity
  8
图层 03
100
AcDbSpline
210
0.0
220
0.0
230
1.0
 70
     8
 71
     3
 72
     8
 73
     4
 74
     0
 42
0.0000000001
 43
0.0000000001
 40
3708.074221436041
 40
3708.074221436041
 40
3708.074221436041
 40
3708.074221436041
 40
3738.469303338299
 40
3738.469303338299
 40
3738.469303338299
 40
3738.469303338299
 10
4636.758496882145
 20
-335.0443973010813
 30
-0.0000000000004832
 10
4638.747652863764
 20
-334.0032773220947
 30
-0.0000000000004832
 10
4640.74610198713
 20
-332.9791741093003
 30
-0.0000000000004832
 10
4642.753229815731
 20
-331.9728472669824
 30
-0.0000000000004832
  0
SPLINE
  5
EE
330
1F
100
AcDbEntity
  8
图层 03
100
AcDbSpline
210
0.0
220
0.0
230
1.0
 70
     8
 71
     3
 72
     8
 73
     4
 74
     0
 42
0.0000000001
 43
0.0000000001
 40
3738.469303338299
 40
3738.469303338299
 40
3738.469303338299
 40
3738.469303338299
 40
3772.629434696817
 40
3772.629434696817
 40
3772.629434696817
 40
3772.629434696817
 10
4642.753229815731
 20
-331.9728472669824
 30
-0.0000000000004832
 10
4645.319449644139
 20
-332.0556676876623
 30
-0.0000000000004832
 10
4647.885650801531
 20
-332.137720825956
 30
-0.0000000000004832
 10
4650.451825159462
 20
-332.2187512412368
 30
-0.0000000000004832
  0
SPLINE
  5
EF
330
1F
100
AcDbEntity
  8
图层 03
100
AcDbSpline
210
0.0
220
0.0
230
1.0
 70
     8
 71
     3
 72
     8
 73
     4
 74
     0
 42
0.0000000001
 43
0.0000000001
 40
3772.629434696817
 40
3772.629434696817
 40
3772.629434696817
 40
3772.629434696817
 40
3811.666832761549
 40
3811.666832761549
 40
3811.666832761549
 40
3811.666832761549
 10
4650.451825159462
 20
-332.2187512412368
 30
-0.0000000000004832
 10
4653.314483459817
 20
-333.0488812570437
 30
-0.0000000000004832
 10
4656.177238588618
 20
-333.8785715495587
 30
-0.0000000000004832
 10
4659.040104451619
 20
-334.7077567029215
 30
-0.0000000000004832
  0
SPLINE
  5
F0
330
1F
100
AcDbEntity
  8
图层 03
100
AcDbSpline
210
0.0
220
0.0
230
1.0
 70
     8
 71
     3
 72
     8
 73
     4
 74
     0
 42
0.0000000001
 43
0.0000000001
 40
3811.666832761549
 40
3811.666832761549
 40
3811.666832761549
 40
3811.666832761549
 40
3852.009817695122
 40
3852.009817695122
 40
3852.009817695122
 40
3852.009817695122
 10
4659.040104451619
 20
-334.7077567029215
 30
-0.0000000000004832
 10
4661.920762258019
 20
-335.8523921984315
 30
-0.0000000000004832
 10
4664.800493731144
 20
-336.9998997349829
 30
-0.0000000000004832
 10
4667.679441147218
 20
-338.1497912790496
 30
-0.0000000000004832
  0
SPLINE
  5
F1
330
1F
100
AcDbEntity
  8
图层 03
100
AcDbSpline
210
0.0
220
0.0
230
1.0
 70
     8
 71
     3
 72
    11
 73
     7
 74
     0
 42
0.0000000001
 43
0.0000000001
 40
3852.009817695122
 40
3852.009817695122
 40
3852.009817695122
 40
3852.009817695122
 40
3855.782804091005
 40
3855.782804091005
 40
3855.782804091005
 40
3889.903983962828
 40
3889.903983962828
 40
3889.903983962828
 40
3889.903983962828
 10
4667.679441147218
 20
-338.1497912790496
 30
-0.0000000000004832
 10
4667.947027251474
 20
-338.2622731149957
 30
-0.0000000000004832
 10
4668.214575072334
 20
-338.3748656732671
 30
-0.0000000000004832
 10
4668.482085383109
 20
-338.4875658573455
 30
-0.0000000000004832
 10
4670.915061150907
 20
-339.4660682027975
 30
-0.0000000000004832
 10
4673.343684648227
 20
-340.4580622459165
 30
-0.0000000000004832
 10
4675.769499829779
 20
-341.4579029548645
 30
-0.0000000000004832
  0
SPLINE
  5
F2
330
1F
100
AcDbEntity
  8
图层 03
100
AcDbSpline
210
0.0
220
0.0
230
1.0
 70
     8
 71
     3
 72
     8
 73
     4
 74
     0
 42
0.0000000001
 43
0.0000000001
 40
3889.903983962828
 40
3889.903983962828
 40
3889.903983962828
 40
3889.903983962828
 40
3923.085647726375
 40
3923.085647726375
 40
3923.085647726375
 40
3923.085647726375
 10
4675.769499829779
 20
-341.4579029548645
 30
-0.0000000000004832
 10
4678.174627412025
 20
-342.2683564593111
 30
-0.0000000000004832
 10
4680.578366007579
 20
-343.1140245712197
 30
-0.0000000000004832
 10
4682.966911801344
 20
-343.9839359580576
 30
-0.0000000000004832
  0
SPLINE
  5
F3
330
1F
100
AcDbEntity
  8
图层 03
100
AcDbSpline
210
0.0
220
0.0
230
1.0
 70
     8
 71
     3
 72
     8
 73
     4
 74
     0
 42
0.0000000001
 43
0.0000000001
 40
3923.085647726375
 40
3923.085647726375
 40
3923.085647726375
 40
3923.085647726375
 40
3952.147602014375
 40
3952.147602014375
 40
3952.147602014375
 40
3952.147602014375
 10
4682.966911801344
 20
-343.9839359580576
 30
-0.0000000000004832
 10
4685.12268148253
 20
-344.4726672075788
 30
-0.0000000000004832
 10
4687.271584730222
 20
-344.9995449466476
 30
-0.0000000000004832
 10
4689.413734864927
 20
-345.5652535312493
 30
-0.0000000000004832
  0
SPLINE
  5
F4
330
1F
100
AcDbEntity
  8
图层 03
100
AcDbSpline
210
0.0
220
0.0
230
1.0
 70
     8
 71
     3
 72
     8
 73
     4
 74
     0
 42
0.0000000001
 43
0.0000000001
 40
3952.147602014375
 40
3952.147602014375
 40
3952.147602014375
 40
3952.147602014375
 40
3978.497259579279
 40
3978.497259579279
 40
3978.497259579279
 40
3978.497259579279
 10
4689.413734864927
 20
-345.5652535312493
 30
-0.0000000000004832
 10
4691.393422095874
 20
-345.669931234512
 30
-0.0000000000004832
 10
4693.374314931665
 20
-345.8001955064785
 30
-0.0000000000004832
 10
4695.353631656221
 20
-345.958599006882
 30
-0.0000000000004832
  0
SPLINE
  5
F5
330
1F
100
AcDbEntity
  8
图层 03
100
AcDbSpline
210
0.0
220
0.0
230
1.0
 70
     8
 71
     3
 72
     8
 73
     4
 74
     0
 42
0.0000000001
 43
0.0000000001
 40
3978.497259579279
 40
3978.497259579279
 40
3978.497259579279
 40
3978.497259579279
 40
4004.196735453361
 40
4004.196735453361
 40
4004.196735453361
 40
4004.196735453361
 10
4695.353631656221
 20
-345.958599006882
 30
-0.0000000000004832
 10
4697.21762474588
 20
-345.5470052416781
 30
-0.0000000000004832
 10
4699.082011110165
 20
-345.1369229319615
 30
-0.0000000000004832
 10
4700.94683662094
 20
-344.7285606295352
 30
-0.0000000000004832
  0
SPLINE
  5
F6
330
1F
100
AcDbEntity
  8
图层 03
100
AcDbSpline
210
0.0
220
0.0
230
1.0
 70
     8
 71
     3
 72
     8
 73
     4
 74
     0
 42
0.0000000001
 43
0.0000000001
 40
4004.196735453361
 40
4004.196735453361
 40
4004.196735453361
 40
4004.196735453361
 40
4031.497036677786
 40
4031.497036677786
 40
4031.497036677786
 40
4031.497036677786
 10
4700.94683662094
 20
-344.7285606295352
 30
-0.0000000000004832
 10
4702.682698680931
 20
-343.7025586094737
 30
-0.0000000000004832
 10
4704.417408084468
 20
-342.6745924640633
 30
-0.0000000000004832
 10
4706.150782635341
 20
-341.644383727192
 30
-0.0000000000004832
  0
SPLINE
  5
F7
330
1F
100
AcDbEntity
  8
图层 03
100
AcDbSpline
210
0.0
220
0.0
230
1.0
 70
     8
 71
     3
 72
     8
 73
     4
 74
     0
 42
0.0000000001
 43
0.0000000001
 40
4031.497036677786
 40
4031.497036677786
 40
4031.497036677786
 40
4031.497036677786
 40
4059.235108449518
 40
4059.235108449518
 40
4059.235108449518
 40
4059.235108449518
 10
4706.150782635341
 20
-341.644383727192
 30
-0.0000000000004832
 10
4707.626917364792
 20
-340.2128613459283
 30
-0.0000000000004832
 10
4709.110445325507
 20
-338.7892682990271
 30
-0.0000000000004832
 10
4710.602955274644
 20
-337.3759167386579
 30
-0.0000000000004832
  0
SPLINE
  5
F8
330
1F
100
AcDbEntity
  8
图层 03
100
AcDbSpline
210
0.0
220
0.0
230
1.0
 70
     8
 71
     3
 72
     8
 73
     4
 74
     0
 42
0.0000000001
 43
0.0000000001
 40
4059.235108449518
 40
4059.235108449518
 40
4059.235108449518
 40
4059.235108449518
 40
4063.091225476194
 40
4063.091225476194
 40
4063.091225476194
 40
4063.091225476194
 10
4710.602955274644
 20
-337.3759167386579
 30
-0.0000000000004832
 10
4710.770173565039
 20
-337.1415812606066
 30
-0.0000000000004832
 10
4710.937568501067
 20
-336.9073846104714
 30
-0.0000000000004832
 10
4711.105148092443
 20
-336.6733343806413
 30
-0.0000000000004832
  0
SPLINE
  5
F9
330
1F
100
AcDbEntity
  8
图层 03
100
AcDbSpline
210
0.0
220
0.0
230
1.0
 70
     8
 71
     3
 72
     8
 73
     4
 74
     0
 42
0.0000000001
 43
0.0000000001
 40
4063.091225476194
 40
4063.091225476194
 40
4063.091225476194
 40
4063.091225476194
 40
4085.745407048701
 40
4085.745407048701
 40
4085.745407048701
 40
4085.745407048701
 10
4711.105148092443
 20
-336.6733343806413
 30
-0.0000000000004832
 10
4711.983788477271
 20
-335.23058075022
 30
-0.0000000000004832
 10
4712.887356380905
 20
-333.7750318810976
 30
-0.0000000000004832
 10
4713.795096794353
 20
-332.3525954438659
 30
-0.0000000000004832
  0
SPLINE
  5
FA
330
1F
100
AcDbEntity
  8
图层 03
100
AcDbSpline
210
0.0
220
0.0
230
1.0
 70
     8
 71
     3
 72
     8
 73
     4
 74
     0
 42
0.0000000001
 43
0.0000000001
 40
4085.745407048701
 40
4085.745407048701
 40
4085.745407048701
 40
4085.745407048701
 40
4108.056462220813
 40
4108.056462220813
 40
4108.056462220813
 40
4108.056462220813
 10
4713.795096794353
 20
-332.3525954438659
 30
-0.0000000000004832
 10
4714.420729998399
 20
-330.7845035641474
 30
-0.0000000000004832
 10
4715.049611064454
 20
-329.2179274129728
 30
-0.0000000000004832
 10
4715.683770433619
 20
-327.6539134022406
 30
-0.0000000000004832
  0
SPLINE
  5
FB
330
1F
100
AcDbEntity
  8
图层 03
100
AcDbSpline
210
0.0
220
0.0
230
1.0
 70
     8
 71
     3
 72
     8
 73
     4
 74
     0
 42
0.0000000001
 43
0.0000000001
 40
4108.056462220813
 40
4108.056462220813
 40
4108.056462220813
 40
4108.056462220813
 40
4127.873227628128
 40
4127.873227628128
 40
4127.873227628128
 40
4127.873227628128
 10
4715.683770433619
 20
-327.6539134022406
 30
-0.0000000000004832
 10
4715.946526852354
 20
-326.1570144739811
 30
-0.0000000000004832
 10
4716.203251080949
 20
-324.6586020014859
 30
-0.0000000000004832
 10
4716.453963859542
 20
-323.1588387935078
 30
-0.0000000000004832
  0
SPLINE
  5
FC
330
1F
100
AcDbEntity
  8
图层 03
100
AcDbSpline
210
0.0
220
0.0
230
1.0
 70
     8
 71
     3
 72
    11
 73
     7
 74
     0
 42
0.0000000001
 43
0.0000000001
 40
4127.873227628128
 40
4127.873227628128
 40
4127.873227628128
 40
4127.873227628128
 40
4131.75019211396
 40
4131.75019211396
 40
4131.75019211396
 40
4147.235903040925
 40
4147.235903040925
 40
4147.235903040925
 40
4147.235903040925
 10
4716.453963859542
 20
-323.1588387935078
 30
-0.0000000000004832
 10
4716.440362221258
 20
-322.8577660546267
 30
-0.0000000000004832
 10
4716.42665109329
 20
-322.5566920800002
 30
-0.0000000000004832
 10
4716.41283179826
 20
-322.2556171362263
 30
-0.0000000000004832
 10
4716.342772397111
 20
-321.0529902286294
 30
-0.0000000000004832
 10
4716.270475612888
 20
-319.8503644895045
 30
-0.0000000000004832
 10
4716.196230011902
 20
-318.6477623936364
 30
-0.0000000000004832
  0
SPLINE
  5
FD
330
1F
100
AcDbEntity
  8
图层 03
100
AcDbSpline
210
0.0
220
0.0
230
1.0
 70
     8
 71
     3
 72
     8
 73
     4
 74
     0
 42
0.0000000001
 43
0.0000000001
 40
4147.235903040925
 40
4147.235903040925
 40
4147.235903040925
 40
4147.235903040925
 40
4165.291273089216
 40
4165.291273089216
 40
4165.291273089216
 40
4165.291273089216
 10
4716.196230011902
 20
-318.6477623936364
 30
-0.0000000000004832
 10
4715.768486853247
 20
-317.2940430130398
 30
-0.0000000000004832
 10
4715.338860548602
 20
-315.9408511930222
 30
-0.0000000000004832
 10
4714.906748580255
 20
-314.5883834745426
 30
-0.0000000000004832
  0
SPLINE
  5
FE
330
1F
100
AcDbEntity
  8
图层 03
100
AcDbSpline
210
0.0
220
0.0
230
1.0
 70
     8
 71
     3
 72
     8
 73
     4
 74
     0
 42
0.0000000001
 43
0.0000000001
 40
4165.291273089216
 40
4165.291273089216
 40
4165.291273089216
 40
4165.291273089216
 40
4180.976454211423
 40
4180.976454211423
 40
4180.976454211423
 40
4180.976454211423
 10
4714.906748580255
 20
-314.5883834745426
 30
-0.0000000000004832
 10
4714.207051429254
 20
-313.568486916908
 30
-0.0000000000004832
 10
4713.506772827534
 20
-312.5489959767204
 30
-0.0000000000004832
 10
4712.80513518746
 20
-311.530466162145
 30
-0.0000000000004832
  0
SPLINE
  5
FF
330
1F
100
AcDbEntity
  8
图层 03
100
AcDbSpline
210
0.0
220
0.0
230
1.0
 70
     8
 71
     3
 72
     8
 73
     4
 74
     0
 42
0.0000000001
 43
0.0000000001
 40
4180.976454211423
 40
4180.976454211423
 40
4180.976454211423
 40
4180.976454211423
 40
4184.283017623377
 40
4184.283017623377
 40
4184.283017623377
 40
4184.283017623377
 10
4712.80513518746
 20
-311.530466162145
 30
-0.0000000000004832
 10
4712.59168406507
 20
-311.3866498075029
 30
-0.0000000000004832
 10
4712.378529809493
 20
-311.2423335604585
 30
-0.0000000000004832
 10
4712.165605334417
 20
-311.097642367012
 30
-0.0000000000004832
  0
SPLINE
  5
100
330
1F
100
AcDbEntity
  8
图层 03
100
AcDbSpline
210
0.0
220
0.0
230
1.0
 70
     8
 71
     3
 72
     8
 73
     4
 74
     0
 42
0.0000000001
 43
0.0000000001
 40
4184.283017623377
 40
4184.283017623377
 40
4184.283017623377
 40
4184.283017623377
 40
4198.001632441275
 40
4198.001632441275
 40
4198.001632441275
 40
4198.001632441275
 10
4712.165605334417
 20
-311.097642367012
 30
-0.0000000000004832
 10
4711.254077434456
 20
-310.5471446875563
 30
-0.0000000000004832
 10
4710.338337113912
 20
-310.004416361771
 30
-0.0000000000004832
 10
4709.419666952345
 20
-309.4678103028702
 30
-0.0000000000004832
  0
SPLINE
  5
101
330
1F
100
AcDbEntity
  8
图层 03
100
AcDbSpline
210
0.0
220
0.0
230
1.0
 70
     8
 71
     3
 72
     8
 73
     4
 74
     0
 42
0.0000000001
 43
0.0000000001
 40
4198.001632441275
 40
4198.001632441275
 40
4198.001632441275
 40
4198.001632441275
 40
4220.192803732525
 40
4220.192803732525
 40
4220.192803732525
 40
4220.192803732525
 10
4709.419666952345
 20
-309.4678103028702
 30
-0.0000000000004832
 10
4707.763239238928
 20
-309.1716093470367
 30
-0.0000000000004832
 10
4706.104989532994
 20
-308.8901816631385
 30
-0.0000000000004832
 10
4704.445981274659
 20
-308.6189812530938
 30
-0.0000000000004832
  0
SPLINE
  5
102
330
1F
100
AcDbEntity
  8
图层 03
100
AcDbSpline
210
0.0
220
0.0
230
1.0
 70
     8
 71
     3
 72
     8
 73
     4
 74
     0
 42
0.0000000001
 43
0.0000000001
 40
4220.192803732525
 40
4220.192803732525
 40
4220.192803732525
 40
4220.192803732525
 40
4247.661394339777
 40
4247.661394339777
 40
4247.661394339777
 40
4247.661394339777
 10
4704.445981274659
 20
-308.6189812530938
 30
-0.0000000000004832
 10
4702.401551747539
 20
-308.79272148965
 30
-0.0000000000004832
 10
4700.357952179378
 20
-308.9728405094423
 30
-0.0000000000004832
 10
4698.315135078352
 20
-309.158282888924
 30
-0.0000000000004832
  0
SPLINE
  5
103
330
1F
100
AcDbEntity
  8
图层 03
100
AcDbSpline
210
0.0
220
0.0
230
1.0
 70
     8
 71
     3
 72
     8
 73
     4
 74
     0
 42
0.0000000001
 43
0.0000000001
 40
4247.661394339777
 40
4247.661394339777
 40
4247.661394339777
 40
4247.661394339777
 40
4278.134625927853
 40
4278.134625927853
 40
4278.134625927853
 40
4278.134625927853
 10
4698.315135078352
 20
-309.158282888924
 30
-0.0000000000004832
 10
4696.145706095263
 20
-309.7871223824014
 30
-0.0000000000004832
 10
4693.976666281329
 20
-310.4171759783535
 30
-0.0000000000004832
 10
4691.808006020025
 20
-311.0484016452175
 30
-0.0000000000004832
  0
SPLINE
  5
104
330
1F
100
AcDbEntity
  8
图层 03
100
AcDbSpline
210
0.0
220
0.0
230
1.0
 70
     8
 71
     3
 72
     8
 73
     4
 74
     0
 42
0.0000000001
 43
0.0000000001
 40
4278.134625927853
 40
4278.134625927853
 40
4278.134625927853
 40
4278.134625927853
 40
4308.924156937003
 40
4308.924156937003
 40
4308.924156937003
 40
4308.924156937003
 10
4691.808006020025
 20
-311.0484016452175
 30
-0.0000000000004832
 10
4689.752430258157
 20
-312.0232539449599
 30
-0.0000000000004832
 10
4687.696687728316
 20
-312.997763649161
 30
-0.0000000000004832
 10
4685.640771939199
 20
-313.971916614043
 30
-0.0000000000004832
  0
SPLINE
  5
105
330
1F
100
AcDbEntity
  8
图层 03
100
AcDbSpline
210
0.0
220
0.0
230
1.0
 70
     8
 71
     3
 72
     8
 73
     4
 74
     0
 42
0.0000000001
 43
0.0000000001
 40
4308.924156937003
 40
4308.924156937003
 40
4308.924156937003
 40
4308.924156937003
 40
4338.383736602689
 40
4338.383736602689
 40
4338.383736602689
 40
4338.383736602689
 10
4685.640771939199
 20
-313.971916614043
 30
-0.0000000000004832
 10
4683.743538763615
 20
-315.037281372001
 30
-0.0000000000004832
 10
4681.843016675502
 20
-316.0968721139219
 30
-0.0000000000004832
 10
4679.939098649658
 20
-317.1502675228392
 30
-0.0000000000004832
  0
SPLINE
  5
106
330
1F
100
AcDbEntity
  8
图层 03
100
AcDbSpline
210
0.0
220
0.0
230
1.0
 70
     8
 71
     3
 72
     8
 73
     4
 74
     0
 42
0.0000000001
 43
0.0000000001
 40
4338.383736602689
 40
4338.383736602689
 40
4338.383736602689
 40
4338.383736602689
 40
4365.395881395929
 40
4365.395881395929
 40
4365.395881395929
 40
4365.395881395929
 10
4679.939098649658
 20
-317.1502675228392
 30
-0.0000000000004832
 10
4678.140077610111
 20
-318.0137815973039
 30
-0.0000000000004832
 10
4676.332188236375
 20
-318.8610839860382
 30
-0.0000000000004832
 10
4674.516569466361
 20
-319.6901109709986
 30
-0.0000000000004832
  0
SPLINE
  5
107
330
1F
100
AcDbEntity
  8
图层 03
100
AcDbSpline
210
0.0
220
0.0
230
1.0
 70
     8
 71
     3
 72
     8
 73
     4
 74
     0
 42
0.0000000001
 43
0.0000000001
 40
4365.395881395929
 40
4365.395881395929
 40
4365.395881395929
 40
4365.395881395929
 40
4390.026923648831
 40
4390.026923648831
 40
4390.026923648831
 40
4390.026923648831
 10
4674.516569466361
 20
-319.6901109709986
 30
-0.0000000000004832
 10
4672.718370389181
 20
-320.0368193964043
 30
-0.0000000000004832
 10
4670.916843872998
 20
-320.370039371704
 30
-0.0000000000004832
 10
4669.112179556094
 20
-320.6877160814039
 30
-0.0000000000004832
  0
SPLINE
  5
108
330
1F
100
AcDbEntity
  8
图层 03
100
AcDbSpline
210
0.0
220
0.0
230
1.0
 70
     8
 71
     3
 72
     8
 73
     4
 74
     0
 42
0.0000000001
 43
0.0000000001
 40
4390.026923648831
 40
4390.026923648831
 40
4390.026923648831
 40
4390.026923648831
 40
4414.735516865032
 40
4414.735516865032
 40
4414.735516865032
 40
4414.735516865032
 10
4669.112179556094
 20
-320.6877160814039
 30
-0.0000000000004832
 10
4667.271988494284
 20
-320.3236434459996
 30
-0.0000000000004832
 10
4665.431928789812
 20
-319.9585631146506
 30
-0.0000000000004832
 10
4663.592048629109
 20
-319.5921422466256
 30
-0.0000000000004832
  0
SPLINE
  5
109
330
1F
100
AcDbEntity
  8
图层 03
100
AcDbSpline
210
0.0
220
0.0
230
1.0
 70
     8
 71
     3
 72
     8
 73
     4
 74
     0
 42
0.0000000001
 43
0.0000000001
 40
4414.735516865032
 40
4414.735516865032
 40
4414.735516865032
 40
4414.735516865032
 40
4441.528102224808
 40
4441.528102224808
 40
4441.528102224808
 40
4441.528102224808
 10
4663.592048629109
 20
-319.5921422466256
 30
-0.0000000000004832
 10
4661.758172998859
 20
-318.6266605380328
 30
-0.0000000000004832
 10
4659.925302945885
 20
-317.6589311598996
 30
-0.0000000000004832
 10
4658.093857138453
 20
-316.6880895783598
 30
-0.0000000000004832
  0
SPLINE
  5
10A
330
1F
100
AcDbEntity
  8
图层 03
100
AcDbSpline
210
0.0
220
0.0
230
1.0
 70
     8
 71
     3
 72
     8
 73
     4
 74
     0
 42
0.0000000001
 43
0.0000000001
 40
4441.528102224808
 40
4441.528102224808
 40
4441.528102224808
 40
4441.528102224808
 40
4470.459504886017
 40
4470.459504886017
 40
4470.459504886017
 40
4470.459504886017
 10
4658.093857138453
 20
-316.6880895783598
 30
-0.0000000000004832
 10
4656.335518983728
 20
-315.2652716510535
 30
-0.0000000000004832
 10
4654.583937573927
 20
-313.8330576749051
 30
-0.0000000000004832
 10
4652.840513094365
 20
-312.3903052199248
 30
-0.0000000000004832
  0
SPLINE
  5
10B
330
1F
100
AcDbEntity
  8
图层 03
100
AcDbSpline
210
0.0
220
0.0
230
1.0
 70
     8
 71
     3
 72
     8
 73
     4
 74
     0
 42
0.0000000001
 43
0.0000000001
 40
4470.459504886017
 40
4470.459504886017
 40
4470.459504886017
 40
4470.459504886017
 40
4492.024898368936
 40
4492.024898368936
 40
4492.024898368936
 40
4492.024898368936
 10
4652.840513094365
 20
-312.3903052199248
 30
-0.0000000000004832
 10
4651.694537896123
 20
-311.140563025994
 30
-0.0000000000004832
 10
4650.554613123255
 20
-309.8848367110295
 30
-0.0000000000004832
 10
4649.420271860896
 20
-308.6239411823817
 30
-0.0000000000004832
  0
SPLINE
  5
10C
330
1F
100
AcDbEntity
  8
图层 03
100
AcDbSpline
210
0.0
220
0.0
230
1.0
 70
     8
 71
     3
 72
     8
 73
     4
 74
     0
 42
0.0000000001
 43
0.0000000001
 40
4492.024898368936
 40
4492.024898368936
 40
4492.024898368936
 40
4492.024898368936
 40
4500.441648947307
 40
4500.441648947307
 40
4500.441648947307
 40
4500.441648947307
 10
4649.420271860896
 20
-308.6239411823817
 30
-0.0000000000004832
 10
4648.937324703127
 20
-308.1740937984007
 30
-0.0000000000004832
 10
4648.453743335578
 20
-307.7249791510734
 30
-0.0000000000004832
 10
4647.969581447091
 20
-307.2765483765863
 30
-0.0000000000004832
  0
SPLINE
  5
10D
330
1F
100
AcDbEntity
  8
图层 03
100
AcDbSpline
210
0.0
220
0.0
230
1.0
 70
     8
 71
     3
 72
     8
 73
     4
 74
     0
 42
0.0000000001
 43
0.0000000001
 40
4500.441648947307
 40
4500.441648947307
 40
4500.441648947307
 40
4500.441648947307
 40
4529.584343755909
 40
4529.584343755909
 40
4529.584343755909
 40
4529.584343755909
 10
4647.969581447091
 20
-307.2765483765863
 30
-0.0000000000004832
 10
4646.444029661661
 20
-305.5655521506617
 30
-0.0000000000004832
 10
4644.916209935765
 20
-303.8566878749027
 30
-0.0000000000004832
 10
4643.387117416036
 20
-302.1490413311676
 30
-0.0000000000004832
  0
SPLINE
  5
10E
330
1F
100
AcDbEntity
  8
图层 03
100
AcDbSpline
210
0.0
220
0.0
230
1.0
 70
     8
 71
     3
 72
     8
 73
     4
 74
     0
 42
0.0000000001
 43
0.0000000001
 40
4529.584343755909
 40
4529.584343755909
 40
4529.584343755909
 40
4529.584343755909
 40
4545.301523252218
 40
4545.301523252218
 40
4545.301523252218
 40
4545.301523252218
 10
4643.387117416036
 20
-302.1490413311676
 30
-0.0000000000004832
 10
4642.72537405956
 20
-301.1006887605008
 30
-0.0000000000004832
 10
4642.069016901001
 20
-300.0488447355617
 30
-0.0000000000004832
 10
4641.41629281418
 20
-298.9948154708463
 30
-0.0000000000004832
  0
SPLINE
  5
10F
330
1F
100
AcDbEntity
  8
图层 03
100
AcDbSpline
210
0.0
220
0.0
230
1.0
 70
     8
 71
     3
 72
     8
 73
     4
 74
     0
 42
0.0000000001
 43
0.0000000001
 40
4545.301523252218
 40
4545.301523252218
 40
4545.301523252218
 40
4545.301523252218
 40
4557.424045426101
 40
4557.424045426101
 40
4557.424045426101
 40
4557.424045426101
 10
4641.41629281418
 20
-298.9948154708463
 30
-0.0000000000004832
 10
4640.808131103659
 20
-298.259206398984
 30
-0.0000000000004832
 10
4640.200098592753
 20
-297.5234853536379
 30
-0.0000000000004832
 10
4639.592160295615
 20
-296.7876828464932
 30
-0.0000000000004832
  0
SPLINE
  5
110
330
1F
100
AcDbEntity
  8
图层 03
100
AcDbSpline
210
0.0
220
0.0
230
1.0
 70
     8
 71
     3
 72
     8
 73
     4
 74
     0
 42
0.0000000001
 43
0.0000000001
 40
4557.424045426101
 40
4557.424045426101
 40
4557.424045426101
 40
4557.424045426101
 40
4584.005128962091
 40
4584.005128962091
 40
4584.005128962091
 40
4584.005128962091
 10
4639.592160295615
 20
-296.7876828464932
 30
-0.0000000000004832
 10
4638.82010030593
 20
-294.8414833413055
 30
-0.0000000000004832
 10
4638.031504861344
 20
-292.9013082047449
 30
-0.0000000000004832
 10
4637.235418868433
 20
-290.9643536259177
 30
-0.0000000000004832
  0
SPLINE
  5
111
330
1F
100
AcDbEntity
  8
图层 03
100
AcDbSpline
210
0.0
220
0.0
230
1.0
 70
     8
 71
     3
 72
     8
 73
     4
 74
     0
 42
0.0000000001
 43
0.0000000001
 40
4584.005128962091
 40
4584.005128962091
 40
4584.005128962091
 40
4584.005128962091
 40
4616.727582636564
 40
4616.727582636564
 40
4616.727582636564
 40
4616.727582636564
 10
4637.235418868433
 20
-290.9643536259177
 30
-0.0000000000004832
 10
4637.503493602613
 20
-288.4582371627946
 30
-0.0000000000004832
 10
4637.742342537333
 20
-285.9468073007732
 30
-0.0000000000004832
 10
4637.969259522426
 20
-283.4341220465924
 30
-0.0000000000004832
  0
SPLINE
  5
112
330
1F
100
AcDbEntity
  8
图层 03
100
AcDbSpline
210
0.0
220
0.0
230
1.0
 70
     8
 71
     3
 72
     8
 73
     4
 74
     0
 42
0.0000000001
 43
0.0000000001
 40
4616.727582636564
 40
4616.727582636564
 40
4616.727582636564
 40
4616.727582636564
 40
4662.358497539054
 40
4662.358497539054
 40
4662.358497539054
 40
4662.358497539054
 10
4637.969259522426
 20
-283.4341220465924
 30
-0.0000000000004832
 10
4640.086689535755
 20
-280.7781679943796
 30
-0.0000000000004832
 10
4642.240615024579
 20
-278.1474663634747
 30
-0.0000000000004832
 10
4644.418768024209
 20
-275.5455092789158
 30
-0.0000000000004832
  0
SPLINE
  5
113
330
1F
100
AcDbEntity
  8
图层 03
100
AcDbSpline
210
0.0
220
0.0
230
1.0
 70
     8
 71
     3
 72
     8
 73
     4
 74
     0
 42
0.0000000001
 43
0.0000000001
 40
4662.358497539054
 40
4662.358497539054
 40
4662.358497539054
 40
4662.358497539054
 40
4667.316450396233
 40
4667.316450396233
 40
4667.316450396233
 40
4667.316450396233
 10
4644.418768024209
 20
-275.5455092789158
 30
-0.0000000000004832
 10
4644.637292541206
 20
-275.2470382898744
 30
-0.0000000000004832
 10
4644.858211890942
 20
-274.9504510306236
 30
-0.0000000000004832
 10
4645.081395300086
 20
-274.6558144741151
 30
-0.0000000000004832
  0
SPLINE
  5
114
330
1F
100
AcDbEntity
  8
图层 03
100
AcDbSpline
210
0.0
220
0.0
230
1.0
 70
     8
 71
     3
 72
     8
 73
     4
 74
     0
 42
0.0000000001
 43
0.0000000001
 40
4667.316450396233
 40
4667.316450396233
 40
4667.316450396233
 40
4667.316450396233
 40
4717.959439240793
 40
4717.959439240793
 40
4717.959439240793
 40
4717.959439240793
 10
4645.081395300086
 20
-274.6558144741151
 30
-0.0000000000004832
 10
4648.03508124371
 20
-272.3537914874115
 30
-0.0000000000004832
 10
4651.007138803711
 20
-270.0757614862819
 30
-0.0000000000004832
 10
4653.991568989991
 20
-267.8153208297147
 30
-0.0000000000004832
  0
SPLINE
  5
115
330
1F
100
AcDbEntity
  8
图层 03
100
AcDbSpline
210
0.0
220
0.0
230
1.0
 70
     8
 71
     3
 72
     8
 73
     4
 74
     0
 42
0.0000000001
 43
0.0000000001
 40
4717.959439240793
 40
4717.959439240793
 40
4717.959439240793
 40
4717.959439240793
 40
4750.550734849327
 40
4750.550734849327
 40
4750.550734849327
 40
4750.550734849327
 10
4653.991568989991
 20
-267.8153208297147
 30
-0.0000000000004832
 10
4656.165985254158
 20
-266.7804475677148
 30
-0.0000000000004832
 10
4658.339741269969
 20
-265.7442190133353
 30
-0.0000000000004832
 10
4660.513024923135
 20
-264.70702850284
 30
-0.0000000000004832
  0
SPLINE
  5
116
330
1F
100
AcDbEntity
  8
图层 03
100
AcDbSpline
210
0.0
220
0.0
230
1.0
 70
     8
 71
     3
 72
     8
 73
     4
 74
     0
 42
0.0000000001
 43
0.0000000001
 40
4750.550734849327
 40
4750.550734849327
 40
4750.550734849327
 40
4750.550734849327
 40
4767.190326121725
 40
4767.190326121725
 40
4767.190326121725
 40
4767.190326121725
 10
4660.513024923135
 20
-264.70702850284
 30
-0.0000000000004832
 10
4661.60477519895
 20
-264.1423043906761
 30
-0.0000000000004832
 10
4662.696303845096
 20
-263.5771572291081
 30
-0.0000000000004832
 10
4663.787635762972
 20
-263.0116363597315
 30
-0.0000000000004832
  0
SPLINE
  5
117
330
1F
100
AcDbEntity
  8
图层 03
100
AcDbSpline
210
0.0
220
0.0
230
1.0
 70
     8
 71
     3
 72
     8
 73
     4
 74
     0
 42
0.0000000001
 43
0.0000000001
 40
4767.190326121725
 40
4767.190326121725
 40
4767.190326121725
 40
4767.190326121725
 40
4817.074878524169
 40
4817.074878524169
 40
4817.074878524169
 40
4817.074878524169
 10
4663.787635762972
 20
-263.0116363597315
 30
-0.0000000000004832
 10
4667.263173923319
 20
-262.024866339679
 30
-0.0000000000004832
 10
4670.960636114475
 20
-260.8939566032113
 30
-0.0000000000004832
 10
4674.404521688541
 20
-259.8117969209072
 30
-0.0000000000004832
  0
SPLINE
  5
118
330
1F
100
AcDbEntity
  8
图层 03
100
AcDbSpline
210
0.0
220
0.0
230
1.0
 70
     8
 71
     3
 72
     8
 73
     4
 74
     0
 42
0.0000000001
 43
0.0000000001
 40
4817.074878524169
 40
4817.074878524169
 40
4817.074878524169
 40
4817.074878524169
 40
4863.568621470123
 40
4863.568621470123
 40
4863.568621470123
 40
4863.568621470123
 10
4674.404521688541
 20
-259.8117969209072
 30
-0.0000000000004832
 10
4677.861295876335
 20
-259.4911533188881
 30
-0.0000000000004832
 10
4681.316878308576
 20
-259.161734954924
 30
-0.0000000000004832
 10
4684.770647852035
 20
-258.8203790955713
 30
-0.0000000000004832
  0
SPLINE
  5
119
330
1F
100
AcDbEntity
  8
图层 03
100
AcDbSpline
210
0.0
220
0.0
230
1.0
 70
     8
 71
     3
 72
     8
 73
     4
 74
     0
 42
0.0000000001
 43
0.0000000001
 40
4863.568621470123
 40
4863.568621470123
 40
4863.568621470123
 40
4863.568621470123
 40
4903.778912059315
 40
4903.778912059315
 40
4903.778912059315
 40
4903.778912059315
 10
4684.770647852035
 20
-258.8203790955713
 30
-0.0000000000004832
 10
4687.778018395858
 20
-258.6938957237375
 30
-0.0000000000004832
 10
4690.784997895351
 20
-258.563129699508
 30
-0.0000000000004832
 10
4693.791402807694
 20
-258.4266296319156
 30
-0.0000000000004832
  0
SPLINE
  5
11A
330
1F
100
AcDbEntity
  8
图层 03
100
AcDbSpline
210
0.0
220
0.0
230
1.0
 70
     8
 71
     3
 72
     8
 73
     4
 74
     0
 42
0.0000000001
 43
0.0000000001
 40
4903.778912059315
 40
4903.778912059315
 40
4903.778912059315
 40
4903.778912059315
 40
4937.946686726693
 40
4937.946686726693
 40
4937.946686726693
 40
4937.946686726693
 10
4693.791402807694
 20
-258.4266296319156
 30
-0.0000000000004832
 10
4696.334254890242
 20
-258.2090971383662
 30
-0.0000000000004832
 10
4698.876688758752
 20
-257.9883927455994
 30
-0.0000000000004832
 10
4701.418505020745
 20
-257.7632712062674
 30
-0.0000000000004832
  0
SPLINE
  5
11B
330
1F
100
AcDbEntity
  8
图层 03
100
AcDbSpline
210
0.0
220
0.0
230
1.0
 70
     8
 71
     3
 72
     8
 73
     4
 74
     0
 42
0.0000000001
 43
0.0000000001
 40
4937.946686726693
 40
4937.946686726693
 40
4937.946686726693
 40
4937.946686726693
 40
4964.631725518524
 40
4964.631725518524
 40
4964.631725518524
 40
4964.631725518524
 10
4701.418505020745
 20
-257.7632712062674
 30
-0.0000000000004832
 10
4703.324336951988
 20
-257.2318524992708
 30
-0.0000000000004832
 10
4705.229513566302
 20
-256.6983124406842
 30
-0.0000000000004832
 10
4707.133775461989
 20
-256.1618806432406
 30
-0.0000000000004832
  0
SPLINE
  5
11C
330
1F
100
AcDbEntity
  8
图层 03
100
AcDbSpline
210
0.0
220
0.0
230
1.0
 70
     8
 71
     3
 72
     8
 73
     4
 74
     0
 42
0.0000000001
 43
0.0000000001
 40
4964.631725518524
 40
4964.631725518524
 40
4964.631725518524
 40
4964.631725518524
 40
4985.338715534024
 40
4985.338715534024
 40
4985.338715534024
 40
4985.338715534024
 10
4707.133775461989
 20
-256.1618806432406
 30
-0.0000000000004832
 10
4708.297649743348
 20
-255.1647390517005
 30
-0.0000000000004832
 10
4709.461444380436
 20
-254.1675001452271
 30
-0.0000000000004832
 10
4710.625141067493
 20
-253.1701416705404
 30
-0.0000000000004832
  0
SPLINE
  5
11D
330
1F
100
AcDbEntity
  8
图层 03
100
AcDbSpline
210
0.0
220
0.0
230
1.0
 70
     8
 71
     3
 72
     8
 73
     4
 74
     0
 42
0.0000000001
 43
0.0000000001
 40
4985.338715534024
 40
4985.338715534024
 40
4985.338715534024
 40
4985.338715534024
 40
5004.585999926081
 40
5004.585999926081
 40
5004.585999926081
 40
5004.585999926081
 10
4710.625141067493
 20
-253.1701416705404
 30
-0.0000000000004832
 10
4711.157054753874
 20
-251.8137042497623
 30
-0.0000000000004832
 10
4711.68974330177
 20
-250.4576276346768
 30
-0.0000000000004832
 10
4712.223302156804
 20
-249.1019599929397
 30
-0.0000000000004832
  0
SPLINE
  5
11E
330
1F
100
AcDbEntity
  8
图层 03
100
AcDbSpline
210
0.0
220
0.0
230
1.0
 70
     8
 71
     3
 72
     8
 73
     4
 74
     0
 42
0.0000000001
 43
0.0000000001
 40
5004.585999926081
 40
5004.585999926081
 40
5004.585999926081
 40
5004.585999926081
 40
5024.524248008809
 40
5024.524248008809
 40
5024.524248008809
 40
5024.524248008809
 10
4712.223302156804
 20
-249.1019599929397
 30
-0.0000000000004832
 10
4712.265918964721
 20
-247.5591872799622
 30
-0.0000000000004832
 10
4712.307628074878
 20
-246.016333476063
 30
-0.0000000000004832
 10
4712.348362723502
 20
-244.4733963533424
 30
-0.0000000000004832
  0
SPLINE
  5
11F
330
1F
100
AcDbEntity
  8
图层 03
100
AcDbSpline
210
0.0
220
0.0
230
1.0
 70
     8
 71
     3
 72
     8
 73
     4
 74
     0
 42
0.0000000001
 43
0.0000000001
 40
5024.524248008809
 40
5024.524248008809
 40
5024.524248008809
 40
5024.524248008809
 40
5044.742738021971
 40
5044.742738021971
 40
5044.742738021971
 40
5044.742738021971
 10
4712.348362723502
 20
-244.4733963533424
 30
-0.0000000000004832
 10
4712.030189031224
 20
-242.9217851110292
 30
-0.0000000000004832
 10
4711.709422492028
 20
-241.3705856243114
 30
-0.0000000000004832
 10
4711.385895858806
 20
-239.8198562509572
 30
-0.0000000000004832
  0
SPLINE
  5
120
330
1F
100
AcDbEntity
  8
图层 03
100
AcDbSpline
210
0.0
220
0.0
230
1.0
 70
     8
 71
     3
 72
     8
 73
     4
 74
     0
 42
0.0000000001
 43
0.0000000001
 40
5044.742738021971
 40
5044.742738021971
 40
5044.742738021971
 40
5044.742738021971
 40
5064.077929705421
 40
5064.077929705421
 40
5064.077929705421
 40
5064.077929705421
 10
4711.385895858806
 20
-239.8198562509572
 30
-0.0000000000004832
 10
4710.802735613132
 20
-238.4124098361539
 30
-0.0000000000004832
 10
4710.217598364496
 20
-237.0057343615292
 30
-0.0000000000004832
 10
4709.630301131365
 20
-235.5999255479874
 30
-0.0000000000004832
  0
SPLINE
  5
121
330
1F
100
AcDbEntity
  8
图层 03
100
AcDbSpline
210
0.0
220
0.0
230
1.0
 70
     8
 71
     3
 72
     8
 73
     4
 74
     0
 42
0.0000000001
 43
0.0000000001
 40
5064.077929705421
 40
5064.077929705421
 40
5064.077929705421
 40
5064.077929705421
 40
5083.253305661026
 40
5083.253305661026
 40
5083.253305661026
 40
5083.253305661026
 10
4709.630301131365
 20
-235.5999255479874
 30
-0.0000000000004832
 10
4708.753380551099
 20
-234.3685265269831
 30
-0.0000000000004832
 10
4707.875771607386
 20
-233.1376304386272
 30
-0.0000000000004832
 10
4706.997411974082
 20
-231.9072873866635
 30
-0.0000000000004832
  0
SPLINE
  5
122
330
1F
100
AcDbEntity
  8
图层 03
100
AcDbSpline
210
0.0
220
0.0
230
1.0
 70
     8
 71
     3
 72
     8
 73
     4
 74
     0
 42
0.0000000001
 43
0.0000000001
 40
5083.253305661026
 40
5083.253305661026
 40
5083.253305661026
 40
5083.253305661026
 40
5103.917218651577
 40
5103.917218651577
 40
5103.917218651577
 40
5103.917218651577
 10
4706.997411974082
 20
-231.9072873866635
 30
-0.0000000000004832
 10
4705.768435758217
 20
-230.8555774281127
 30
-0.0000000000004832
 10
4704.539181524517
 20
-229.8042221199767
 30
-0.0000000000004832
 10
4703.309643010149
 20
-228.7532308409779
 30
-0.0000000000004832
  0
SPLINE
  5
123
330
1F
100
AcDbEntity
  8
图层 03
100
AcDbSpline
210
0.0
220
0.0
230
1.0
 70
     8
 71
     3
 72
     8
 73
     4
 74
     0
 42
0.0000000001
 43
0.0000000001
 40
5103.917218651577
 40
5103.917218651577
 40
5103.917218651577
 40
5103.917218651577
 40
5127.905776256445
 40
5127.905776256445
 40
5127.905776256445
 40
5127.905776256445
 10
4703.309643010149
 20
-228.7532308409779
 30
-0.0000000000004832
 10
4701.66926311498
 20
-227.8853216898794
 30
-0.0000000000004832
 10
4700.028894908978
 20
-227.0173867618299
 30
-0.0000000000004832
 10
4698.388537165193
 20
-226.149428768251
 30
-0.0000000000004832
  0
SPLINE
  5
124
330
1F
100
AcDbEntity
  8
图层 03
100
AcDbSpline
210
0.0
220
0.0
230
1.0
 70
     8
 71
     3
 72
     8
 73
     4
 74
     0
 42
0.0000000001
 43
0.0000000001
 40
5127.905776256445
 40
5127.905776256445
 40
5127.905776256445
 40
5127.905776256445
 40
5156.508075407401
 40
5156.508075407401
 40
5156.508075407401
 40
5156.508075407401
 10
4698.388537165193
 20
-226.149428768251
 30
-0.0000000000004832
 10
4696.307465675576
 20
-225.4721230863013
 30
-0.0000000000004832
 10
4694.226832414986
 20
-224.7930858031982
 30
-0.0000000000004832
 10
4692.146539725184
 20
-224.1127288295445
 30
-0.0000000000004832
  0
SPLINE
  5
125
330
1F
100
AcDbEntity
  8
图层 03
100
AcDbSpline
210
0.0
220
0.0
230
1.0
 70
     8
 71
     3
 72
     8
 73
     4
 74
     0
 42
0.0000000001
 43
0.0000000001
 40
5156.508075407401
 40
5156.508075407401
 40
5156.508075407401
 40
5156.508075407401
 40
5189.199007190458
 40
5189.199007190458
 40
5189.199007190458
 40
5189.199007190458
 10
4692.146539725184
 20
-224.1127288295445
 30
-0.0000000000004832
 10
4689.710328825802
 20
-223.642877245506
 30
-0.0000000000004832
 10
4687.274328316756
 20
-223.1713560315854
 30
-0.0000000000004832
 10
4684.838482115561
 20
-222.6986462464375
 30
-0.0000000000004832
  0
SPLINE
  5
126
330
1F
100
AcDbEntity
  8
图层 03
100
AcDbSpline
210
0.0
220
0.0
230
1.0
 70
     8
 71
     3
 72
     8
 73
     4
 74
     0
 42
0.0000000001
 43
0.0000000001
 40
5189.199007190458
 40
5189.199007190458
 40
5189.199007190458
 40
5189.199007190458
 40
5224.793785943297
 40
5224.793785943297
 40
5224.793785943297
 40
5224.793785943297
 10
4684.838482115561
 20
-222.6986462464375
 30
-0.0000000000004832
 10
4682.164786498127
 20
-222.4589741468981
 30
-0.0000000000004832
 10
4679.491005950776
 20
-222.2221202602447
 30
-0.0000000000004832
 10
4676.817175281651
 20
-221.987315897242
 30
-0.0000000000004832
  0
SPLINE
  5
127
330
1F
100
AcDbEntity
  8
图层 03
100
AcDbSpline
210
0.0
220
0.0
230
1.0
 70
     8
 71
     3
 72
     8
 73
     4
 74
     0
 42
0.0000000001
 43
0.0000000001
 40
5224.793785943297
 40
5224.793785943297
 40
5224.793785943297
 40
5224.793785943297
 40
5261.91592192256
 40
5261.91592192256
 40
5261.91592192256
 40
5261.91592192256
 10
4676.817175281651
 20
-221.987315897242
 30
-0.0000000000004832
 10
4674.033311093684
 20
-222.0085447196606
 30
-0.0000000000004832
 10
4671.250162067145
 20
-222.0423597354099
 30
-0.0000000000004832
 10
4668.467816074444
 20
-222.0860851054069
 30
-0.0000000000004832
  0
SPLINE
  5
128
330
1F
100
AcDbEntity
  8
图层 03
100
AcDbSpline
210
0.0
220
0.0
230
1.0
 70
     8
 71
     3
 72
    11
 73
     7
 74
     0
 42
0.0000000001
 43
0.0000000001
 40
5261.91592192256
 40
5261.91592192256
 40
5261.91592192256
 40
5261.91592192256
 40
5297.622953355387
 40
5297.622953355387
 40
5297.622953355387
 40
5299.005884758295
 40
5299.005884758295
 40
5299.005884758295
 40
5299.005884758295
 10
4668.467816074444
 20
-222.0860851054069
 30
-0.0000000000004832
 10
4665.823209692022
 20
-222.3983839322389
 30
-0.0000000000004832
 10
4663.182411971147
 20
-222.7357560291623
 30
-0.0000000000004832
 10
4660.546102977398
 20
-223.0951389008687
 30
-0.0000000000004832
 10
4660.443763806129
 20
-223.10777221647
 30
-0.0000000000004832
 10
4660.341427570769
 20
-223.1204228725562
 30
-0.0000000000004832
 10
4660.239094266773
 20
-223.1330907452677
 30
-0.0000000000004832
  0
SPLINE
  5
129
330
1F
100
AcDbEntity
  8
图层 03
100
AcDbSpline
210
0.0
220
0.0
230
1.0
 70
     8
 71
     3
 72
     8
 73
     4
 74
     0
 42
0.0000000001
 43
0.0000000001
 40
5299.005884758295
 40
5299.005884758295
 40
5299.005884758295
 40
5299.005884758295
 40
5334.518290988131
 40
5334.518290988131
 40
5334.518290988131
 40
5334.518290988131
 10
4660.239094266773
 20
-223.1330907452677
 30
-0.0000000000004832
 10
4657.679966361309
 20
-223.7630977278311
 30
-0.0000000000004832
 10
4655.125477143405
 20
-224.4101641050073
 30
-0.0000000000004832
 10
4652.575954560471
 20
-225.073235569268
 30
-0.0000000000004832
  0
SPLINE
  5
12A
330
1F
100
AcDbEntity
  8
图层 03
100
AcDbSpline
210
0.0
220
0.0
230
1.0
 70
     8
 71
     3
 72
     8
 73
     4
 74
     0
 42
0.0000000001
 43
0.0000000001
 40
5334.518290988131
 40
5334.518290988131
 40
5334.518290988131
 40
5334.518290988131
 40
5366.883366316199
 40
5366.883366316199
 40
5366.883366316199
 40
5366.883366316199
 10
4652.575954560471
 20
-225.073235569268
 30
-0.0000000000004832
 10
4650.37729563209
 20
-226.0166007305118
 30
-0.0000000000004832
 10
4648.184548013101
 20
-226.9735543974434
 30
-0.0000000000004832
 10
4645.998580760725
 20
-227.9447764168419
 30
-0.0000000000004832
  0
SPLINE
  5
12B
330
1F
100
AcDbEntity
  8
图层 03
100
AcDbSpline
210
0.0
220
0.0
230
1.0
 70
     8
 71
     3
 72
     8
 73
     4
 74
     0
 42
0.0000000001
 43
0.0000000001
 40
5366.883366316199
 40
5366.883366316199
 40
5366.883366316199
 40
5366.883366316199
 40
5395.284958083466
 40
5395.284958083466
 40
5395.284958083466
 40
5395.284958083466
 10
4645.998580760725
 20
-227.9447764168419
 30
-0.0000000000004832
 10
4644.294938466015
 20
-229.1709549478073
 30
-0.0000000000004832
 10
4642.594807280822
 20
-230.4021898378243
 30
-0.0000000000004832
 10
4640.898595308689
 20
-231.6388818093801
 30
-0.0000000000004832
  0
SPLINE
  5
12C
330
1F
100
AcDbEntity
  8
图层 03
100
AcDbSpline
210
0.0
220
0.0
230
1.0
 70
     8
 71
     3
 72
     8
 73
     4
 74
     0
 42
0.0000000001
 43
0.0000000001
 40
5395.284958083466
 40
5395.284958083466
 40
5395.284958083466
 40
5395.284958083466
 40
5420.273725799792
 40
5420.273725799792
 40
5420.273725799792
 40
5420.273725799792
 10
4640.898595308689
 20
-231.6388818093801
 30
-0.0000000000004832
 10
4639.739437283331
 20
-233.0949488562827
 30
-0.0000000000004832
 10
4638.57996814993
 20
-234.5507459205527
 30
-0.0000000000004832
 10
4637.420181933884
 20
-236.006267145733
 30
-0.0000000000004832
  0
SPLINE
  5
12D
330
1F
100
AcDbEntity
  8
图层 03
100
AcDbSpline
210
0.0
220
0.0
230
1.0
 70
     8
 71
     3
 72
     8
 73
     4
 74
     0
 42
0.0000000001
 43
0.0000000001
 40
5420.273725799792
 40
5420.273725799792
 40
5420.273725799792
 40
5420.273725799792
 40
5443.465121311084
 40
5443.465121311084
 40
5443.465121311084
 40
5443.465121311084
 10
4637.420181933884
 20
-236.006267145733
 30
-0.0000000000004832
 10
4636.702478647699
 20
-237.6025908801893
 30
-0.0000000000004832
 10
4635.988349763215
 20
-239.2008079326802
 30
-0.0000000000004832
 10
4635.277803562766
 20
-240.8008627082937
 30
-0.0000000000004832
  0
SPLINE
  5
12E
330
1F
100
AcDbEntity
  8
图层 03
100
AcDbSpline
210
0.0
220
0.0
230
1.0
 70
     8
 71
     3
 72
     8
 73
     4
 74
     0
 42
0.0000000001
 43
0.0000000001
 40
5443.465121311084
 40
5443.465121311084
 40
5443.465121311084
 40
5443.465121311084
 40
5465.547334189108
 40
5465.547334189108
 40
5465.547334189108
 40
5465.547334189108
 10
4635.277803562766
 20
-240.8008627082937
 30
-0.0000000000004832
 10
4634.87577350645
 20
-242.4382680419753
 30
-0.0000000000004832
 10
4634.489634149981
 20
-244.0807812303933
 30
-0.0000000000004832
 10
4634.120336280598
 20
-245.7281874315013
 30
-0.0000000000004832
  0
SPLINE
  5
12F
330
1F
100
AcDbEntity
  8
图层 03
100
AcDbSpline
210
0.0
220
0.0
230
1.0
 70
     8
 71
     3
 72
     8
 73
     4
 74
     0
 42
0.0000000001
 43
0.0000000001
 40
5465.547334189108
 40
5465.547334189108
 40
5465.547334189108
 40
5465.547334189108
 40
5486.086339575919
 40
5486.086339575919
 40
5486.086339575919
 40
5486.086339575919
 10
4634.120336280598
 20
-245.7281874315013
 30
-0.0000000000004832
 10
4633.826681638712
 20
-247.2734346614367
 30
-0.0000000000004832
 10
4633.567384980327
 20
-248.8296846089933
 30
-0.0000000000004832
 10
4633.349330328438
 20
-250.3925579123278
 30
-0.0000000000004832
  0
SPLINE
  5
130
330
1F
100
AcDbEntity
  8
图层 03
100
AcDbSpline
210
0.0
220
0.0
230
1.0
 70
     8
 71
     3
 72
     8
 73
     4
 74
     0
 42
0.0000000001
 43
0.0000000001
 40
5486.086339575919
 40
5486.086339575919
 40
5486.086339575919
 40
5486.086339575919
 40
5497.404760834157
 40
5497.404760834157
 40
5497.404760834157
 40
5497.404760834157
 10
4633.349330328438
 20
-250.3925579123278
 30
-0.0000000000004832
 10
4633.073697038796
 20
-251.205028697056
 30
-0.0000000000004832
 10
4632.808596403002
 20
-252.0262687816928
 30
-0.0000000000004832
 10
4632.559884784445
 20
-252.8493627142674
 30
-0.0000000000004832
  0
SPLINE
  5
131
330
1F
100
AcDbEntity
  8
图层 03
100
AcDbSpline
210
0.0
220
0.0
230
1.0
 70
     8
 71
     3
 72
     8
 73
     4
 74
     0
 42
0.0000000001
 43
0.0000000001
 40
5497.404760834157
 40
5497.404760834157
 40
5497.404760834157
 40
5497.404760834157
 40
5504.116671772355
 40
5504.116671772355
 40
5504.116671772355
 40
5504.116671772355
 10
4632.559884784445
 20
-252.8493627142674
 30
-0.0000000000004832
 10
4632.479398661276
 20
-253.3545954076397
 30
-0.0000000000004832
 10
4632.417595514135
 20
-253.8746742655321
 30
-0.0000000000004832
 10
4632.390725406931
 20
-254.3892933981626
 30
-0.0000000000004832
  0
SPLINE
  5
132
330
1F
100
AcDbEntity
  8
图层 03
100
AcDbSpline
210
0.0
220
0.0
230
1.0
 70
     8
 71
     3
 72
     8
 73
     4
 74
     0
 42
0.0000000001
 43
0.0000000001
 40
5504.116671772355
 40
5504.116671772355
 40
5504.116671772355
 40
5504.116671772355
 40
5520.148326008297
 40
5520.148326008297
 40
5520.148326008297
 40
5520.148326008297
 10
4632.390725406931
 20
-254.3892933981624
 30
-0.0000000000004832
 10
4631.928730741279
 20
-255.5100573084923
 30
-0.0000000000004832
 10
4631.471399883853
 20
-256.6331543297108
 30
-0.0000000000004832
 10
4631.021047266946
 20
-257.7594925192616
 30
-0.0000000000004832
  0
SPLINE
  5
133
330
1F
100
AcDbEntity
  8
图层 03
100
AcDbSpline
210
0.0
220
0.0
230
1.0
 70
     8
 71
     3
 72
     8
 73
     4
 74
     0
 42
0.0000000001
 43
0.0000000001
 40
5520.148326008297
 40
5520.148326008297
 40
5520.148326008297
 40
5520.148326008297
 40
5537.85258786992
 40
5537.85258786992
 40
5537.85258786992
 40
5537.85258786992
 10
4631.021047266946
 20
-257.7594925192616
 30
-0.0000000000004832
 10
4630.150658051025
 20
-258.7464429710403
 30
-0.0000000000004832
 10
4629.271331260297
 20
-259.7247812069224
 30
-0.0000000000004832
 10
4628.383452155401
 20
-260.6948125318229
 30
-0.0000000000004832
  0
SPLINE
  5
134
330
1F
100
AcDbEntity
  8
图层 03
100
AcDbSpline
210
0.0
220
0.0
230
1.0
 70
     8
 71
     3
 72
     8
 73
     4
 74
     0
 42
0.0000000001
 43
0.0000000001
 40
5537.85258786992
 40
5537.85258786992
 40
5537.85258786992
 40
5537.85258786992
 40
5557.206067738212
 40
5557.206067738212
 40
5557.206067738212
 40
5557.206067738212
 10
4628.383452155401
 20
-260.6948125318229
 30
-0.0000000000004832
 10
4627.203775668248
 20
-261.5030017826805
 30
-0.0000000000004832
 10
4626.02404183573
 20
-262.3111056218754
 30
-0.0000000000004832
 10
4624.844253329755
 20
-263.1191279631128
 30
-0.0000000000004832
  0
SPLINE
  5
135
330
1F
100
AcDbEntity
  8
图层 03
100
AcDbSpline
210
0.0
220
0.0
230
1.0
 70
     8
 71
     3
 72
     8
 73
     4
 74
     0
 42
0.0000000001
 43
0.0000000001
 40
5557.206067738212
 40
5557.206067738212
 40
5557.206067738212
 40
5557.206067738212
 40
5576.284929010417
 40
5576.284929010417
 40
5576.284929010417
 40
5576.284929010417
 10
4624.844253329755
 20
-263.1191279631128
 30
-0.0000000000004832
 10
4623.542037643353
 20
-263.6613565041655
 30
-0.0000000000004832
 10
4622.237671929053
 20
-264.1987187608274
 30
-0.0000000000004832
 10
4620.93114463452
 20
-264.7309081495059
 30
-0.0000000000004832
  0
SPLINE
  5
136
330
1F
100
AcDbEntity
  8
图层 03
100
AcDbSpline
210
0.0
220
0.0
230
1.0
 70
     8
 71
     3
 72
     8
 73
     4
 74
     0
 42
0.0000000001
 43
0.0000000001
 40
5576.284929010417
 40
5576.284929010417
 40
5576.284929010417
 40
5576.284929010417
 40
5594.176064552569
 40
5594.176064552569
 40
5594.176064552569
 40
5594.176064552569
 10
4620.93114463452
 20
-264.7309081495059
 30
-0.0000000000004832
 10
4619.598475427038
 20
-264.8368328417838
 30
-0.0000000000004832
 10
4618.262124545319
 20
-264.908331817365
 30
-0.0000000000004832
 10
4616.922157299505
 20
-264.944571820487
 30
-0.0000000000004832
  0
SPLINE
  5
137
330
1F
100
AcDbEntity
  8
图层 03
100
AcDbSpline
210
0.0
220
0.0
230
1.0
 70
     8
 71
     3
 72
     8
 73
     4
 74
     0
 42
0.0000000001
 43
0.0000000001
 40
5594.176064552569
 40
5594.176064552569
 40
5594.176064552569
 40
5594.176064552569
 40
5612.387799114285
 40
5612.387799114285
 40
5612.387799114285
 40
5612.387799114285
 10
4616.922157299505
 20
-264.944571820487
 30
-0.0000000000004832
 10
4615.652325949453
 20
-264.3555659493231
 30
-0.0000000000004832
 10
4614.389177959317
 20
-263.7139604567737
 30
-0.0000000000004832
 10
4613.153289176284
 20
-263.0457445103605
 30
-0.0000000000004832
  0
SPLINE
  5
138
330
1F
100
AcDbEntity
  8
图层 03
100
AcDbSpline
210
0.0
220
0.0
230
1.0
 70
     8
 71
     3
 72
     8
 73
     4
 74
     0
 42
0.0000000001
 43
0.0000000001
 40
5612.387799114285
 40
5612.387799114285
 40
5612.387799114285
 40
5612.387799114285
 40
5613.562619737069
 40
5613.562619737069
 40
5613.562619737069
 40
5613.562619737069
 10
4613.153289176284
 20
-263.0457445103605
 30
-0.0000000000004832
 10
4613.067807509868
 20
-263.017936433488
 30
-0.0000000000004832
 10
4612.982324550168
 20
-262.9901334458214
 30
-0.0000000000004832
 10
4612.896840311038
 20
-262.9623355002484
 30
-0.0000000000004832
  0
SPLINE
  5
139
330
1F
100
AcDbEntity
  8
图层 03
100
AcDbSpline
210
0.0
220
0.0
230
1.0
 70
     8
 71
     3
 72
     8
 73
     4
 74
     0
 42
0.0000000001
 43
0.0000000001
 40
5613.562619737069
 40
5613.562619737069
 40
5613.562619737069
 40
5613.562619737069
 40
5636.291705260579
 40
5636.291705260579
 40
5636.291705260579
 40
5636.291705260579
 10
4612.896840311038
 20
-262.9623355002484
 30
-0.0000000000004832
 10
4611.62600506185
 20
-261.7098626728498
 30
-0.0000000000004832
 10
4610.330972141406
 20
-260.4848970253765
 30
-0.0000000000004832
 10
4609.010859784816
 20
-259.2886971654304
 30
-0.0000000000004832
  0
SPLINE
  5
13A
330
1F
100
AcDbEntity
  8
图层 03
100
AcDbSpline
210
0.0
220
0.0
230
1.0
 70
     8
 71
     3
 72
     8
 73
     4
 74
     0
 42
0.0000000001
 43
0.0000000001
 40
5636.291705260579
 40
5636.291705260579
 40
5636.291705260579
 40
5636.291705260579
 40
5659.343157654012
 40
5659.343157654012
 40
5659.343157654012
 40
5659.343157654012
 10
4609.010859784816
 20
-259.2886971654304
 30
-0.0000000000004832
 10
4608.147813576115
 20
-257.7100363337164
 30
-0.0000000000004832
 10
4607.214156168411
 20
-256.1055102906932
 30
-0.0000000000004832
 10
4606.237240435504
 20
-254.5943460497942
 30
-0.0000000000004832
  0
SPLINE
  5
13B
330
1F
100
AcDbEntity
  8
图层 03
100
AcDbSpline
210
0.0
220
0.0
230
1.0
 70
     8
 71
     3
 72
     8
 73
     4
 74
     0
 42
0.0000000001
 43
0.0000000001
 40
5659.343157654012
 40
5659.343157654012
 40
5659.343157654012
 40
5659.343157654012
 40
5664.234982993019
 40
5664.234982993019
 40
5664.234982993019
 40
5664.234982993019
 10
4606.237240435504
 20
-254.5943460497942
 30
-0.0000000000004832
 10
4605.99233646147
 20
-254.2970644626829
 30
-0.0000000000004832
 10
4605.747401761251
 20
-253.9998093741387
 30
-0.0000000000004832
 10
4605.502432436119
 20
-253.7025841913139
 30
-0.0000000000004832
  0
SPLINE
  5
13C
330
1F
100
AcDbEntity
  8
图层 03
100
AcDbSpline
210
0.0
220
0.0
230
1.0
 70
     8
 71
     3
 72
    11
 73
     7
 74
     0
 42
0.0000000001
 43
0.0000000001
 40
5664.234982993019
 40
5664.234982993019
 40
5664.234982993019
 40
5664.234982993019
 40
5692.158107876719
 40
5692.158107876719
 40
5692.158107876719
 40
5693.878464037692
 40
5693.878464037692
 40
5693.878464037692
 40
5693.878464037692
 10
4605.502432436119
 20
-253.7025841913139
 30
-0.0000000000004832
 10
4604.384752935139
 20
-251.8837382063048
 30
-0.0000000000004832
 10
4603.135705417412
 20
-249.9075822843198
 30
-0.0000000000004832
 10
4601.934359188833
 20
-248.1432181846825
 30
-0.0000000000004832
 10
4601.857479698352
 20
-248.0314523593587
 30
-0.0000000000004832
 10
4601.780252186085
 20
-247.9199284066569
 30
-0.0000000000004832
 10
4601.702656688765
 20
-247.8086722796063
 30
-0.0000000000004832
  0
SPLINE
  5
13D
330
1F
100
AcDbEntity
  8
图层 03
100
AcDbSpline
210
0.0
220
0.0
230
1.0
 70
     8
 71
     3
 72
     8
 73
     4
 74
     0
 42
0.0000000001
 43
0.0000000001
 40
5693.878464037692
 40
5693.878464037692
 40
5693.878464037692
 40
5693.878464037692
 40
5718.05647040363
 40
5718.05647040363
 40
5718.05647040363
 40
5718.05647040363
 10
4601.702656688765
 20
-247.8086722796063
 30
-0.0000000000004832
 10
4600.453479904141
 20
-246.4441321407855
 30
-0.0000000000004832
 10
4599.076967917936
 20
-244.9907502049634
 30
-0.0000000000004832
 10
4597.751049861574
 20
-243.7050875044831
 30
-0.0000000000004832
  0
SPLINE
  5
13E
330
1F
100
AcDbEntity
  8
图层 03
100
AcDbSpline
210
0.0
220
0.0
230
1.0
 70
     8
 71
     3
 72
    11
 73
     7
 74
     0
 42
0.0000000001
 43
0.0000000001
 40
5718.05647040363
 40
5718.05647040363
 40
5718.05647040363
 40
5718.05647040363
 40
5721.572738637537
 40
5721.572738637537
 40
5721.572738637537
 40
5737.703778422538
 40
5737.703778422538
 40
5737.703778422538
 40
5737.703778422538
 10
4597.751049861574
 20
-243.7050875044831
 30
-0.0000000000004832
 10
4597.523865384023
 20
-243.5524777710601
 30
-0.0000000000004832
 10
4597.296582074954
 20
-243.4000334094733
 30
-0.0000000000004832
 10
4597.06919798352
 20
-243.24775945156
 30
-0.0000000000004832
 10
4596.019036945851
 20
-242.5612657533951
 30
-0.0000000000004832
 10
4594.963145765043
 20
-241.8844409137862
 30
-0.0000000000004832
 10
4593.903630629676
 20
-241.214571615128
 30
-0.0000000000004832
  0
SPLINE
  5
13F
330
1F
100
AcDbEntity
  8
图层 03
100
AcDbSpline
210
0.0
220
0.0
230
1.0
 70
     8
 71
     3
 72
     8
 73
     4
 74
     0
 42
0.0000000001
 43
0.0000000001
 40
5737.703778422538
 40
5737.703778422538
 40
5737.703778422538
 40
5737.703778422538
 40
5757.871631363239
 40
5757.871631363239
 40
5757.871631363239
 40
5757.871631363239
 10
4593.903630629676
 20
-241.214571615128
 30
-0.0000000000004832
 10
4592.49022379939
 20
-240.5669295650393
 30
-0.0000000000004832
 10
4591.077380666362
 20
-239.9178117399908
 30
-0.0000000000004832
 10
4589.665014192215
 20
-239.2674683836631
 30
-0.0000000000004832
  0
SPLINE
  5
140
330
1F
100
AcDbEntity
  8
图层 03
100
AcDbSpline
210
0.0
220
0.0
230
1.0
 70
     8
 71
     3
 72
     8
 73
     4
 74
     0
 42
0.0000000001
 43
0.0000000001
 40
5757.871631363239
 40
5757.871631363239
 40
5757.871631363239
 40
5757.871631363239
 40
5776.387547218374
 40
5776.387547218374
 40
5776.387547218374
 40
5776.387547218374
 10
4589.665014192215
 20
-239.2674683836631
 30
-0.0000000000004832
 10
4588.312111150419
 20
-238.8522964400504
 30
-0.0000000000004832
 10
4586.959888023053
 20
-238.434184663272
 30
-0.0000000000004832
 10
4585.608610062462
 20
-238.0122339104812
 30
-0.0000000000004832
  0
SPLINE
  5
141
330
1F
100
AcDbEntity
  8
图层 03
100
AcDbSpline
210
0.0
220
0.0
230
1.0
 70
     8
 71
     3
 72
     8
 73
     4
 74
     0
 42
0.0000000001
 43
0.0000000001
 40
5776.387547218374
 40
5776.387547218374
 40
5776.387547218374
 40
5776.387547218374
 40
5789.3449231278
 40
5789.3449231278
 40
5789.3449231278
 40
5789.3449231278
 10
4585.608610062462
 20
-238.0122339104812
 30
-0.0000000000004832
 10
4584.637726542603
 20
-237.8784193905967
 30
-0.0000000000004832
 10
4583.666918053063
 20
-237.74346092903
 30
-0.0000000000004832
 10
4582.696416699618
 20
-237.6047239719242
 30
-0.0000000000004832
  0
SPLINE
  5
142
330
1F
100
AcDbEntity
  8
图层 03
100
AcDbSpline
210
0.0
220
0.0
230
1.0
 70
     8
 71
     3
 72
     8
 73
     4
 74
     0
 42
0.0000000001
 43
0.0000000001
 40
5789.3449231278
 40
5789.3449231278
 40
5789.3449231278
 40
5789.3449231278
 40
5802.136099033622
 40
5802.136099033622
 40
5802.136099033622
 40
5802.136099033622
 10
4582.696416699618
 20
-237.6047239719242
 30
-0.0000000000004832
 10
4581.854830964377
 20
-237.742084675956
 30
-0.0000000000004832
 10
4580.73461088357
 20
-237.996877364231
 30
-0.0000000000004832
 10
4579.907823764655
 20
-238.1934548930892
 30
-0.0000000000004832
  0
SPLINE
  5
143
330
1F
100
AcDbEntity
  8
图层 03
100
AcDbSpline
210
0.0
220
0.0
230
1.0
 70
     8
 71
     3
 72
     8
 73
     4
 74
     0
 42
0.0000000001
 43
0.0000000001
 40
5802.136099033622
 40
5802.136099033622
 40
5802.136099033622
 40
5802.136099033622
 40
5803.834028443442
 40
5803.834028443442
 40
5803.834028443442
 40
5803.834028443442
 10
4579.907823764655
 20
-238.1934548930892
 30
-0.0000000000004832
 10
4579.791773689296
 20
-238.2413161331175
 30
-0.0000000000004832
 10
4579.67622999159
 20
-238.290424403348
 30
-0.0000000000004832
 10
4579.561238282864
 20
-238.3406773920285
 30
-0.0000000000004832
  0
SPLINE
  5
144
330
1F
100
AcDbEntity
  8
图层 03
100
AcDbSpline
210
0.0
220
0.0
230
1.0
 70
     8
 71
     3
 72
     8
 73
     4
 74
     0
 42
0.0000000001
 43
0.0000000001
 40
5803.834028443442
 40
5803.834028443442
 40
5803.834028443442
 40
5803.834028443442
 40
5826.498134208649
 40
5826.498134208649
 40
5826.498134208649
 40
5826.498134208649
 10
4579.561238282864
 20
-238.3406773920285
 30
-0.0000000000004832
 10
4578.357733197155
 20
-239.427330436632
 30
-0.0000000000004832
 10
4577.175859529976
 20
-240.7888002284839
 30
-0.0000000000004832
 10
4576.162034818189
 20
-242.0616643834796
 30
-0.0000000000004832
  0
SPLINE
  5
145
330
1F
100
AcDbEntity
  8
图层 03
100
AcDbSpline
210
0.0
220
0.0
230
1.0
 70
     8
 71
     3
 72
     8
 73
     4
 74
     0
 42
0.0000000001
 43
0.0000000001
 40
5826.498134208649
 40
5826.498134208649
 40
5826.498134208649
 40
5826.498134208649
 40
5827.043374295055
 40
5827.043374295055
 40
5827.043374295055
 40
5827.043374295055
 10
4576.162034818189
 20
-242.0616643834796
 30
-0.0000000000004832
 10
4576.142866845134
 20
-242.0978995786144
 30
-0.0000000000004832
 10
4576.123767487035
 20
-242.1341765603775
 30
-0.0000000000004832
 10
4576.104735996771
 20
-242.1704938604535
 30
-0.0000000000004832
  0
SPLINE
  5
146
330
1F
100
AcDbEntity
  8
图层 03
100
AcDbSpline
210
0.0
220
0.0
230
1.0
 70
    11
 71
     3
 72
    29
 73
    25
 74
     0
 42
0.0000000001
 43
0.0000000001
 40
-15.70796326794897
 40
-15.70796326794897
 40
-15.70796326794897
 40
-15.70796326794897
 40
-14.72621556370216
 40
-13.74446785945534
 40
-12.76272015520853
 40
-12.27184630308513
 40
-11.78097245096172
 40
-11.29009859883832
 40
-10.79922474671491
 40
-9.817477042468102
 40
-8.835729338221292
 40
-8.344855486097888
 40
-7.853981633974483
 40
-7.363107781851078
 40
-6.872233929727672
 40
-5.890486225480862
 40
-4.908738521234051
 40
-4.417864669110646
 40
-3.926990816987241
 40
-3.436116964863836
 40
-2.945243112740431
 40
-1.963495408493621
 40
-0.9817477042468103
 40
0.0
 40
0.0
 40
0.0
 40
0.0
 10
4530.005116047503
 20
-346.9285049705308
 30
-0.0000000000004832
 10
4530.005116047498
 20
-347.2812825414711
 30
-0.0000000000004832
 10
4529.876882226023
 20
-348.0462555570489
 30
-0.0000000000004832
 10
4529.18947514482
 20
-349.1129163334231
 30
-0.0000000000004832
 10
4528.301442141699
 20
-349.6863452170721
 30
-0.0000000000004832
 10
4527.547020411382
 20
-349.8968018001638
 30
-0.0000000000004832
 10
4527.00511287379
 20
-349.9443598911847
 30
-0.0000000000004832
 10
4526.463224378473
 20
-349.8967884582838
 30
-0.0000000000004832
 10
4525.708726479064
 20
-349.6864208210573
 30
-0.0000000000004832
 10
4524.821017390891
 20
-349.11260383084
 30
-0.0000000000004832
 10
4524.24719986798
 20
-348.2248942568749
 30
-0.0000000000004832
 10
4524.036833515009
 20
-347.4703974360981
 30
-0.0000000000004832
 10
4523.989257313751
 20
-346.9285049705311
 30
-0.0000000000004832
 10
4524.036833515009
 20
-346.3866125049633
 30
-0.0000000000004832
 10
4524.24719986798
 20
-345.6321156841863
 30
-0.0000000000004832
 10
4524.821017390891
 20
-344.7444061102212
 30
-0.0000000000004832
 10
4525.708726479064
 20
-344.1705891200056
 30
-0.0000000000004832
 10
4526.463224378473
 20
-343.9602214827777
 30
-0.0000000000004832
 10
4527.005112873791
 20
-343.9126500498777
 30
-0.0000000000004832
 10
4527.547020411382
 20
-343.9602081408976
 30
-0.0000000000004832
 10
4528.301442141699
 20
-344.1706647239899
 30
-0.0000000000004832
 10
4529.18947514482
 20
-344.744093607638
 30
-0.0000000000004832
 10
4529.876882226023
 20
-345.8107543840138
 30
-0.0000000000004832
 10
4530.005116047498
 20
-346.5757273995913
 30
-0.0000000000004832
 10
4530.005116047503
 20
-346.9285049705308
 30
-0.0000000000004832
  0
SPLINE
  5
147
330
1F
100
AcDbEntity
  8
图层 03
100
AcDbSpline
210
0.0
220
0.0
230
1.0
 70
     8
 71
     3
 72
    11
 73
     7
 74
     0
 42
0.0000000001
 43
0.0000000001
 40
845.3854034490006
 40
845.3854034490006
 40
845.3854034490006
 40
845.3854034490006
 40
878.9792057957111
 40
878.9792057957111
 40
878.9792057957111
 40
912.3673876644253
 40
912.3673876644253
 40
912.3673876644253
 40
912.3673876644253
 10
4519.507909850267
 20
-321.5010976062499
 30
-0.0000000000004832
 10
4518.016484767092
 20
-323.5148317077333
 30
-0.0000000000004832
 10
4516.525950353333
 20
-325.5292921299211
 30
-0.0000000000004832
 10
4515.036306813454
 20
-327.5444753380764
 30
-0.0000000000004832
 10
4513.577459565742
 20
-329.5647611945292
 30
-0.0000000000004832
 10
4512.122509265541
 20
-331.588168615281
 30
-0.0000000000004832
 10
4510.671446692949
 20
-333.6146211089792
 30
-0.0000000000004832
  0
SPLINE
  5
148
330
1F
100
AcDbEntity
  8
图层 03
100
AcDbSpline
210
0.0
220
0.0
230
1.0
 70
     8
 71
     3
 72
     8
 73
     4
 74
     0
 42
0.0000000001
 43
0.0000000001
 40
912.3673876644253
 40
912.3673876644253
 40
912.3673876644253
 40
912.3673876644253
 40
944.012377197707
 40
944.012377197707
 40
944.012377197707
 40
944.012377197707
 10
4510.671446692949
 20
-333.6146211089792
 30
-0.0000000000004832
 10
4509.356152855205
 20
-335.5812827137954
 30
-0.0000000000004832
 10
4508.04850251166
 20
-337.5537010481867
 30
-0.0000000000004832
 10
4506.74853406997
 20
-339.5316421910868
 30
-0.0000000000004832
  0
SPLINE
  5
149
330
1F
100
AcDbEntity
  8
图层 03
100
AcDbSpline
210
0.0
220
0.0
230
1.0
 70
     8
 71
     3
 72
     8
 73
     4
 74
     0
 42
0.0000000001
 43
0.0000000001
 40
944.012377197707
 40
944.012377197707
 40
944.012377197707
 40
944.012377197707
 40
973.1675320442516
 40
973.1675320442516
 40
973.1675320442516
 40
973.1675320442516
 10
4506.74853406997
 20
-339.5316421910868
 30
-0.0000000000004832
 10
4505.710921826587
 20
-341.4614740082161
 30
-0.0000000000004832
 10
4504.683345896962
 20
-343.3975780824728
 30
-0.0000000000004832
 10
4503.665915756163
 20
-345.3396036643547
 30
-0.0000000000004832
  0
SPLINE
  5
14A
330
1F
100
AcDbEntity
  8
图层 03
100
AcDbSpline
210
0.0
220
0.0
230
1.0
 70
     8
 71
     3
 72
     8
 73
     4
 74
     0
 42
0.0000000001
 43
0.0000000001
 40
973.1675320442516
 40
973.1675320442516
 40
973.1675320442516
 40
973.1675320442516
 40
1000.453033653234
 40
1000.453033653234
 40
1000.453033653234
 40
1000.453033653234
 10
4503.665915756163
 20
-345.3396036643547
 30
-0.0000000000004832
 10
4503.075392582685
 20
-347.3307437655935
 30
-0.0000000000004832
 10
4502.473698307856
 20
-349.3178649535597
 30
-0.0000000000004832
 10
4501.861928510492
 20
-351.3009819351535
 30
-0.0000000000004832
  0
SPLINE
  5
14B
330
1F
100
AcDbEntity
  8
图层 03
100
AcDbSpline
210
0.0
220
0.0
230
1.0
 70
     8
 71
     3
 72
     8
 73
     4
 74
     0
 42
0.0000000001
 43
0.0000000001
 40
1000.453033653234
 40
1000.453033653234
 40
1000.453033653234
 40
1000.453033653234
 40
1024.142540717369
 40
1024.142540717369
 40
1024.142540717369
 40
1024.142540717369
 10
4501.861928510492
 20
-351.3009819351535
 30
-0.0000000000004832
 10
4502.244337420323
 20
-353.1173814242285
 30
-0.0000000000004832
 10
4502.625867661769
 20
-354.9339341082282
 30
-0.0000000000004832
 10
4503.003717792706
 20
-356.7510913792476
 30
-0.0000000000004832
  0
SPLINE
  5
14C
330
1F
100
AcDbEntity
  8
图层 03
100
AcDbSpline
210
0.0
220
0.0
230
1.0
 70
     8
 71
     3
 72
     8
 73
     4
 74
     0
 42
0.0000000001
 43
0.0000000001
 40
1024.142540717369
 40
1024.142540717369
 40
1024.142540717369
 40
1024.142540717369
 40
1050.580811248981
 40
1050.580811248981
 40
1050.580811248981
 40
1050.580811248981
 10
4503.003717792706
 20
-356.7510913792476
 30
-0.0000000000004832
 10
4504.309077537991
 20
-358.373307147038
 30
-0.0000000000004832
 10
4505.615831445302
 20
-359.9943570946932
 30
-0.0000000000004832
 10
4506.924571830223
 20
-361.6137226523799
 30
-0.0000000000004832
  0
SPLINE
  5
14D
330
1F
100
AcDbEntity
  8
图层 03
100
AcDbSpline
210
0.0
220
0.0
230
1.0
 70
     8
 71
     3
 72
     8
 73
     4
 74
     0
 42
0.0000000001
 43
0.0000000001
 40
1050.580811248981
 40
1050.580811248981
 40
1050.580811248981
 40
1050.580811248981
 40
1086.435142301375
 40
1086.435142301375
 40
1086.435142301375
 40
1086.435142301375
 10
4506.924571830223
 20
-361.6137226523799
 30
-0.0000000000004832
 10
4509.329197815746
 20
-363.0093888945781
 30
-0.0000000000004832
 10
4511.739612060702
 20
-364.3937677485762
 30
-0.0000000000004832
 10
4514.154640800795
 20
-365.7684924854852
 30
-0.0000000000004832
  0
SPLINE
  5
14E
330
1F
100
AcDbEntity
  8
图层 03
100
AcDbSpline
210
0.0
220
0.0
230
1.0
 70
     8
 71
     3
 72
     8
 73
     4
 74
     0
 42
0.0000000001
 43
0.0000000001
 40
1086.435142301375
 40
1086.435142301375
 40
1086.435142301375
 40
1086.435142301375
 40
1102.704733633011
 40
1102.704733633011
 40
1102.704733633011
 40
1102.704733633011
 10
4514.154640800795
 20
-365.7684924854852
 30
-0.0000000000004832
 10
4515.360705197811
 20
-366.0464027226866
 30
-0.0000000000004832
 10
4516.565879724958
 20
-366.3299916088796
 30
-0.0000000000004832
 10
4517.77024030225
 20
-366.6180139490953
 30
-0.0000000000004832
  0
SPLINE
  5
14F
330
1F
100
AcDbEntity
  8
图层 03
100
AcDbSpline
210
0.0
220
0.0
230
1.0
 70
     8
 71
     3
 72
     8
 73
     4
 74
     0
 42
0.0000000001
 43
0.0000000001
 40
1102.704733633011
 40
1102.704733633011
 40
1102.704733633011
 40
1102.704733633011
 40
1130.727187742276
 40
1130.727187742276
 40
1130.727187742276
 40
1130.727187742276
 10
4517.77024030225
 20
-366.6180139490953
 30
-0.0000000000004832
 10
4519.727873978555
 20
-367.5339266560562
 30
-0.0000000000004832
 10
4521.682837384196
 20
-368.4567514223095
 30
-0.0000000000004832
 10
4523.634936953361
 20
-369.3865416412232
 30
-0.0000000000004832
  0
SPLINE
  5
150
330
1F
100
AcDbEntity
  8
图层 03
100
AcDbSpline
210
0.0
220
0.0
230
1.0
 70
     8
 71
     3
 72
     8
 73
     4
 74
     0
 42
0.0000000001
 43
0.0000000001
 40
1130.727187742276
 40
1130.727187742276
 40
1130.727187742276
 40
1130.727187742276
 40
1178.434351138064
 40
1178.434351138064
 40
1178.434351138064
 40
1178.434351138064
 10
4523.634936953361
 20
-369.3865416412232
 30
-0.0000000000004832
 10
4527.117499293647
 20
-370.1887806903404
 30
-0.0000000000004832
 10
4530.741295714937
 20
-371.1370457642722
 30
-0.0000000000004832
 10
4534.161360107478
 20
-372.2480209310859
 30
-0.0000000000004832
  0
SPLINE
  5
151
330
1F
100
AcDbEntity
  8
图层 03
100
AcDbSpline
210
0.0
220
0.0
230
1.0
 70
     8
 71
     3
 72
     8
 73
     4
 74
     0
 42
0.0000000001
 43
0.0000000001
 40
1178.434351138064
 40
1178.434351138064
 40
1178.434351138064
 40
1178.434351138064
 40
1181.906492336163
 40
1181.906492336163
 40
1181.906492336163
 40
1181.906492336163
 10
4534.161360107478
 20
-372.2480209310859
 30
-0.0000000000004832
 10
4534.417946584355
 20
-372.3120128347168
 30
-0.0000000000004832
 10
4534.674391264747
 20
-372.3768130174798
 30
-0.0000000000004832
 10
4534.930669923097
 20
-372.4424658164027
 30
-0.0000000000004832
  0
SPLINE
  5
152
330
1F
100
AcDbEntity
  8
图层 03
100
AcDbSpline
210
0.0
220
0.0
230
1.0
 70
     8
 71
     3
 72
    11
 73
     7
 74
     0
 42
0.0000000001
 43
0.0000000001
 40
1181.906492336163
 40
1181.906492336163
 40
1181.906492336163
 40
1181.906492336163
 40
1222.378809986093
 40
1222.378809986093
 40
1222.378809986093
 40
1223.962931282598
 40
1223.962931282598
 40
1223.962931282598
 40
1223.962931282598
 10
4534.930669923097
 20
-372.4424658164027
 30
-0.0000000000004832
 10
4537.851564747237
 20
-373.341395903428
 30
-0.0000000000004832
 10
4540.889222142276
 20
-374.2304953986868
 30
-0.0000000000004832
 10
4543.836189500702
 20
-375.0099843140662
 30
-0.0000000000004832
 10
4543.952791075129
 20
-375.0416020122603
 30
-0.0000000000004832
 10
4544.069405196083
 20
-375.0731578054945
 30
-0.0000000000004832
 10
4544.186031923698
 20
-375.1046503836078
 30
-0.0000000000004832
  0
SPLINE
  5
153
330
1F
100
AcDbEntity
  8
图层 03
100
AcDbSpline
210
0.0
220
0.0
230
1.0
 70
     8
 71
     3
 72
     8
 73
     4
 74
     0
 42
0.0000000001
 43
0.0000000001
 40
1223.962931282598
 40
1223.962931282598
 40
1223.962931282598
 40
1223.962931282598
 40
1249.67123809855
 40
1249.67123809855
 40
1249.67123809855
 40
1249.67123809855
 10
4544.186031923698
 20
-375.1046503836078
 30
-0.0000000000004832
 10
4546.09916730403
 20
-375.4493101328136
 30
-0.0000000000004832
 10
4548.034262052736
 20
-375.7437592370537
 30
-0.0000000000004832
 10
4549.958020578564
 20
-375.9631996011494
 30
-0.0000000000004832
  0
SPLINE
  5
154
330
1F
100
AcDbEntity
  8
图层 03
100
AcDbSpline
210
0.0
220
0.0
230
1.0
 70
     8
 71
     3
 72
     8
 73
     4
 74
     0
 42
0.0000000001
 43
0.0000000001
 40
1249.67123809855
 40
1249.67123809855
 40
1249.67123809855
 40
1249.67123809855
 40
1265.23198197212
 40
1265.23198197212
 40
1265.23198197212
 40
1265.23198197212
 10
4549.958020578564
 20
-375.9631996011494
 30
-0.0000000000004832
 10
4551.106139089045
 20
-375.810806054764
 30
-0.0000000000004832
 10
4552.253722978627
 20
-375.630149297318
 30
-0.0000000000004832
 10
4553.389426442721
 20
-375.4164604595167
 30
-0.0000000000004832
  0
SPLINE
  5
155
330
1F
100
AcDbEntity
  8
图层 03
100
AcDbSpline
210
0.0
220
0.0
230
1.0
 70
     8
 71
     3
 72
     8
 73
     4
 74
     0
 42
0.0000000001
 43
0.0000000001
 40
1265.23198197212
 40
1265.23198197212
 40
1265.23198197212
 40
1265.23198197212
 40
1266.534173785601
 40
1266.534173785601
 40
1266.534173785601
 40
1266.534173785601
 10
4553.389426442721
 20
-375.4164604595167
 30
-0.0000000000004832
 10
4553.485567469693
 20
-375.4032945833769
 30
-0.0000000000004832
 10
4553.581693184805
 20
-375.3900439298678
 30
-0.0000000000004832
 10
4553.677802919443
 20
-375.3767071843056
 30
-0.0000000000004832
  0
SPLINE
  5
156
330
1F
100
AcDbEntity
  8
图层 03
100
AcDbSpline
210
0.0
220
0.0
230
1.0
 70
     8
 71
     3
 72
     8
 73
     4
 74
     0
 42
0.0000000001
 43
0.0000000001
 40
1266.534173785601
 40
1266.534173785601
 40
1266.534173785601
 40
1266.534173785601
 40
1279.364238301428
 40
1279.364238301428
 40
1279.364238301428
 40
1279.364238301428
 10
4553.677802919443
 20
-375.3767071843056
 30
-0.0000000000004832
 10
4554.506780956324
 20
-374.9191755733465
 30
-0.0000000000004832
 10
4555.33336974726
 20
-374.452543991931
 30
-0.0000000000004832
 10
4556.152616126505
 20
-373.977840743898
 30
-0.0000000000004832
  0
SPLINE
  5
157
330
1F
100
AcDbEntity
  8
图层 03
100
AcDbSpline
210
0.0
220
0.0
230
1.0
 70
     8
 71
     3
 72
     8
 73
     4
 74
     0
 42
0.0000000001
 43
0.0000000001
 40
1279.364238301428
 40
1279.364238301428
 40
1279.364238301428
 40
1279.364238301428
 40
1291.032708488662
 40
1291.032708488662
 40
1291.032708488662
 40
1291.032708488662
 10
4556.152616126505
 20
-373.977840743898
 30
-0.0000000000004832
 10
4556.724362679066
 20
-373.3255899985041
 30
-0.0000000000004832
 10
4557.291743589954
 20
-372.6691133244815
 30
-0.0000000000004832
 10
4557.854122008881
 20
-372.0081577955007
 30
-0.0000000000004832
  0
SPLINE
  5
158
330
1F
100
AcDbEntity
  8
图层 03
100
AcDbSpline
210
0.0
220
0.0
230
1.0
 70
     8
 71
     3
 72
     8
 73
     4
 74
     0
 42
0.0000000001
 43
0.0000000001
 40
1291.032708488662
 40
1291.032708488662
 40
1291.032708488662
 40
1291.032708488662
 40
1302.661619972991
 40
1302.661619972991
 40
1302.661619972991
 40
1302.661619972991
 10
4557.854122008881
 20
-372.0081577955007
 30
-0.0000000000004832
 10
4558.301654394656
 20
-371.2600773211857
 30
-0.0000000000004832
 10
4558.746532324825
 20
-370.510184418883
 30
-0.0000000000004832
 10
4559.188522123221
 20
-369.7584069251836
 30
-0.0000000000004832
  0
SPLINE
  5
159
330
1F
100
AcDbEntity
  8
图层 03
100
AcDbSpline
210
0.0
220
0.0
230
1.0
 70
     8
 71
     3
 72
     8
 73
     4
 74
     0
 42
0.0000000001
 43
0.0000000001
 40
1302.661619972991
 40
1302.661619972991
 40
1302.661619972991
 40
1302.661619972991
 40
1314.123486182931
 40
1314.123486182931
 40
1314.123486182931
 40
1314.123486182931
 10
4559.188522123221
 20
-369.7584069251836
 30
-0.0000000000004832
 10
4559.584934696952
 20
-368.9927690784601
 30
-0.0000000000004832
 10
4559.979508810618
 20
-368.2260295572166
 30
-0.0000000000004832
 10
4560.372106866216
 20
-367.4581438946688
 30
-0.0000000000004832
  0
SPLINE
  5
15A
330
1F
100
AcDbEntity
  8
图层 03
100
AcDbSpline
210
0.0
220
0.0
230
1.0
 70
     8
 71
     3
 72
     8
 73
     4
 74
     0
 42
0.0000000001
 43
0.0000000001
 40
1314.123486182931
 40
1314.123486182931
 40
1314.123486182931
 40
1314.123486182931
 40
1325.19187069879
 40
1325.19187069879
 40
1325.19187069879
 40
1325.19187069879
 10
4560.372106866216
 20
-367.4581438946688
 30
-0.0000000000004832
 10
4560.650268273169
 20
-366.6657502261116
 30
-0.0000000000004832
 10
4560.929714691671
 20
-365.8738985062055
 30
-0.0000000000004832
 10
4561.210508704926
 20
-365.0826307648077
 30
-0.0000000000004832
  0
SPLINE
  5
15B
330
1F
100
AcDbEntity
  8
图层 03
100
AcDbSpline
210
0.0
220
0.0
230
1.0
 70
     8
 71
     3
 72
     8
 73
     4
 74
     0
 42
0.0000000001
 43
0.0000000001
 40
1325.19187069879
 40
1325.19187069879
 40
1325.19187069879
 40
1325.19187069879
 40
1336.361296416566
 40
1336.361296416566
 40
1336.361296416566
 40
1336.361296416566
 10
4561.210508704926
 20
-365.0826307648077
 30
-0.0000000000004832
 10
4561.283123971558
 20
-364.2240915224155
 30
-0.0000000000004832
 10
4561.364565257007
 20
-363.3670411283955
 30
-0.0000000000004832
 10
4561.455168724416
 20
-362.511372980037
 30
-0.0000000000004832
  0
SPLINE
  5
15C
330
1F
100
AcDbEntity
  8
图层 03
100
AcDbSpline
210
0.0
220
0.0
230
1.0
 70
     8
 71
     3
 72
     8
 73
     4
 74
     0
 42
0.0000000001
 43
0.0000000001
 40
1336.361296416566
 40
1336.361296416566
 40
1336.361296416566
 40
1336.361296416566
 40
1348.762919053241
 40
1348.762919053241
 40
1348.762919053241
 40
1348.762919053241
 10
4561.455168724416
 20
-362.511372980037
 30
-0.0000000000004832
 10
4561.245919979008
 20
-361.56180656924
 30
-0.0000000000004832
 10
4561.055582813976
 20
-360.6097890541139
 30
-0.0000000000004832
 10
4560.884651207632
 20
-359.6542370321475
 30
-0.0000000000004832
  0
SPLINE
  5
15D
330
1F
100
AcDbEntity
  8
图层 03
100
AcDbSpline
210
0.0
220
0.0
230
1.0
 70
     8
 71
     3
 72
     8
 73
     4
 74
     0
 42
0.0000000001
 43
0.0000000001
 40
1348.762919053241
 40
1348.762919053241
 40
1348.762919053241
 40
1348.762919053241
 40
1349.191605975566
 40
1349.191605975566
 40
1349.191605975566
 40
1349.191605975566
 10
4560.884651207632
 20
-359.6542370321475
 30
-0.0000000000004832
 10
4560.879482535458
 20
-359.621125142311
 30
-0.0000000000004832
 10
4560.874339158468
 20
-359.5880104651815
 30
-0.0000000000004832
 10
4560.869220973695
 20
-359.5548931392548
 30
-0.0000000000004832
  0
SPLINE
  5
15E
330
1F
100
AcDbEntity
  8
图层 03
100
AcDbSpline
210
0.0
220
0.0
230
1.0
 70
     8
 71
     3
 72
     8
 73
     4
 74
     0
 42
0.0000000001
 43
0.0000000001
 40
1349.191605975566
 40
1349.191605975566
 40
1349.191605975566
 40
1349.191605975566
 40
1366.409205840046
 40
1366.409205840046
 40
1366.409205840046
 40
1366.409205840046
 10
4560.869220973695
 20
-359.5548931392545
 30
-0.0000000000004832
 10
4560.299347741251
 20
-358.3238971271452
 30
-0.0000000000004832
 10
4559.782140830699
 20
-357.0674868630604
 30
-0.0000000000004832
 10
4559.308845444677
 20
-355.7984017866847
 30
-0.0000000000004832
  0
SPLINE
  5
15F
330
1F
100
AcDbEntity
  8
图层 03
100
AcDbSpline
210
0.0
220
0.0
230
1.0
 70
     8
 71
     3
 72
    11
 73
     7
 74
     0
 42
0.0000000001
 43
0.0000000001
 40
1366.409205840046
 40
1366.409205840046
 40
1366.409205840046
 40
1366.409205840046
 40
1379.395470569817
 40
1379.395470569817
 40
1379.395470569817
 40
1393.514873191133
 40
1393.514873191133
 40
1393.514873191133
 40
1393.514873191133
 10
4559.308845444677
 20
-355.7984017866847
 30
-0.0000000000004832
 10
4558.774283209805
 20
-354.9252972215583
 30
-0.0000000000004832
 10
4558.264444936508
 20
-354.0351566745869
 30
-0.0000000000004832
 10
4557.776947977127
 20
-353.1349962761026
 30
-0.0000000000004832
 10
4557.253992225578
 20
-352.1567430169035
 30
-0.0000000000004832
 10
4556.763292336671
 20
-351.1470612805983
 30
-0.0000000000004832
 10
4556.304943748373
 20
-350.1378283063468
 30
-0.0000000000004832
  0
SPLINE
  5
160
330
1F
100
AcDbEntity
  8
图层 03
100
AcDbSpline
210
0.0
220
0.0
230
1.0
 70
     8
 71
     3
 72
     8
 73
     4
 74
     0
 42
0.0000000001
 43
0.0000000001
 40
1393.514873191133
 40
1393.514873191133
 40
1393.514873191133
 40
1393.514873191133
 40
1408.757576253648
 40
1408.757576253648
 40
1408.757576253648
 40
1408.757576253648
 10
4556.304943748373
 20
-350.1378283063468
 30
-0.0000000000004832
 10
4555.651133273143
 20
-349.1324744716288
 30
-0.0000000000004832
 10
4555.024058064744
 20
-348.0994536050546
 30
-0.0000000000004832
 10
4554.425121989019
 20
-347.0603182169391
 30
-0.0000000000004832
  0
SPLINE
  5
161
330
1F
100
AcDbEntity
  8
图层 03
100
AcDbSpline
210
0.0
220
0.0
230
1.0
 70
     8
 71
     3
 72
    11
 73
     7
 74
     0
 42
0.0000000001
 43
0.0000000001
 40
1408.757576253648
 40
1408.757576253648
 40
1408.757576253648
 40
1408.757576253648
 40
1442.152956997929
 40
1442.152956997929
 40
1442.152956997929
 40
1460.945279827483
 40
1460.945279827483
 40
1460.945279827483
 40
1460.945279827483
 10
4554.425121989019
 20
-347.0603182169391
 30
-0.0000000000004832
 10
4553.200660646711
 20
-344.7554797762836
 30
-0.0000000000004832
 10
4552.055992625001
 20
-342.3293121311081
 30
-0.0000000000004832
 10
4551.007398909876
 20
-339.9423218780049
 30
-0.0000000000004832
 10
4550.412694713605
 20
-338.5864785970369
 30
-0.0000000000004832
 10
4549.833389780934
 20
-337.2220700054766
 30
-0.0000000000004832
 10
4549.269333300823
 20
-335.8538059674486
 30
-0.0000000000004832
  0
SPLINE
  5
162
330
1F
100
AcDbEntity
  8
图层 03
100
AcDbSpline
210
0.0
220
0.0
230
1.0
 70
     8
 71
     3
 72
     8
 73
     4
 74
     0
 42
0.0000000001
 43
0.0000000001
 40
1460.945279827483
 40
1460.945279827483
 40
1460.945279827483
 40
1460.945279827483
 40
1481.650474904859
 40
1481.650474904859
 40
1481.650474904859
 40
1481.650474904859
 10
4549.269333300823
 20
-335.8538059674486
 30
-0.0000000000004832
 10
4548.573789213197
 20
-334.376488260079
 30
-0.0000000000004832
 10
4547.93229600651
 20
-332.8766856657329
 30
-0.0000000000004832
 10
4547.34065426179
 20
-331.3568197532707
 30
-0.0000000000004832
  0
SPLINE
  5
163
330
1F
100
AcDbEntity
  8
图层 03
100
AcDbSpline
210
0.0
220
0.0
230
1.0
 70
     8
 71
     3
 72
     8
 73
     4
 74
     0
 42
0.0000000001
 43
0.0000000001
 40
1481.650474904859
 40
1481.650474904859
 40
1481.650474904859
 40
1481.650474904859
 40
1521.455405904153
 40
1521.455405904153
 40
1521.455405904153
 40
1521.455405904153
 10
4547.34065426179
 20
-331.3568197532707
 30
-0.0000000000004832
 10
4545.931230509897
 20
-328.5526762311748
 30
-0.0000000000004832
 10
4544.560842295245
 20
-325.7265373526732
 30
-0.0000000000004832
 10
4543.228464779126
 20
-322.8859434407857
 30
-0.0000000000004832
  0
SPLINE
  5
164
330
1F
100
AcDbEntity
  8
图层 03
100
AcDbSpline
210
0.0
220
0.0
230
1.0
 70
     8
 71
     3
 72
     8
 73
     4
 74
     0
 42
0.0000000001
 43
0.0000000001
 40
1521.455405904153
 40
1521.455405904153
 40
1521.455405904153
 40
1521.455405904153
 40
1555.52340168921
 40
1555.52340168921
 40
1555.52340168921
 40
1555.52340168921
 10
4543.228464779126
 20
-322.8859434407857
 30
-0.0000000000004832
 10
4541.675389409391
 20
-320.6945892779374
 30
-0.0000000000004832
 10
4540.123827295769
 20
-318.5021299563412
 30
-0.0000000000004832
 10
4538.573716071562
 20
-316.3086214612033
 30
-0.0000000000004832
  0
SPLINE
  5
165
330
1F
100
AcDbEntity
  8
图层 03
100
AcDbSpline
210
0.0
220
0.0
230
1.0
 70
     8
 71
     3
 72
     8
 73
     4
 74
     0
 42
0.0000000001
 43
0.0000000001
 40
1555.52340168921
 40
1555.52340168921
 40
1555.52340168921
 40
1555.52340168921
 40
1581.349258622751
 40
1581.349258622751
 40
1581.349258622751
 40
1581.349258622751
 10
4538.573716071562
 20
-316.3086214612033
 30
-0.0000000000004832
 10
4536.932351843008
 20
-315.1434755491233
 30
-0.0000000000004832
 10
4535.288784132686
 20
-313.9817765286896
 30
-0.0000000000004832
 10
4533.64310940735
 20
-312.8234707455742
 30
-0.0000000000004832
  0
SPLINE
  5
166
330
1F
100
AcDbEntity
  8
图层 03
100
AcDbSpline
210
0.0
220
0.0
230
1.0
 70
     8
 71
     3
 72
     8
 73
     4
 74
     0
 42
0.0000000001
 43
0.0000000001
 40
1581.349258622751
 40
1581.349258622751
 40
1581.349258622751
 40
1581.349258622751
 40
1603.00431595232
 40
1603.00431595232
 40
1603.00431595232
 40
1603.00431595232
 10
4533.64310940735
 20
-312.8234707455742
 30
-0.0000000000004832
 10
4532.024993187231
 20
-312.9066951755225
 30
-0.0000000000004832
 10
4530.406802241867
 20
-312.9891987414893
 30
-0.0000000000004832
 10
4528.788539941444
 20
-313.0709970885571
 30
-0.0000000000004832
  0
SPLINE
  5
167
330
1F
100
AcDbEntity
  8
图层 03
100
AcDbSpline
210
0.0
220
0.0
230
1.0
 70
     8
 71
     3
 72
     8
 73
     4
 74
     0
 42
0.0000000001
 43
0.0000000001
 40
1603.00431595232
 40
1603.00431595232
 40
1603.00431595232
 40
1603.00431595232
 40
1628.825867742443
 40
1628.825867742443
 40
1628.825867742443
 40
1628.825867742443
 10
4528.788539941444
 20
-313.0709970885571
 30
-0.0000000000004832
 10
4527.220856109043
 20
-314.1585418484493
 30
-0.0000000000004832
 10
4525.651100660538
 20
-315.2430523144488
 30
-0.0000000000004832
 10
4524.079315058875
 20
-316.3245235641396
 30
-0.0000000000004832
  0
SPLINE
  5
168
330
1F
100
AcDbEntity
  8
图层 03
100
AcDbSpline
210
0.0
220
0.0
230
1.0
 70
     8
 71
     3
 72
     8
 73
     4
 74
     0
 42
0.0000000001
 43
0.0000000001
 40
1628.825867742443
 40
1628.825867742443
 40
1628.825867742443
 40
1628.825867742443
 40
1659.798337320222
 40
1659.798337320222
 40
1659.798337320222
 40
1659.798337320222
 10
4524.079315058875
 20
-316.3245235641396
 30
-0.0000000000004832
 10
4522.557061033689
 20
-318.051520892526
 30
-0.0000000000004832
 10
4521.033258070285
 20
-319.7770493184562
 30
-0.0000000000004832
 10
4519.507909850267
 20
-321.5010976062499
 30
-0.0000000000004832
  0
POLYLINE
  5
16A
330
1F
100
AcDbEntity
  8
图层01
100
AcDb2dPolyline
 66
     1
 10
0.0
 20
0.0
 30
0.0
 70
     1
  0
VERTEX
  5
16B
330
16A
100
AcDbEntity
  8
图层01
100
AcDbVertex
100
AcDb2dVertex
 10
4410.0
 20
-600.0
 30
0.0
  0
VERTEX
  5
16C
330
16A
100
AcDbEntity
  8
图层01
100
AcDbVertex
100
AcDb2dVertex
 10
4810.0
 20
-600.0
 30
0.0
  0
VERTEX
  5
16D
330
16A
100
AcDbEntity
  8
图层01
100
AcDbVertex
100
AcDb2dVertex
 10
4810.0
 20
-200.0
 30
0.0
  0
VERTEX
  5
16E
330
16A
100
AcDbEntity
  8
图层01
100
AcDbVertex
100
AcDb2dVertex
 10
4410.0
 20
-200.0
 30
0.0
  0
SEQEND
  5
16F
330
16A
100
AcDbEntity
  8
图层01
  0
ENDSEC
  0
SECTION
  2
OBJECTS
  0
DICTIONARY
  5
C
330
0
100
AcDbDictionary
281
     1
  3
ACAD_DETAILVIEWSTYLE
350
1AB
  3
ACAD_GROUP
350
D
  3
ACAD_LAYOUT
350
1A
  3
ACAD_MATERIAL
350
43
  3
ACAD_MLEADERSTYLE
350
5B
  3
ACAD_MLINESTYLE
350
17
  3
ACAD_PLOTSETTINGS
350
19
  3
ACAD_PLOTSTYLENAME
350
E
  3
ACAD_SCALELIST
350
47
  3
ACAD_SECTIONVIEWSTYLE
350
1AC
  3
ACAD_TABLESTYLE
350
59
  3
ACAD_VISUALSTYLE
350
2A
  3
ACDB_RECOMPOSE_DATA
350
1A8
  3
AcDbVariableDictionary
350
170
  0
SUN
  5
5D
330
29
100
AcDbSun
 90
        1
290
     0
 63
     7
421
 16777215
 40
1.0
291
     1
 91
  2455826
 92
 54000000
292
     0
 70
     2
 71
   256
280
     1
  0
DICTIONARY
  5
1AB
102
{ACAD_REACTORS
330
C
102
}
330
C
100
AcDbDictionary
281
     1
  0
DICTIONARY
  5
D
102
{ACAD_REACTORS
330
C
102
}
330
C
100
AcDbDictionary
281
     1
  0
DICTIONARY
  5
1A
102
{ACAD_REACTORS
330
C
102
}
330
C
100
AcDbDictionary
281
     1
  3
Layout1
350
1E
  3
Layout2
350
26
  3
Model
350
22
  0
DICTIONARY
  5
43
102
{ACAD_REACTORS
330
C
102
}
330
C
100
AcDbDictionary
281
     1
  3
ByBlock
350
45
  3
ByLayer
350
44
  3
Global
350
46
  0
DICTIONARY
  5
5B
102
{ACAD_REACTORS
330
C
102
}
330
C
100
AcDbDictionary
281
     1
  3
Standard
350
5C
  0
DICTIONARY
  5
17
102
{ACAD_REACTORS
330
C
102
}
330
C
100
AcDbDictionary
281
     1
  3
Standard
350
18
  0
DICTIONARY
  5
19
102
{ACAD_REACTORS
330
C
102
}
330
C
100
AcDbDictionary
281
     1
  0
ACDBDICTIONARYWDFLT
  5
E
102
{ACAD_REACTORS
330
C
102
}
330
C
100
AcDbDictionary
281
     1
  3
Normal
350
F
100
AcDbDictionaryWithDefault
340
F
  0
DICTIONARY
  5
47
102
{ACAD_REACTORS
330
C
102
}
330
C
100
AcDbDictionary
281
     1
  3
A0
350
48
  3
A1
350
49
  3
A2
350
4A
  3
A3
350
4B
  3
A4
350
4C
  3
A5
350
4D
  3
A6
350
4E
  3
A7
350
4F
  3
A8
350
50
  3
A9
350
51
  3
B1
350
52
  3
B2
350
53
  3
B3
350
54
  3
B4
350
55
  3
B5
350
56
  3
B6
350
57
  3
B7
350
58
  0
DICTIONARY
  5
1AC
102
{ACAD_REACTORS
330
C
102
}
330
C
100
AcDbDictionary
281
     1
  0
DICTIONARY
  5
59
102
{ACAD_REACTORS
330
C
102
}
330
C
100
AcDbDictionary
281
     1
  3
Standard
350
5A
  0
DICTIONARY
  5
2A
102
{ACAD_REACTORS
330
C
102
}
330
C
100
AcDbDictionary
281
     1
  3
2dWireframe
350
2F
  3
Basic
350
32
  3
Brighten
350
36
  3
ColorChange
350
3A
  3
Conceptual
350
34
  3
Dim
350
35
  3
EdgeColorOff
350
3D
  3
Facepattern
350
39
  3
Flat
350
2B
  3
FlatWithEdges
350
2C
  3
Gouraud
350
2D
  3
GouraudWithEdges
350
2E
  3
Hidden
350
31
  3
JitterOff
350
3B
  3
Linepattern
350
38
  3
OverhangOff
350
3C
  3
Realistic
350
33
  3
Shaded
350
42
  3
Shaded with edges
350
41
  3
Shades of Gray
350
3E
  3
Sketchy
350
3F
  3
Thicken
350
37
  3
Wireframe
350
30
  3
X-Ray
350
40
  0
XRECORD
  5
1A8
102
{ACAD_REACTORS
330
C
102
}
330
C
100
AcDbXrecord
280
     1
 90
        1
330
5A
  0
DICTIONARY
  5
170
102
{ACAD_REACTORS
330
C
102
}
330
C
100
AcDbDictionary
281
     1
  3
CANNOSCALE
350
171
  3
CMLEADERSTYLE
350
1AA
  3
CTABLESTYLE
350
1A9
  3
XCLIPFRAME
350
172
  0
LAYOUT
  5
1E
102
{ACAD_REACTORS
330
1A
102
}
330
1A
100
AcDbPlotSettings
  1

  2
none_device
  4

  6

 40
0.0
 41
0.0
 42
0.0
 43
0.0
 44
0.0
 45
0.0
 46
0.0
 47
0.0
 48
0.0
 49
0.0
140
0.0
141
0.0
142
1.0
143
1.0
 70
   688
 72
     0
 73
     0
 74
     5
  7

 75
    16
 76
     0
 77
     2
 78
   300
147
1.0
148
0.0
149
0.0
100
AcDbLayout
  1
Layout1
 70
     1
 71
     1
 10
0.0
 20
0.0
 11
12.0
 21
9.0
 12
0.0
 22
0.0
 32
0.0
 14
1.000000000000000E+20
 24
1.000000000000000E+20
 34
1.000000000000000E+20
 15
-1.000000000000000E+20
 25
-1.000000000000000E+20
 35
-1.000000000000000E+20
146
0.0
 13
0.0
 23
0.0
 33
0.0
 16
1.0
 26
0.0
 36
0.0
 17
0.0
 27
1.0
 37
0.0
 76
     0
330
1B
  0
LAYOUT
  5
26
102
{ACAD_REACTORS
330
1A
102
}
330
1A
100
AcDbPlotSettings
  1

  2
none_device
  4

  6

 40
0.0
 41
0.0
 42
0.0
 43
0.0
 44
0.0
 45
0.0
 46
0.0
 47
0.0
 48
0.0
 49
0.0
140
0.0
141
0.0
142
1.0
143
1.0
 70
   688
 72
     0
 73
     0
 74
     5
  7

 75
    16
 76
     0
 77
     2
 78
   300
147
1.0
148
0.0
149
0.0
100
AcDbLayout
  1
Layout2
 70
     1
 71
     2
 10
0.0
 20
0.0
 11
0.0
 21
0.0
 12
0.0
 22
0.0
 32
0.0
 14
0.0
 24
0.0
 34
0.0
 15
0.0
 25
0.0
 35
0.0
146
0.0
 13
0.0
 23
0.0
 33
0.0
 16
1.0
 26
0.0
 36
0.0
 17
0.0
 27
1.0
 37
0.0
 76
     0
330
23
  0
LAYOUT
  5
22
102
{ACAD_REACTORS
330
1A
102
}
330
1A
100
AcDbPlotSettings
  1

  2
none_device
  4
Letter_(8.50_x_11.00_Inches)
  6

 40
6.35
 41
6.35
 42
6.35000508
 43
6.35000508
 44
215.9
 45
279.4
 46
0.0
 47
0.0
 48
0.0
 49
0.0
140
0.0
141
0.0
142
1.0
143
1.0
 70
  1712
 72
     0
 73
     0
 74
     0
  7

 75
     0
 76
     0
 77
     2
 78
   300
147
1.0
148
0.0
149
0.0
100
AcDbLayout
  1
Model
 70
     1
 71
     0
 10
0.0
 20
0.0
 11
12.0
 21
9.0
 12
0.0
 22
0.0
 32
0.0
 14
1.000000000000000E+20
 24
1.000000000000000E+20
 34
1.000000000000000E+20
 15
-1.000000000000000E+20
 25
-1.000000000000000E+20
 35
-1.000000000000000E+20
146
0.0
 13
0.0
 23
0.0
 33
0.0
 16
1.0
 26
0.0
 36
0.0
 17
0.0
 27
1.0
 37
0.0
 76
     0
330
1F
331
29
  0
MATERIAL
  5
45
102
{ACAD_REACTORS
330
43
102
}
330
43
100
AcDbMaterial
  1
ByBlock
 72
     1
 94
      127
  0
MATERIAL
  5
44
102
{ACAD_REACTORS
330
43
102
}
330
43
100
AcDbMaterial
  1
ByLayer
 72
     1
 94
      127
  0
MATERIAL
  5
46
102
{ACAD_REACTORS
330
43
102
}
330
43
100
AcDbMaterial
  1
Global
 72
     1
 94
      127
  0
MLEADERSTYLE
  5
5C
102
{ACAD_REACTORS
330
5B
102
}
102
{ACAD_XDICTIONARY
360
1A6
102
}
330
5B
100
AcDbMLeaderStyle
170
     2
171
     1
172
     0
 90
        2
 40
0.0
 41
0.0
173
     1
 91
-1056964608
340
14
 92
       -2
290
     1
 42
0.09
291
     1
 43
0.36
  3
Standard
341
0
 44
0.18
300

342
11
174
     1
178
     6
175
     1
176
     0
 93
-1056964608
 45
0.18
292
     0
297
     0
 46
0.18
343
0
 94
-1056964608
 47
1.0
 49
1.0
140
1.0
293
     1
141
0.0
294
     1
177
     0
142
1.0
295
     0
296
     0
143
0.125
1001
ACAD_MLEADERVER
1070
     2
  0
MLINESTYLE
  5
18
102
{ACAD_REACTORS
330
17
102
}
330
17
100
AcDbMlineStyle
  2
Standard
 70
     0
  3

 62
   256
 51
90.0
 52
90.0
 71
     2
 49
0.5
 62
   256
  6
BYLAYER
 49
-0.5
 62
   256
  6
BYLAYER
  0
ACDBPLACEHOLDER
  5
F
102
{ACAD_REACTORS
330
E
102
}
330
E
  0
SCALE
  5
48
102
{ACAD_REACTORS
330
47
102
}
330
47
100
AcDbScale
 70
     0
300
1:1
140
1.0
141
1.0
290
     1
  0
SCALE
  5
49
102
{ACAD_REACTORS
330
47
102
}
330
47
100
AcDbScale
 70
     0
300
1/128" = 1'-0"
140
0.0078125
141
12.0
290
     0
  0
SCALE
  5
4A
102
{ACAD_REACTORS
330
47
102
}
330
47
100
AcDbScale
 70
     0
300
1/64" = 1'-0"
140
0.015625
141
12.0
290
     0
  0
SCALE
  5
4B
102
{ACAD_REACTORS
330
47
102
}
330
47
100
AcDbScale
 70
     0
300
1/32" = 1'-0"
140
0.03125
141
12.0
290
     0
  0
SCALE
  5
4C
102
{ACAD_REACTORS
330
47
102
}
330
47
100
AcDbScale
 70
     0
300
1/16" = 1'-0"
140
0.0625
141
12.0
290
     0
  0
SCALE
  5
4D
102
{ACAD_REACTORS
330
47
102
}
330
47
100
AcDbScale
 70
     0
300
3/32" = 1'-0"
140
0.09375
141
12.0
290
     0
  0
SCALE
  5
4E
102
{ACAD_REACTORS
330
47
102
}
330
47
100
AcDbScale
 70
     0
300
1/8" = 1'-0"
140
0.125
141
12.0
290
     0
  0
SCALE
  5
4F
102
{ACAD_REACTORS
330
47
102
}
330
47
100
AcDbScale
 70
     0
300
3/16" = 1'-0"
140
0.1875
141
12.0
290
     0
  0
SCALE
  5
50
102
{ACAD_REACTORS
330
47
102
}
330
47
100
AcDbScale
 70
     0
300
1/4" = 1'-0"
140
0.25
141
12.0
290
     0
  0
SCALE
  5
51
102
{ACAD_REACTORS
330
47
102
}
330
47
100
AcDbScale
 70
     0
300
3/8" = 1'-0"
140
0.375
141
12.0
290
     0
  0
SCALE
  5
52
102
{ACAD_REACTORS
330
47
102
}
330
47
100
AcDbScale
 70
     0
300
1/2" = 1'-0"
140
0.5
141
12.0
290
     0
  0
SCALE
  5
53
102
{ACAD_REACTORS
330
47
102
}
330
47
100
AcDbScale
 70
     0
300
3/4" = 1'-0"
140
0.75
141
12.0
290
     0
  0
SCALE
  5
54
102
{ACAD_REACTORS
330
47
102
}
330
47
100
AcDbScale
 70
     0
300
1" = 1'-0"
140
1.0
141
12.0
290
     0
  0
SCALE
  5
55
102
{ACAD_REACTORS
330
47
102
}
330
47
100
AcDbScale
 70
     0
300
1-1/2" = 1'-0"
140
1.5
141
12.0
290
     0
  0
SCALE
  5
56
102
{ACAD_REACTORS
330
47
102
}
330
47
100
AcDbScale
 70
     0
300
3" = 1'-0"
140
3.0
141
12.0
290
     0
  0
SCALE
  5
57
102
{ACAD_REACTORS
330
47
102
}
330
47
100
AcDbScale
 70
     0
300
6" = 1'-0"
140
6.0
141
12.0
290
     0
  0
SCALE
  5
58
102
{ACAD_REACTORS
330
47
102
}
330
47
100
AcDbScale
 70
     0
300
1'-0" = 1'-0"
140
12.0
141
12.0
290
     0
  0
TABLESTYLE
  5
5A
102
{ACAD_REACTORS
330
59
102
}
102
{ACAD_XDICTIONARY
360
1A3
102
}
330
59
100
AcDbTableStyle
  3
Standard
 70
     0
 71
     0
 40
0.06
 41
0.06
280
     0
281
     0
  7
Standard
140
0.18
170
     2
 62
     0
 63
   257
283
     0
 90
        4
 91
        0
  1

274
    -2
284
     1
 64
     0
275
    -2
285
     1
 65
     0
276
    -2
286
     1
 66
     0
277
    -2
287
     1
 67
     0
278
    -2
288
     1
 68
     0
279
    -2
289
     1
 69
     0
  7
Standard
140
0.25
170
     5
 62
     0
 63
   257
283
     0
 90
        4
 91
        0
  1

274
    -2
284
     1
 64
     0
275
    -2
285
     1
 65
     0
276
    -2
286
     1
 66
     0
277
    -2
287
     1
 67
     0
278
    -2
288
     1
 68
     0
279
    -2
289
     1
 69
     0
  7
Standard
140
0.18
170
     5
 62
     0
 63
   257
283
     0
 90
        4
 91
        0
  1

274
    -2
284
     1
 64
     0
275
    -2
285
     1
 65
     0
276
    -2
286
     1
 66
     0
277
    -2
287
     1
 67
     0
278
    -2
288
     1
 68
     0
279
    -2
289
     1
 69
     0
  0
VISUALSTYLE
  5
2F
102
{ACAD_REACTORS
330
2A
102
}
102
{ACAD_XDICTIONARY
360
17B
102
}
330
2A
100
AcDbVisualStyle
  2
2dWireframe
 70
     4
 71
     0
 72
     2
 73
     0
 90
        0
 40
0.6
 41
30.0
 62
     5
 63
     7
421
 16777215
 74
     1
 91
        4
 64
     7
 65
   257
 75
     1
175
     1
 42
1.0
 92
        0
 66
   257
 43
1.0
 76
     1
 77
     6
 78
     2
 67
     7
 79
     5
170
     0
171
     0
290
     0
174
     0
 93
        1
 44
0.0
173
     0
291
     0
 45
0.0
  0
VISUALSTYLE
  5
32
102
{ACAD_REACTORS
330
2A
102
}
102
{ACAD_XDICTIONARY
360
181
102
}
330
2A
100
AcDbVisualStyle
  2
Basic
 70
     7
 71
     1
 72
     0
 73
     1
 90
        0
 40
0.6
 41
30.0
 62
     5
 63
     7
421
 16777215
 74
     0
 91
        4
 64
     7
 65
   257
 75
     1
175
     1
 42
1.0
 92
        8
 66
     7
 43
1.0
 76
     1
 77
     6
 78
     2
 67
     7
 79
     5
170
     0
171
     0
290
     0
174
     0
 93
        1
 44
0.0
173
     0
291
     1
 45
0.0
  0
VISUALSTYLE
  5
36
102
{ACAD_REACTORS
330
2A
102
}
102
{ACAD_XDICTIONARY
360
189
102
}
330
2A
100
AcDbVisualStyle
  2
Brighten
 70
    12
 71
     2
 72
     2
 73
     0
 90
        0
 40
0.6
 41
30.0
 62
     5
 63
     7
421
 16777215
 74
     1
 91
        4
 64
     7
 65
   257
 75
     1
175
     1
 42
1.0
 92
        8
 66
     7
 43
1.0
 76
     1
 77
     6
 78
     2
 67
     7
 79
     5
170
     0
171
     0
290
     0
174
     0
 93
        1
 44
50.0
173
     0
291
     1
 45
0.0
  0
VISUALSTYLE
  5
3A
102
{ACAD_REACTORS
330
2A
102
}
102
{ACAD_XDICTIONARY
360
191
102
}
330
2A
100
AcDbVisualStyle
  2
ColorChange
 70
    16
 71
     2
 72
     2
 73
     3
 90
        0
 40
0.6
 41
30.0
 62
     5
 63
     8
421
  8421504
 74
     1
 91
        4
 64
     7
 65
   257
 75
     1
175
     1
 42
1.0
 92
        8
 66
     8
424
  8421504
 43
1.0
 76
     1
 77
     6
 78
     2
 67
     7
 79
     5
170
     0
171
     0
290
     0
174
     0
 93
        1
 44
0.0
173
     0
291
     1
 45
0.0
  0
VISUALSTYLE
  5
34
102
{ACAD_REACTORS
330
2A
102
}
102
{ACAD_XDICTIONARY
360
185
102
}
330
2A
100
AcDbVisualStyle
  2
Conceptual
 70
     9
 71
     3
 72
     2
 73
     0
 90
        0
 40
0.6
 41
30.0
 62
     5
 63
     7
421
 16777215
 74
     2
 91
        2
 64
     7
 65
   257
 75
     1
175
     1
 42
179.0
 92
        8
 66
     7
 43
1.0
 76
     1
 77
     6
 78
     2
 67
     7
 79
     3
170
     0
171
     0
290
     0
174
     0
 93
        1
 44
0.0
173
     0
291
     0
 45
0.0
  0
VISUALSTYLE
  5
35
102
{ACAD_REACTORS
330
2A
102
}
102
{ACAD_XDICTIONARY
360
187
102
}
330
2A
100
AcDbVisualStyle
  2
Dim
 70
    11
 71
     2
 72
     2
 73
     0
 90
        0
 40
0.6
 41
30.0
 62
     5
 63
     7
421
 16777215
 74
     1
 91
        4
 64
     7
 65
   257
 75
     1
175
     1
 42
1.0
 92
        8
 66
     7
 43
1.0
 76
     1
 77
     6
 78
     2
 67
     7
 79
     5
170
     0
171
     0
290
     0
174
     0
 93
        1
 44
-50.0
173
     0
291
     1
 45
0.0
  0
VISUALSTYLE
  5
3D
102
{ACAD_REACTORS
330
2A
102
}
102
{ACAD_XDICTIONARY
360
197
102
}
330
2A
100
AcDbVisualStyle
  2
EdgeColorOff
 70
    22
 71
     2
 72
     2
 73
     0
 90
        0
 40
0.6
 41
30.0
 62
     5
 63
     7
421
 16777215
 74
     1
 91
        4
 64
     7
 65
   257
 75
     1
175
     1
 42
1.0
 92
        8
 66
     7
 43
1.0
 76
     1
 77
     6
 78
     2
 67
     7
 79
     5
170
     0
171
     0
290
     0
174
     0
 93
        1
 44
0.0
173
     0
291
     1
 45
0.0
  0
VISUALSTYLE
  5
39
102
{ACAD_REACTORS
330
2A
102
}
102
{ACAD_XDICTIONARY
360
18F
102
}
330
2A
100
AcDbVisualStyle
  2
Facepattern
 70
    15
 71
     2
 72
     2
 73
     0
 90
        0
 40
0.6
 41
30.0
 62
     5
 63
     7
421
 16777215
 74
     1
 91
        4
 64
     7
 65
   257
 75
     1
175
     1
 42
1.0
 92
        8
 66
     7
 43
1.0
 76
     1
 77
     6
 78
     2
 67
     7
 79
     5
170
     0
171
     0
290
     0
174
     0
 93
        1
 44
0.0
173
     0
291
     1
 45
0.0
  0
VISUALSTYLE
  5
2B
102
{ACAD_REACTORS
330
2A
102
}
102
{ACAD_XDICTIONARY
360
173
102
}
330
2A
100
AcDbVisualStyle
  2
Flat
 70
     0
 71
     2
 72
     1
 73
     1
 90
        2
 40
0.6
 41
30.0
 62
     5
 63
     7
421
 16777215
 74
     0
 91
        0
 64
     7
 65
   257
 75
     1
175
     1
 42
1.0
 92
        8
 66
     7
 43
1.0
 76
     1
 77
     6
 78
     2
 67
     7
 79
     5
170
     0
171
     0
290
     0
174
     0
 93
       13
 44
0.0
173
     0
291
     1
 45
0.0
  0
VISUALSTYLE
  5
2C
102
{ACAD_REACTORS
330
2A
102
}
102
{ACAD_XDICTIONARY
360
175
102
}
330
2A
100
AcDbVisualStyle
  2
FlatWithEdges
 70
     1
 71
     2
 72
     1
 73
     1
 90
        2
 40
0.6
 41
30.0
 62
     5
 63
     7
421
 16777215
 74
     1
 91
        0
 64
     7
 65
   257
 75
     1
175
     1
 42
1.0
 92
        0
 66
   257
 43
1.0
 76
     1
 77
     6
 78
     2
 67
     7
 79
     5
170
     0
171
     0
290
     0
174
     0
 93
       13
 44
0.0
173
     0
291
     1
 45
0.0
  0
VISUALSTYLE
  5
2D
102
{ACAD_REACTORS
330
2A
102
}
102
{ACAD_XDICTIONARY
360
177
102
}
330
2A
100
AcDbVisualStyle
  2
Gouraud
 70
     2
 71
     2
 72
     2
 73
     1
 90
        2
 40
0.6
 41
30.0
 62
     5
 63
     7
421
 16777215
 74
     0
 91
        0
 64
     7
 65
   257
 75
     1
175
     1
 42
1.0
 92
        0
 66
     7
 43
1.0
 76
     1
 77
     6
 78
     2
 67
     7
 79
     5
170
     0
171
     0
290
     0
174
     0
 93
       13
 44
0.0
173
     0
291
     1
 45
0.0
  0
VISUALSTYLE
  5
2E
102
{ACAD_REACTORS
330
2A
102
}
102
{ACAD_XDICTIONARY
360
179
102
}
330
2A
100
AcDbVisualStyle
  2
GouraudWithEdges
 70
     3
 71
     2
 72
     2
 73
     1
 90
        2
 40
0.6
 41
30.0
 62
     5
 63
     7
421
 16777215
 74
     1
 91
        0
 64
     7
 65
   257
 75
     1
175
     1
 42
1.0
 92
        0
 66
   257
 43
1.0
 76
     1
 77
     6
 78
     2
 67
     7
 79
     5
170
     0
171
     0
290
     0
174
     0
 93
       13
 44
0.0
173
     0
291
     1
 45
0.0
  0
VISUALSTYLE
  5
31
102
{ACAD_REACTORS
330
2A
102
}
102
{ACAD_XDICTIONARY
360
17F
102
}
330
2A
100
AcDbVisualStyle
  2
Hidden
 70
     6
 71
     1
 72
     2
 73
     2
 90
        0
 40
0.6
 41
30.0
 62
     5
 63
     7
421
 16777215
 74
     2
 91
        2
 64
     7
 65
   257
 75
     2
175
     1
 42
40.0
 92
        0
 66
   257
 43
1.0
 76
     1
 77
     6
 78
     2
 67
     7
 79
     3
170
     0
171
     0
290
     0
174
     0
 93
        1
 44
0.0
173
     0
291
     0
 45
0.0
  0
VISUALSTYLE
  5
3B
102
{ACAD_REACTORS
330
2A
102
}
102
{ACAD_XDICTIONARY
360
193
102
}
330
2A
100
AcDbVisualStyle
  2
JitterOff
 70
    20
 71
     2
 72
     2
 73
     0
 90
        0
 40
0.6
 41
30.0
 62
     5
 63
     7
421
 16777215
 74
     1
 91
        4
 64
     7
 65
   257
 75
     1
175
     1
 42
1.0
 92
       10
 66
     7
 43
1.0
 76
     1
 77
     6
 78
     2
 67
     7
 79
     5
170
     0
171
     0
290
     0
174
     0
 93
        1
 44
0.0
173
     0
291
     1
 45
0.0
  0
VISUALSTYLE
  5
38
102
{ACAD_REACTORS
330
2A
102
}
102
{ACAD_XDICTIONARY
360
18D
102
}
330
2A
100
AcDbVisualStyle
  2
Linepattern
 70
    14
 71
     2
 72
     2
 73
     0
 90
        0
 40
0.6
 41
30.0
 62
     5
 63
     7
421
 16777215
 74
     1
 91
        4
 64
     7
 65
   257
 75
     7
175
     7
 42
1.0
 92
        8
 66
     7
 43
1.0
 76
     1
 77
     6
 78
     2
 67
     7
 79
     5
170
     0
171
     0
290
     0
174
     0
 93
        1
 44
0.0
173
     0
291
     1
 45
0.0
  0
VISUALSTYLE
  5
3C
102
{ACAD_REACTORS
330
2A
102
}
102
{ACAD_XDICTIONARY
360
195
102
}
330
2A
100
AcDbVisualStyle
  2
OverhangOff
 70
    21
 71
     2
 72
     2
 73
     0
 90
        0
 40
0.6
 41
30.0
 62
     5
 63
     7
421
 16777215
 74
     1
 91
        4
 64
     7
 65
   257
 75
     1
175
     1
 42
1.0
 92
        9
 66
     7
 43
1.0
 76
     1
 77
     6
 78
     2
 67
     7
 79
     5
170
     0
171
     0
290
     0
174
     0
 93
        1
 44
0.0
173
     0
291
     1
 45
0.0
  0
VISUALSTYLE
  5
33
102
{ACAD_REACTORS
330
2A
102
}
102
{ACAD_XDICTIONARY
360
183
102
}
330
2A
100
AcDbVisualStyle
  2
Realistic
 70
     8
 71
     2
 72
     3
 73
     0
 90
        2
 40
0.6
 41
30.0
 62
     5
 63
     7
421
 16777215
 74
     0
 91
        0
 64
     7
 65
   257
 75
     1
175
     1
 42
1.0
 92
        8
 66
   257
 43
1.0
 76
     1
 77
     6
 78
     2
 67
     7
 79
     3
170
     0
171
     0
290
     0
174
     0
 93
       13
 44
0.0
173
     0
291
     0
 45
0.0
  0
VISUALSTYLE
  5
42
102
{ACAD_REACTORS
330
2A
102
}
102
{ACAD_XDICTIONARY
360
1A1
102
}
330
2A
100
AcDbVisualStyle
  2
Shaded
 70
    27
 71
     2
 72
     2
 73
     1
 90
        2
 40
0.6
 41
30.0
 62
     5
 63
     7
421
 16777215
 74
     0
 91
        4
 64
     7
 65
   257
 75
     1
175
     1
 42
1.0
 92
        8
 66
   257
 43
1.0
 76
     1
 77
     6
 78
     2
 67
     8
425
  7895160
 79
     3
170
     0
171
     0
290
     0
174
     0
 93
        5
 44
0.0
173
     0
291
     0
 45
0.0
  0
VISUALSTYLE
  5
41
102
{ACAD_REACTORS
330
2A
102
}
102
{ACAD_XDICTIONARY
360
19F
102
}
330
2A
100
AcDbVisualStyle
  2
Shaded with edges
 70
    26
 71
     2
 72
     2
 73
     1
 90
        2
 40
0.6
 41
30.0
 62
     5
 63
     7
421
 16777215
 74
     1
 91
       10
 64
     7
 65
   257
 75
     2
175
     1
 42
1.0
 92
        8
 66
   257
 43
1.0
 76
     1
 77
     6
 78
     2
 67
     7
 79
     3
170
     0
171
     0
290
     0
174
     0
 93
        5
 44
0.0
173
     0
291
     0
 45
0.0
  0
VISUALSTYLE
  5
3E
102
{ACAD_REACTORS
330
2A
102
}
102
{ACAD_XDICTIONARY
360
199
102
}
330
2A
100
AcDbVisualStyle
  2
Shades of Gray
 70
    23
 71
     2
 72
     2
 73
     3
 90
        0
 40
0.6
 41
30.0
 62
     5
 63
     7
421
 16777215
 74
     2
 91
        2
 64
     7
 65
     7
 75
     1
175
     1
 42
40.0
 92
        8
 66
     7
 43
1.0
 76
     1
 77
     6
 78
     2
 67
     7
 79
     3
170
     0
171
     0
290
     0
174
     0
 93
        1
 44
0.0
173
     0
291
     0
 45
0.0
  0
VISUALSTYLE
  5
3F
102
{ACAD_REACTORS
330
2A
102
}
102
{ACAD_XDICTIONARY
360
19B
102
}
330
2A
100
AcDbVisualStyle
  2
Sketchy
 70
    24
 71
     1
 72
     2
 73
     2
 90
        0
 40
0.6
 41
30.0
 62
     5
 63
     7
421
 16777215
 74
     2
 91
        2
 64
     7
 65
     7
 75
     1
175
     1
 42
40.0
 92
       11
 66
     7
 43
1.0
 76
     1
 77
     6
 78
     2
 67
     7
 79
     6
170
     0
171
     0
290
     0
174
     0
 93
        1
 44
0.0
173
     0
291
     0
 45
0.0
  0
VISUALSTYLE
  5
37
102
{ACAD_REACTORS
330
2A
102
}
102
{ACAD_XDICTIONARY
360
18B
102
}
330
2A
100
AcDbVisualStyle
  2
Thicken
 70
    13
 71
     2
 72
     2
 73
     0
 90
        0
 40
0.6
 41
30.0
 62
     5
 63
     7
421
 16777215
 74
     1
 91
        4
 64
     7
 65
   257
 75
     1
175
     1
 42
1.0
 92
       12
 66
     7
 43
1.0
 76
     1
 77
     6
 78
     2
 67
     7
 79
     5
170
     0
171
     0
290
     0
174
     0
 93
        1
 44
0.0
173
     0
291
     1
 45
0.0
  0
VISUALSTYLE
  5
30
102
{ACAD_REACTORS
330
2A
102
}
102
{ACAD_XDICTIONARY
360
17D
102
}
330
2A
100
AcDbVisualStyle
  2
Wireframe
 70
     5
 71
     0
 72
     2
 73
     0
 90
        0
 40
0.6
 41
30.0
 62
     5
 63
     7
421
 16777215
 74
     1
 91
        4
 64
     7
 65
   257
 75
     1
175
     1
 42
1.0
 92
        0
 66
   257
 43
1.0
 76
     1
 77
     6
 78
     2
 67
     7
 79
     3
170
     0
171
     0
290
     0
174
     0
 93
        1
 44
0.0
173
     0
291
     0
 45
0.0
  0
VISUALSTYLE
  5
40
102
{ACAD_REACTORS
330
2A
102
}
102
{ACAD_XDICTIONARY
360
19D
102
}
330
2A
100
AcDbVisualStyle
  2
X-Ray
 70
    25
 71
     2
 72
     2
 73
     1
 90
        1
 40
0.5
 41
30.0
 62
     5
 63
     7
421
 16777215
 74
     1
 91
        0
 64
     7
 65
   257
 75
     1
175
     1
 42
1.0
 92
        8
 66
     7
 43
1.0
 76
     1
 77
     6
 78
     2
 67
     7
 79
     3
170
     0
171
     0
290
     0
174
     0
 93
       13
 44
0.0
173
     0
291
     0
 45
0.0
  0
DICTIONARYVAR
  5
171
102
{ACAD_REACTORS
330
170
102
}
330
170
100
DictionaryVariables
280
     0
  1
1:1
  0
DICTIONARYVAR
  5
1AA
102
{ACAD_REACTORS
330
170
102
}
330
170
100
DictionaryVariables
280
     0
  1
Standard
  0
DICTIONARYVAR
  5
1A9
102
{ACAD_REACTORS
330
170
102
}
330
170
100
DictionaryVariables
280
     0
  1
Standard
  0
DICTIONARYVAR
  5
172
102
{ACAD_REACTORS
330
170
102
}
330
170
100
DictionaryVariables
280
     0
  1
2
  0
DICTIONARY
  5
1A6
330
5C
100
AcDbDictionary
280
     1
281
     1
  3
ACAD_XREC_ROUNDTRIP
360
1A7
  0
DICTIONARY
  5
1A3
330
5A
100
AcDbDictionary
280
     1
281
     1
  3
ACAD_ROUNDTRIP_2008_TABLESTYLE_CELLSTYLEMAP
360
1A4
  0
DICTIONARY
  5
17B
330
2F
100
AcDbDictionary
280
     1
281
     1
  3
ACAD_XREC_ROUNDTRIP
360
17C
  0
DICTIONARY
  5
181
330
32
100
AcDbDictionary
280
     1
281
     1
  3
ACAD_XREC_ROUNDTRIP
360
182
  0
DICTIONARY
  5
189
330
36
100
AcDbDictionary
280
     1
281
     1
  3
ACAD_XREC_ROUNDTRIP
360
18A
  0
DICTIONARY
  5
191
330
3A
100
AcDbDictionary
280
     1
281
     1
  3
ACAD_XREC_ROUNDTRIP
360
192
  0
DICTIONARY
  5
185
330
34
100
AcDbDictionary
280
     1
281
     1
  3
ACAD_XREC_ROUNDTRIP
360
186
  0
DICTIONARY
  5
187
330
35
100
AcDbDictionary
280
     1
281
     1
  3
ACAD_XREC_ROUNDTRIP
360
188
  0
DICTIONARY
  5
197
330
3D
100
AcDbDictionary
280
     1
281
     1
  3
ACAD_XREC_ROUNDTRIP
360
198
  0
DICTIONARY
  5
18F
330
39
100
AcDbDictionary
280
     1
281
     1
  3
ACAD_XREC_ROUNDTRIP
360
190
  0
DICTIONARY
  5
173
330
2B
100
AcDbDictionary
280
     1
281
     1
  3
ACAD_XREC_ROUNDTRIP
360
174
  0
DICTIONARY
  5
175
330
2C
100
AcDbDictionary
280
     1
281
     1
  3
ACAD_XREC_ROUNDTRIP
360
176
  0
DICTIONARY
  5
177
330
2D
100
AcDbDictionary
280
     1
281
     1
  3
ACAD_XREC_ROUNDTRIP
360
178
  0
DICTIONARY
  5
179
330
2E
100
AcDbDictionary
280
     1
281
     1
  3
ACAD_XREC_ROUNDTRIP
360
17A
  0
DICTIONARY
  5
17F
330
31
100
AcDbDictionary
280
     1
281
     1
  3
ACAD_XREC_ROUNDTRIP
360
180
  0
DICTIONARY
  5
193
330
3B
100
AcDbDictionary
280
     1
281
     1
  3
ACAD_XREC_ROUNDTRIP
360
194
  0
DICTIONARY
  5
18D
330
38
100
AcDbDictionary
280
     1
281
     1
  3
ACAD_XREC_ROUNDTRIP
360
18E
  0
DICTIONARY
  5
195
330
3C
100
AcDbDictionary
280
     1
281
     1
  3
ACAD_XREC_ROUNDTRIP
360
196
  0
DICTIONARY
  5
183
330
33
100
AcDbDictionary
280
     1
281
     1
  3
ACAD_XREC_ROUNDTRIP
360
184
  0
DICTIONARY
  5
1A1
330
42
100
AcDbDictionary
280
     1
281
     1
  3
ACAD_XREC_ROUNDTRIP
360
1A2
  0
DICTIONARY
  5
19F
330
41
100
AcDbDictionary
280
     1
281
     1
  3
ACAD_XREC_ROUNDTRIP
360
1A0
  0
DICTIONARY
  5
199
330
3E
100
AcDbDictionary
280
     1
281
     1
  3
ACAD_XREC_ROUNDTRIP
360
19A
  0
DICTIONARY
  5
19B
330
3F
100
AcDbDictionary
280
     1
281
     1
  3
ACAD_XREC_ROUNDTRIP
360
19C
  0
DICTIONARY
  5
18B
330
37
100
AcDbDictionary
280
     1
281
     1
  3
ACAD_XREC_ROUNDTRIP
360
18C
  0
DICTIONARY
  5
17D
330
30
100
AcDbDictionary
280
     1
281
     1
  3
ACAD_XREC_ROUNDTRIP
360
17E
  0
DICTIONARY
  5
19D
330
40
100
AcDbDictionary
280
     1
281
     1
  3
ACAD_XREC_ROUNDTRIP
360
19E
  0
XRECORD
  5
1A7
102
{ACAD_REACTORS
330
1A6
102
}
330
1A6
100
AcDbXrecord
280
     1
102
ACAD_ROUNDTRIP_2010_MLEADER_STYLE
  0
CELLSTYLEMAP
  5
1A4
102
{ACAD_REACTORS
330
1A3
102
}
330
1A3
100
AcDbCellStyleMap
 90
        3
300
CELLSTYLE
  1
TABLEFORMAT_BEGIN
 90
        5
170
     1
 91
        0
 92
    32768
 62
   257
 93
        1
300
CONTENTFORMAT
  1
CONTENTFORMAT_BEGIN
 90
        0
 91
        0
 92
        4
 93
        0
300

 40
0.0
140
1.0
 94
        5
 62
     0
340
11
144
0.25
309
CONTENTFORMAT_END
171
     1
301
MARGIN
  1
CELLMARGIN_BEGIN
 40
0.06
 40
0.06
 40
0.06
 40
0.06
 40
0.06
 40
0.06
309
CELLMARGIN_END
 94
        6
 95
        1
302
GRIDFORMAT
  1
GRIDFORMAT_BEGIN
 90
        0
 91
        1
 62
     0
 92
       -2
340
14
 93
        0
 40
0.045
309
GRIDFORMAT_END
 95
        2
302
GRIDFORMAT
  1
GRIDFORMAT_BEGIN
 90
        0
 91
        1
 62
     0
 92
       -2
340
14
 93
        0
 40
0.045
309
GRIDFORMAT_END
 95
        4
302
GRIDFORMAT
  1
GRIDFORMAT_BEGIN
 90
        0
 91
        1
 62
     0
 92
       -2
340
14
 93
        0
 40
0.045
309
GRIDFORMAT_END
 95
        8
302
GRIDFORMAT
  1
GRIDFORMAT_BEGIN
 90
        0
 91
        1
 62
     0
 92
       -2
340
14
 93
        0
 40
0.045
309
GRIDFORMAT_END
 95
       16
302
GRIDFORMAT
  1
GRIDFORMAT_BEGIN
 90
        0
 91
        1
 62
     0
 92
       -2
340
14
 93
        0
 40
0.045
309
GRIDFORMAT_END
 95
       32
302
GRIDFORMAT
  1
GRIDFORMAT_BEGIN
 90
        0
 91
        1
 62
     0
 92
       -2
340
14
 93
        0
 40
0.045
309
GRIDFORMAT_END
309
TABLEFORMAT_END
  1
CELLSTYLE_BEGIN
 90
        1
 91
        1
300
_TITLE
309
CELLSTYLE_END
300
CELLSTYLE
  1
TABLEFORMAT_BEGIN
 90
        5
170
     1
 91
        0
 92
        0
 62
   257
 93
        1
300
CONTENTFORMAT
  1
CONTENTFORMAT_BEGIN
 90
        0
 91
        0
 92
        4
 93
        0
300

 40
0.0
140
1.0
 94
        5
 62
     0
340
11
144
0.18
309
CONTENTFORMAT_END
171
     1
301
MARGIN
  1
CELLMARGIN_BEGIN
 40
0.06
 40
0.06
 40
0.06
 40
0.06
 40
0.06
 40
0.06
309
CELLMARGIN_END
 94
        6
 95
        1
302
GRIDFORMAT
  1
GRIDFORMAT_BEGIN
 90
        0
 91
        1
 62
     0
 92
       -2
340
14
 93
        0
 40
0.045
309
GRIDFORMAT_END
 95
        2
302
GRIDFORMAT
  1
GRIDFORMAT_BEGIN
 90
        0
 91
        1
 62
     0
 92
       -2
340
14
 93
        0
 40
0.045
309
GRIDFORMAT_END
 95
        4
302
GRIDFORMAT
  1
GRIDFORMAT_BEGIN
 90
        0
 91
        1
 62
     0
 92
       -2
340
14
 93
        0
 40
0.045
309
GRIDFORMAT_END
 95
        8
302
GRIDFORMAT
  1
GRIDFORMAT_BEGIN
 90
        0
 91
        1
 62
     0
 92
       -2
340
14
 93
        0
 40
0.045
309
GRIDFORMAT_END
 95
       16
302
GRIDFORMAT
  1
GRIDFORMAT_BEGIN
 90
        0
 91
        1
 62
     0
 92
       -2
340
14
 93
        0
 40
0.045
309
GRIDFORMAT_END
 95
       32
302
GRIDFORMAT
  1
GRIDFORMAT_BEGIN
 90
        0
 91
        1
 62
     0
 92
       -2
340
14
 93
        0
 40
0.045
309
GRIDFORMAT_END
309
TABLEFORMAT_END
  1
CELLSTYLE_BEGIN
 90
        2
 91
        1
300
_HEADER
309
CELLSTYLE_END
300
CELLSTYLE
  1
TABLEFORMAT_BEGIN
 90
        5
170
     1
 91
        0
 92
        0
 62
   257
 93
        1
300
CONTENTFORMAT
  1
CONTENTFORMAT_BEGIN
 90
        0
 91
        0
 92
        4
 93
        0
300

 40
0.0
140
1.0
 94
        2
 62
     0
340
11
144
0.18
309
CONTENTFORMAT_END
171
     1
301
MARGIN
  1
CELLMARGIN_BEGIN
 40
0.06
 40
0.06
 40
0.06
 40
0.06
 40
0.06
 40
0.06
309
CELLMARGIN_END
 94
        6
 95
        1
302
GRIDFORMAT
  1
GRIDFORMAT_BEGIN
 90
        0
 91
        1
 62
     0
 92
       -2
340
14
 93
        0
 40
0.045
309
GRIDFORMAT_END
 95
        2
302
GRIDFORMAT
  1
GRIDFORMAT_BEGIN
 90
        0
 91
        1
 62
     0
 92
       -2
340
14
 93
        0
 40
0.045
309
GRIDFORMAT_END
 95
        4
302
GRIDFORMAT
  1
GRIDFORMAT_BEGIN
 90
        0
 91
        1
 62
     0
 92
       -2
340
14
 93
        0
 40
0.045
309
GRIDFORMAT_END
 95
        8
302
GRIDFORMAT
  1
GRIDFORMAT_BEGIN
 90
        0
 91
        1
 62
     0
 92
       -2
340
14
 93
        0
 40
0.045
309
GRIDFORMAT_END
 95
       16
302
GRIDFORMAT
  1
GRIDFORMAT_BEGIN
 90
        0
 91
        1
 62
     0
 92
       -2
340
14
 93
        0
 40
0.045
309
GRIDFORMAT_END
 95
       32
302
GRIDFORMAT
  1
GRIDFORMAT_BEGIN
 90
        0
 91
        1
 62
     0
 92
       -2
340
14
 93
        0
 40
0.045
309
GRIDFORMAT_END
309
TABLEFORMAT_END
  1
CELLSTYLE_BEGIN
 90
        3
 91
        2
300
_DATA
309
CELLSTYLE_END
  0
XRECORD
  5
17C
102
{ACAD_REACTORS
330
17B
102
}
330
17B
100
AcDbXrecord
280
     1
102
RTVSPropertyOp0
 70
     1
102
RTVSPropertyOp1
 70
     1
102
RTVSPropertyOp2
 70
     1
102
RTVSPropertyOp3
 70
     1
102
RTVSPropertyOp4
 70
     1
102
RTVSPropertyOp5
 70
     1
102
RTVSPropertyOp6
 70
     1
102
RTVSPropertyOp7
 70
     1
102
RTVSPropertyOp8
 70
     1
102
RTVSPropertyOp9
 70
     1
102
RTVSPropertyOp10
 70
     1
102
RTVSPropertyOp11
 70
     1
102
RTVSPropertyOp12
 70
     1
102
RTVSPropertyOp13
 70
     1
102
RTVSPropertyOp14
 70
     1
102
RTVSPropertyOp15
 70
     1
102
RTVSPropertyOp16
 70
     1
102
RTVSPropertyOp17
 70
     1
102
RTVSPropertyOp18
 70
     1
102
RTVSPropertyOp19
 70
     1
102
RTVSPropertyOp20
 70
     1
102
RTVSPropertyOp21
 70
     1
102
RTVSPropertyOp22
 70
     1
102
RTVSPropertyOp23
 70
     1
102
RTVSPropertyOp24
 70
     1
102
RTVSPropertyOp25
 70
     1
102
RTVSPropertyOp26
 70
     1
102
RTVSPropertyOp27
 70
     1
102
RTVSPropertyOp28
 70
     1
102
RTVSPropertyOp29
 70
     1
102
RTVSPropertyOp30
 70
     1
102
RTVSPropertyOp31
 70
     1
102
RTVSPropertyOp32
 70
     1
102
RTVSPropertyOp33
 70
     1
102
RTVSPropertyOp34
 70
     1
102
RTVSPropertyOp35
 70
     1
102
RTVSPropertyOp36
 70
     1
102
RTVSPropertyOp37
 70
     1
102
RTVSPropertyOp38
 70
     1
102
RTVSPropertyOp39
 70
     1
102
RTVSPropertyOp40
 70
     1
102
RTVSPropertyOp41
 70
     1
102
RTVSPropertyOp42
 70
     1
102
RTVSPropertyOp43
 70
     1
102
RTVSPropertyOp44
 70
     1
102
RTVSPropertyOp45
 70
     1
102
RTVSPropertyOp46
 70
     1
102
RTVSPropertyOp47
 70
     1
102
RTVSPropertyOp48
 70
     1
102
RTVSPropertyOp49
 70
     1
102
RTVSPropertyOp50
 70
     1
102
RTVSPropertyOp51
 70
     0
102
RTVSPropertyOp52
 70
     0
102
RTVSPropertyOp53
 70
     1
102
RTVSPropertyOp54
 70
     1
102
RTVSPropertyOp55
 70
     1
102
RTVSPropertyOp56
 70
     1
102
RTVSPropertyOp57
 70
     1
102
RTVSPost2010Prop28
280
     1
102
RTVSPost2010PropOp28
 70
     1
102
RTVSPost2010Prop29
280
     1
102
RTVSPost2010PropOp29
 70
     1
102
RTVSPost2010Prop30
280
     0
102
RTVSPost2010PropOp30
 70
     1
102
RTVSPost2010Prop31
280
     0
102
RTVSPost2010PropOp31
 70
     1
102
RTVSPost2010Prop32
280
     0
102
RTVSPost2010PropOp32
 70
     1
102
RTVSPost2010Prop33
280
     0
102
RTVSPost2010PropOp33
 70
     1
102
RTVSPost2010Prop34
280
     0
102
RTVSPost2010PropOp34
 70
     1
102
RTVSPost2010Prop35
280
     0
102
RTVSPost2010PropOp35
 70
     1
102
RTVSPost2010Prop36
280
     0
102
RTVSPost2010PropOp36
 70
     1
102
RTVSPost2010Prop37
 90
       50
102
RTVSPost2010PropOp37
 70
     1
102
RTVSPost2010Prop38
140
0.0
102
RTVSPost2010PropOp38
 70
     1
102
RTVSPost2010Prop39
140
1.0
102
RTVSPost2010PropOp39
 70
     1
102
RTVSPost2010Prop40
 90
        0
102
RTVSPost2010PropOp40
 70
     1
102
RTVSPost2010Prop41ColorIndex
 90
       18
102
RTVSPost2010Prop41ColorRGB
 90
        0
102
RTVSPost2010PropOp41
 70
     1
102
RTVSPost2010Prop42
 90
       50
102
RTVSPost2010PropOp42
 70
     1
102
RTVSPost2010Prop43
 90
        3
102
RTVSPost2010PropOp43
 70
     1
102
RTVSPost2010Prop44ColorIndex
 90
        5
102
RTVSPost2010Prop44ColorRGB
 90
      255
102
RTVSPost2010PropOp44
 70
     1
102
RTVSPost2010Prop45
280
     0
102
RTVSPost2010PropOp45
 70
     1
102
RTVSPost2010Prop46
 90
       50
102
RTVSPost2010PropOp46
 70
     1
102
RTVSPost2010Prop47
 90
       50
102
RTVSPost2010PropOp47
 70
     1
102
RTVSPost2010Prop48
 90
       50
102
RTVSPost2010PropOp48
 70
     1
102
RTVSPost2010Prop49
280
     0
102
RTVSPost2010PropOp49
 70
     1
102
RTVSPost2010Prop50
 90
       50
102
RTVSPost2010PropOp50
 70
     1
102
RTVSPost2010Prop51ColorIndex
 90
      256
102
RTVSPost2010Prop51ColorRGB
 90
-16777216
102
RTVSPost2010PropOp51
 70
     0
102
RTVSPost2010Prop52
140
1.0
102
RTVSPost2010PropOp52
 70
     0
102
RTVSPost2010Prop53
 90
        2
102
RTVSPost2010PropOp53
 70
     1
102
RTVSPost2010Prop54
  1
strokes_ogs.tif
102
RTVSPost2010PropOp54
 70
     1
102
RTVSPost2010Prop55
280
     0
102
RTVSPost2010PropOp55
 70
     1
102
RTVSPost2010Prop56
140
1.0
102
RTVSPost2010PropOp56
 70
     1
102
RTVSPost2010Prop57
140
1.0
102
RTVSPost2010PropOp57
 70
     1
  0
XRECORD
  5
182
102
{ACAD_REACTORS
330
181
102
}
330
181
100
AcDbXrecord
280
     1
102
RTVSPropertyOp0
 70
     1
102
RTVSPropertyOp1
 70
     1
102
RTVSPropertyOp2
 70
     1
102
RTVSPropertyOp3
 70
     1
102
RTVSPropertyOp4
 70
     1
102
RTVSPropertyOp5
 70
     1
102
RTVSPropertyOp6
 70
     1
102
RTVSPropertyOp7
 70
     1
102
RTVSPropertyOp8
 70
     1
102
RTVSPropertyOp9
 70
     1
102
RTVSPropertyOp10
 70
     1
102
RTVSPropertyOp11
 70
     1
102
RTVSPropertyOp12
 70
     1
102
RTVSPropertyOp13
 70
     1
102
RTVSPropertyOp14
 70
     1
102
RTVSPropertyOp15
 70
     1
102
RTVSPropertyOp16
 70
     1
102
RTVSPropertyOp17
 70
     1
102
RTVSPropertyOp18
 70
     1
102
RTVSPropertyOp19
 70
     1
102
RTVSPropertyOp20
 70
     1
102
RTVSPropertyOp21
 70
     1
102
RTVSPropertyOp22
 70
     1
102
RTVSPropertyOp23
 70
     1
102
RTVSPropertyOp24
 70
     1
102
RTVSPropertyOp25
 70
     1
102
RTVSPropertyOp26
 70
     1
102
RTVSPropertyOp27
 70
     1
102
RTVSPropertyOp28
 70
     1
102
RTVSPropertyOp29
 70
     1
102
RTVSPropertyOp30
 70
     1
102
RTVSPropertyOp31
 70
     1
102
RTVSPropertyOp32
 70
     1
102
RTVSPropertyOp33
 70
     1
102
RTVSPropertyOp34
 70
     1
102
RTVSPropertyOp35
 70
     1
102
RTVSPropertyOp36
 70
     1
102
RTVSPropertyOp37
 70
     1
102
RTVSPropertyOp38
 70
     1
102
RTVSPropertyOp39
 70
     1
102
RTVSPropertyOp40
 70
     1
102
RTVSPropertyOp41
 70
     1
102
RTVSPropertyOp42
 70
     1
102
RTVSPropertyOp43
 70
     1
102
RTVSPropertyOp44
 70
     1
102
RTVSPropertyOp45
 70
     1
102
RTVSPropertyOp46
 70
     1
102
RTVSPropertyOp47
 70
     1
102
RTVSPropertyOp48
 70
     1
102
RTVSPropertyOp49
 70
     1
102
RTVSPropertyOp50
 70
     1
102
RTVSPropertyOp51
 70
     0
102
RTVSPropertyOp52
 70
     0
102
RTVSPropertyOp53
 70
     1
102
RTVSPropertyOp54
 70
     1
102
RTVSPropertyOp55
 70
     1
102
RTVSPropertyOp56
 70
     1
102
RTVSPropertyOp57
 70
     1
102
RTVSPost2010Prop28
280
     0
102
RTVSPost2010PropOp28
 70
     1
102
RTVSPost2010Prop29
280
     1
102
RTVSPost2010PropOp29
 70
     1
102
RTVSPost2010Prop30
280
     1
102
RTVSPost2010PropOp30
 70
     1
102
RTVSPost2010Prop31
280
     0
102
RTVSPost2010PropOp31
 70
     1
102
RTVSPost2010Prop32
280
     0
102
RTVSPost2010PropOp32
 70
     1
102
RTVSPost2010Prop33
280
     0
102
RTVSPost2010PropOp33
 70
     1
102
RTVSPost2010Prop34
280
     0
102
RTVSPost2010PropOp34
 70
     1
102
RTVSPost2010Prop35
280
     0
102
RTVSPost2010PropOp35
 70
     1
102
RTVSPost2010Prop36
280
     0
102
RTVSPost2010PropOp36
 70
     1
102
RTVSPost2010Prop37
 90
       50
102
RTVSPost2010PropOp37
 70
     1
102
RTVSPost2010Prop38
140
0.0
102
RTVSPost2010PropOp38
 70
     1
102
RTVSPost2010Prop39
140
1.0
102
RTVSPost2010PropOp39
 70
     1
102
RTVSPost2010Prop40
 90
        0
102
RTVSPost2010PropOp40
 70
     1
102
RTVSPost2010Prop41ColorIndex
 90
       18
102
RTVSPost2010Prop41ColorRGB
 90
        0
102
RTVSPost2010PropOp41
 70
     1
102
RTVSPost2010Prop42
 90
       50
102
RTVSPost2010PropOp42
 70
     1
102
RTVSPost2010Prop43
 90
        3
102
RTVSPost2010PropOp43
 70
     1
102
RTVSPost2010Prop44ColorIndex
 90
        5
102
RTVSPost2010Prop44ColorRGB
 90
      255
102
RTVSPost2010PropOp44
 70
     1
102
RTVSPost2010Prop45
280
     0
102
RTVSPost2010PropOp45
 70
     1
102
RTVSPost2010Prop46
 90
       50
102
RTVSPost2010PropOp46
 70
     1
102
RTVSPost2010Prop47
 90
       50
102
RTVSPost2010PropOp47
 70
     1
102
RTVSPost2010Prop48
 90
       50
102
RTVSPost2010PropOp48
 70
     1
102
RTVSPost2010Prop49
280
     0
102
RTVSPost2010PropOp49
 70
     1
102
RTVSPost2010Prop50
 90
       50
102
RTVSPost2010PropOp50
 70
     1
102
RTVSPost2010Prop51ColorIndex
 90
      256
102
RTVSPost2010Prop51ColorRGB
 90
-16777216
102
RTVSPost2010PropOp51
 70
     0
102
RTVSPost2010Prop52
140
1.0
102
RTVSPost2010PropOp52
 70
     0
102
RTVSPost2010Prop53
 90
        2
102
RTVSPost2010PropOp53
 70
     1
102
RTVSPost2010Prop54
  1
strokes_ogs.tif
102
RTVSPost2010PropOp54
 70
     1
102
RTVSPost2010Prop55
280
     0
102
RTVSPost2010PropOp55
 70
     1
102
RTVSPost2010Prop56
140
1.0
102
RTVSPost2010PropOp56
 70
     1
102
RTVSPost2010Prop57
140
1.0
102
RTVSPost2010PropOp57
 70
     1
  0
XRECORD
  5
18A
102
{ACAD_REACTORS
330
189
102
}
330
189
100
AcDbXrecord
280
     1
102
RTVSPropertyOp0
 70
     1
102
RTVSPropertyOp1
 70
     1
102
RTVSPropertyOp2
 70
     1
102
RTVSPropertyOp3
 70
     1
102
RTVSPropertyOp4
 70
     1
102
RTVSPropertyOp5
 70
     1
102
RTVSPropertyOp6
 70
     1
102
RTVSPropertyOp7
 70
     1
102
RTVSPropertyOp8
 70
     1
102
RTVSPropertyOp9
 70
     1
102
RTVSPropertyOp10
 70
     1
102
RTVSPropertyOp11
 70
     1
102
RTVSPropertyOp12
 70
     1
102
RTVSPropertyOp13
 70
     1
102
RTVSPropertyOp14
 70
     1
102
RTVSPropertyOp15
 70
     1
102
RTVSPropertyOp16
 70
     1
102
RTVSPropertyOp17
 70
     1
102
RTVSPropertyOp18
 70
     1
102
RTVSPropertyOp19
 70
     1
102
RTVSPropertyOp20
 70
     1
102
RTVSPropertyOp21
 70
     1
102
RTVSPropertyOp22
 70
     1
102
RTVSPropertyOp23
 70
     1
102
RTVSPropertyOp24
 70
     1
102
RTVSPropertyOp25
 70
     1
102
RTVSPropertyOp26
 70
     1
102
RTVSPropertyOp27
 70
     1
102
RTVSPropertyOp28
 70
     1
102
RTVSPropertyOp29
 70
     1
102
RTVSPropertyOp30
 70
     1
102
RTVSPropertyOp31
 70
     1
102
RTVSPropertyOp32
 70
     1
102
RTVSPropertyOp33
 70
     1
102
RTVSPropertyOp34
 70
     1
102
RTVSPropertyOp35
 70
     1
102
RTVSPropertyOp36
 70
     1
102
RTVSPropertyOp37
 70
     1
102
RTVSPropertyOp38
 70
     1
102
RTVSPropertyOp39
 70
     1
102
RTVSPropertyOp40
 70
     1
102
RTVSPropertyOp41
 70
     1
102
RTVSPropertyOp42
 70
     1
102
RTVSPropertyOp43
 70
     1
102
RTVSPropertyOp44
 70
     1
102
RTVSPropertyOp45
 70
     1
102
RTVSPropertyOp46
 70
     1
102
RTVSPropertyOp47
 70
     1
102
RTVSPropertyOp48
 70
     1
102
RTVSPropertyOp49
 70
     1
102
RTVSPropertyOp50
 70
     1
102
RTVSPropertyOp51
 70
     0
102
RTVSPropertyOp52
 70
     0
102
RTVSPropertyOp53
 70
     1
102
RTVSPropertyOp54
 70
     1
102
RTVSPropertyOp55
 70
     1
102
RTVSPropertyOp56
 70
     1
102
RTVSPropertyOp57
 70
     1
102
RTVSPost2010Prop28
280
     0
102
RTVSPost2010PropOp28
 70
     1
102
RTVSPost2010Prop29
280
     1
102
RTVSPost2010PropOp29
 70
     1
102
RTVSPost2010Prop30
280
     1
102
RTVSPost2010PropOp30
 70
     1
102
RTVSPost2010Prop31
280
     0
102
RTVSPost2010PropOp31
 70
     1
102
RTVSPost2010Prop32
280
     0
102
RTVSPost2010PropOp32
 70
     1
102
RTVSPost2010Prop33
280
     0
102
RTVSPost2010PropOp33
 70
     1
102
RTVSPost2010Prop34
280
     0
102
RTVSPost2010PropOp34
 70
     1
102
RTVSPost2010Prop35
280
     0
102
RTVSPost2010PropOp35
 70
     1
102
RTVSPost2010Prop36
280
     0
102
RTVSPost2010PropOp36
 70
     1
102
RTVSPost2010Prop37
 90
       50
102
RTVSPost2010PropOp37
 70
     1
102
RTVSPost2010Prop38
140
0.0
102
RTVSPost2010PropOp38
 70
     1
102
RTVSPost2010Prop39
140
1.0
102
RTVSPost2010PropOp39
 70
     1
102
RTVSPost2010Prop40
 90
        0
102
RTVSPost2010PropOp40
 70
     1
102
RTVSPost2010Prop41ColorIndex
 90
       18
102
RTVSPost2010Prop41ColorRGB
 90
        0
102
RTVSPost2010PropOp41
 70
     1
102
RTVSPost2010Prop42
 90
       50
102
RTVSPost2010PropOp42
 70
     1
102
RTVSPost2010Prop43
 90
        3
102
RTVSPost2010PropOp43
 70
     1
102
RTVSPost2010Prop44ColorIndex
 90
        5
102
RTVSPost2010Prop44ColorRGB
 90
      255
102
RTVSPost2010PropOp44
 70
     1
102
RTVSPost2010Prop45
280
     0
102
RTVSPost2010PropOp45
 70
     1
102
RTVSPost2010Prop46
 90
       50
102
RTVSPost2010PropOp46
 70
     1
102
RTVSPost2010Prop47
 90
       50
102
RTVSPost2010PropOp47
 70
     1
102
RTVSPost2010Prop48
 90
       50
102
RTVSPost2010PropOp48
 70
     1
102
RTVSPost2010Prop49
280
     0
102
RTVSPost2010PropOp49
 70
     1
102
RTVSPost2010Prop50
 90
       50
102
RTVSPost2010PropOp50
 70
     1
102
RTVSPost2010Prop51ColorIndex
 90
      256
102
RTVSPost2010Prop51ColorRGB
 90
-16777216
102
RTVSPost2010PropOp51
 70
     0
102
RTVSPost2010Prop52
140
1.0
102
RTVSPost2010PropOp52
 70
     0
102
RTVSPost2010Prop53
 90
        2
102
RTVSPost2010PropOp53
 70
     1
102
RTVSPost2010Prop54
  1
strokes_ogs.tif
102
RTVSPost2010PropOp54
 70
     1
102
RTVSPost2010Prop55
280
     0
102
RTVSPost2010PropOp55
 70
     1
102
RTVSPost2010Prop56
140
1.0
102
RTVSPost2010PropOp56
 70
     1
102
RTVSPost2010Prop57
140
1.0
102
RTVSPost2010PropOp57
 70
     1
  0
XRECORD
  5
192
102
{ACAD_REACTORS
330
191
102
}
330
191
100
AcDbXrecord
280
     1
102
RTVSPropertyOp0
 70
     1
102
RTVSPropertyOp1
 70
     1
102
RTVSPropertyOp2
 70
     1
102
RTVSPropertyOp3
 70
     1
102
RTVSPropertyOp4
 70
     1
102
RTVSPropertyOp5
 70
     1
102
RTVSPropertyOp6
 70
     1
102
RTVSPropertyOp7
 70
     1
102
RTVSPropertyOp8
 70
     1
102
RTVSPropertyOp9
 70
     1
102
RTVSPropertyOp10
 70
     1
102
RTVSPropertyOp11
 70
     1
102
RTVSPropertyOp12
 70
     1
102
RTVSPropertyOp13
 70
     1
102
RTVSPropertyOp14
 70
     1
102
RTVSPropertyOp15
 70
     1
102
RTVSPropertyOp16
 70
     1
102
RTVSPropertyOp17
 70
     1
102
RTVSPropertyOp18
 70
     1
102
RTVSPropertyOp19
 70
     1
102
RTVSPropertyOp20
 70
     1
102
RTVSPropertyOp21
 70
     1
102
RTVSPropertyOp22
 70
     1
102
RTVSPropertyOp23
 70
     1
102
RTVSPropertyOp24
 70
     1
102
RTVSPropertyOp25
 70
     1
102
RTVSPropertyOp26
 70
     1
102
RTVSPropertyOp27
 70
     1
102
RTVSPropertyOp28
 70
     1
102
RTVSPropertyOp29
 70
     1
102
RTVSPropertyOp30
 70
     1
102
RTVSPropertyOp31
 70
     1
102
RTVSPropertyOp32
 70
     1
102
RTVSPropertyOp33
 70
     1
102
RTVSPropertyOp34
 70
     1
102
RTVSPropertyOp35
 70
     1
102
RTVSPropertyOp36
 70
     1
102
RTVSPropertyOp37
 70
     1
102
RTVSPropertyOp38
 70
     1
102
RTVSPropertyOp39
 70
     1
102
RTVSPropertyOp40
 70
     1
102
RTVSPropertyOp41
 70
     1
102
RTVSPropertyOp42
 70
     1
102
RTVSPropertyOp43
 70
     1
102
RTVSPropertyOp44
 70
     1
102
RTVSPropertyOp45
 70
     1
102
RTVSPropertyOp46
 70
     1
102
RTVSPropertyOp47
 70
     1
102
RTVSPropertyOp48
 70
     1
102
RTVSPropertyOp49
 70
     1
102
RTVSPropertyOp50
 70
     1
102
RTVSPropertyOp51
 70
     0
102
RTVSPropertyOp52
 70
     0
102
RTVSPropertyOp53
 70
     1
102
RTVSPropertyOp54
 70
     1
102
RTVSPropertyOp55
 70
     1
102
RTVSPropertyOp56
 70
     1
102
RTVSPropertyOp57
 70
     1
102
RTVSPost2010Prop28
280
     0
102
RTVSPost2010PropOp28
 70
     1
102
RTVSPost2010Prop29
280
     1
102
RTVSPost2010PropOp29
 70
     1
102
RTVSPost2010Prop30
280
     1
102
RTVSPost2010PropOp30
 70
     1
102
RTVSPost2010Prop31
280
     0
102
RTVSPost2010PropOp31
 70
     1
102
RTVSPost2010Prop32
280
     0
102
RTVSPost2010PropOp32
 70
     1
102
RTVSPost2010Prop33
280
     0
102
RTVSPost2010PropOp33
 70
     1
102
RTVSPost2010Prop34
280
     0
102
RTVSPost2010PropOp34
 70
     1
102
RTVSPost2010Prop35
280
     0
102
RTVSPost2010PropOp35
 70
     1
102
RTVSPost2010Prop36
280
     0
102
RTVSPost2010PropOp36
 70
     1
102
RTVSPost2010Prop37
 90
       50
102
RTVSPost2010PropOp37
 70
     1
102
RTVSPost2010Prop38
140
0.0
102
RTVSPost2010PropOp38
 70
     1
102
RTVSPost2010Prop39
140
1.0
102
RTVSPost2010PropOp39
 70
     1
102
RTVSPost2010Prop40
 90
        0
102
RTVSPost2010PropOp40
 70
     1
102
RTVSPost2010Prop41ColorIndex
 90
       18
102
RTVSPost2010Prop41ColorRGB
 90
        0
102
RTVSPost2010PropOp41
 70
     1
102
RTVSPost2010Prop42
 90
       50
102
RTVSPost2010PropOp42
 70
     1
102
RTVSPost2010Prop43
 90
        3
102
RTVSPost2010PropOp43
 70
     1
102
RTVSPost2010Prop44ColorIndex
 90
        5
102
RTVSPost2010Prop44ColorRGB
 90
      255
102
RTVSPost2010PropOp44
 70
     1
102
RTVSPost2010Prop45
280
     0
102
RTVSPost2010PropOp45
 70
     1
102
RTVSPost2010Prop46
 90
       50
102
RTVSPost2010PropOp46
 70
     1
102
RTVSPost2010Prop47
 90
       50
102
RTVSPost2010PropOp47
 70
     1
102
RTVSPost2010Prop48
 90
       50
102
RTVSPost2010PropOp48
 70
     1
102
RTVSPost2010Prop49
280
     0
102
RTVSPost2010PropOp49
 70
     1
102
RTVSPost2010Prop50
 90
       50
102
RTVSPost2010PropOp50
 70
     1
102
RTVSPost2010Prop51ColorIndex
 90
      256
102
RTVSPost2010Prop51ColorRGB
 90
-16777216
102
RTVSPost2010PropOp51
 70
     0
102
RTVSPost2010Prop52
140
1.0
102
RTVSPost2010PropOp52
 70
     0
102
RTVSPost2010Prop53
 90
        2
102
RTVSPost2010PropOp53
 70
     1
102
RTVSPost2010Prop54
  1
strokes_ogs.tif
102
RTVSPost2010PropOp54
 70
     1
102
RTVSPost2010Prop55
280
     0
102
RTVSPost2010PropOp55
 70
     1
102
RTVSPost2010Prop56
140
1.0
102
RTVSPost2010PropOp56
 70
     1
102
RTVSPost2010Prop57
140
1.0
102
RTVSPost2010PropOp57
 70
     1
  0
XRECORD
  5
186
102
{ACAD_REACTORS
330
185
102
}
330
185
100
AcDbXrecord
280
     1
102
RTVSPropertyOp0
 70
     1
102
RTVSPropertyOp1
 70
     1
102
RTVSPropertyOp2
 70
     1
102
RTVSPropertyOp3
 70
     1
102
RTVSPropertyOp4
 70
     1
102
RTVSPropertyOp5
 70
     1
102
RTVSPropertyOp6
 70
     1
102
RTVSPropertyOp7
 70
     1
102
RTVSPropertyOp8
 70
     1
102
RTVSPropertyOp9
 70
     1
102
RTVSPropertyOp10
 70
     1
102
RTVSPropertyOp11
 70
     1
102
RTVSPropertyOp12
 70
     1
102
RTVSPropertyOp13
 70
     1
102
RTVSPropertyOp14
 70
     1
102
RTVSPropertyOp15
 70
     1
102
RTVSPropertyOp16
 70
     1
102
RTVSPropertyOp17
 70
     1
102
RTVSPropertyOp18
 70
     1
102
RTVSPropertyOp19
 70
     1
102
RTVSPropertyOp20
 70
     1
102
RTVSPropertyOp21
 70
     1
102
RTVSPropertyOp22
 70
     1
102
RTVSPropertyOp23
 70
     1
102
RTVSPropertyOp24
 70
     1
102
RTVSPropertyOp25
 70
     1
102
RTVSPropertyOp26
 70
     1
102
RTVSPropertyOp27
 70
     1
102
RTVSPropertyOp28
 70
     1
102
RTVSPropertyOp29
 70
     1
102
RTVSPropertyOp30
 70
     1
102
RTVSPropertyOp31
 70
     1
102
RTVSPropertyOp32
 70
     1
102
RTVSPropertyOp33
 70
     1
102
RTVSPropertyOp34
 70
     1
102
RTVSPropertyOp35
 70
     1
102
RTVSPropertyOp36
 70
     1
102
RTVSPropertyOp37
 70
     1
102
RTVSPropertyOp38
 70
     1
102
RTVSPropertyOp39
 70
     1
102
RTVSPropertyOp40
 70
     1
102
RTVSPropertyOp41
 70
     1
102
RTVSPropertyOp42
 70
     1
102
RTVSPropertyOp43
 70
     1
102
RTVSPropertyOp44
 70
     1
102
RTVSPropertyOp45
 70
     1
102
RTVSPropertyOp46
 70
     1
102
RTVSPropertyOp47
 70
     1
102
RTVSPropertyOp48
 70
     1
102
RTVSPropertyOp49
 70
     1
102
RTVSPropertyOp50
 70
     1
102
RTVSPropertyOp51
 70
     0
102
RTVSPropertyOp52
 70
     0
102
RTVSPropertyOp53
 70
     1
102
RTVSPropertyOp54
 70
     1
102
RTVSPropertyOp55
 70
     1
102
RTVSPropertyOp56
 70
     1
102
RTVSPropertyOp57
 70
     1
102
RTVSPost2010Prop28
280
     0
102
RTVSPost2010PropOp28
 70
     1
102
RTVSPost2010Prop29
280
     1
102
RTVSPost2010PropOp29
 70
     1
102
RTVSPost2010Prop30
280
     1
102
RTVSPost2010PropOp30
 70
     1
102
RTVSPost2010Prop31
280
     0
102
RTVSPost2010PropOp31
 70
     1
102
RTVSPost2010Prop32
280
     0
102
RTVSPost2010PropOp32
 70
     1
102
RTVSPost2010Prop33
280
     0
102
RTVSPost2010PropOp33
 70
     1
102
RTVSPost2010Prop34
280
     0
102
RTVSPost2010PropOp34
 70
     1
102
RTVSPost2010Prop35
280
     0
102
RTVSPost2010PropOp35
 70
     1
102
RTVSPost2010Prop36
280
     0
102
RTVSPost2010PropOp36
 70
     1
102
RTVSPost2010Prop37
 90
       50
102
RTVSPost2010PropOp37
 70
     1
102
RTVSPost2010Prop38
140
0.0
102
RTVSPost2010PropOp38
 70
     1
102
RTVSPost2010Prop39
140
1.0
102
RTVSPost2010PropOp39
 70
     1
102
RTVSPost2010Prop40
 90
        0
102
RTVSPost2010PropOp40
 70
     1
102
RTVSPost2010Prop41ColorIndex
 90
       18
102
RTVSPost2010Prop41ColorRGB
 90
        0
102
RTVSPost2010PropOp41
 70
     1
102
RTVSPost2010Prop42
 90
       50
102
RTVSPost2010PropOp42
 70
     1
102
RTVSPost2010Prop43
 90
        3
102
RTVSPost2010PropOp43
 70
     1
102
RTVSPost2010Prop44ColorIndex
 90
        5
102
RTVSPost2010Prop44ColorRGB
 90
      255
102
RTVSPost2010PropOp44
 70
     1
102
RTVSPost2010Prop45
280
     0
102
RTVSPost2010PropOp45
 70
     1
102
RTVSPost2010Prop46
 90
       50
102
RTVSPost2010PropOp46
 70
     1
102
RTVSPost2010Prop47
 90
       50
102
RTVSPost2010PropOp47
 70
     1
102
RTVSPost2010Prop48
 90
       50
102
RTVSPost2010PropOp48
 70
     1
102
RTVSPost2010Prop49
280
     0
102
RTVSPost2010PropOp49
 70
     1
102
RTVSPost2010Prop50
 90
       50
102
RTVSPost2010PropOp50
 70
     1
102
RTVSPost2010Prop51ColorIndex
 90
      256
102
RTVSPost2010Prop51ColorRGB
 90
-16777216
102
RTVSPost2010PropOp51
 70
     0
102
RTVSPost2010Prop52
140
1.0
102
RTVSPost2010PropOp52
 70
     0
102
RTVSPost2010Prop53
 90
        2
102
RTVSPost2010PropOp53
 70
     1
102
RTVSPost2010Prop54
  1
strokes_ogs.tif
102
RTVSPost2010PropOp54
 70
     1
102
RTVSPost2010Prop55
280
     0
102
RTVSPost2010PropOp55
 70
     1
102
RTVSPost2010Prop56
140
1.0
102
RTVSPost2010PropOp56
 70
     1
102
RTVSPost2010Prop57
140
1.0
102
RTVSPost2010PropOp57
 70
     1
  0
XRECORD
  5
188
102
{ACAD_REACTORS
330
187
102
}
330
187
100
AcDbXrecord
280
     1
102
RTVSPropertyOp0
 70
     1
102
RTVSPropertyOp1
 70
     1
102
RTVSPropertyOp2
 70
     1
102
RTVSPropertyOp3
 70
     1
102
RTVSPropertyOp4
 70
     1
102
RTVSPropertyOp5
 70
     1
102
RTVSPropertyOp6
 70
     1
102
RTVSPropertyOp7
 70
     1
102
RTVSPropertyOp8
 70
     1
102
RTVSPropertyOp9
 70
     1
102
RTVSPropertyOp10
 70
     1
102
RTVSPropertyOp11
 70
     1
102
RTVSPropertyOp12
 70
     1
102
RTVSPropertyOp13
 70
     1
102
RTVSPropertyOp14
 70
     1
102
RTVSPropertyOp15
 70
     1
102
RTVSPropertyOp16
 70
     1
102
RTVSPropertyOp17
 70
     1
102
RTVSPropertyOp18
 70
     1
102
RTVSPropertyOp19
 70
     1
102
RTVSPropertyOp20
 70
     1
102
RTVSPropertyOp21
 70
     1
102
RTVSPropertyOp22
 70
     1
102
RTVSPropertyOp23
 70
     1
102
RTVSPropertyOp24
 70
     1
102
RTVSPropertyOp25
 70
     1
102
RTVSPropertyOp26
 70
     1
102
RTVSPropertyOp27
 70
     1
102
RTVSPropertyOp28
 70
     1
102
RTVSPropertyOp29
 70
     1
102
RTVSPropertyOp30
 70
     1
102
RTVSPropertyOp31
 70
     1
102
RTVSPropertyOp32
 70
     1
102
RTVSPropertyOp33
 70
     1
102
RTVSPropertyOp34
 70
     1
102
RTVSPropertyOp35
 70
     1
102
RTVSPropertyOp36
 70
     1
102
RTVSPropertyOp37
 70
     1
102
RTVSPropertyOp38
 70
     1
102
RTVSPropertyOp39
 70
     1
102
RTVSPropertyOp40
 70
     1
102
RTVSPropertyOp41
 70
     1
102
RTVSPropertyOp42
 70
     1
102
RTVSPropertyOp43
 70
     1
102
RTVSPropertyOp44
 70
     1
102
RTVSPropertyOp45
 70
     1
102
RTVSPropertyOp46
 70
     1
102
RTVSPropertyOp47
 70
     1
102
RTVSPropertyOp48
 70
     1
102
RTVSPropertyOp49
 70
     1
102
RTVSPropertyOp50
 70
     1
102
RTVSPropertyOp51
 70
     0
102
RTVSPropertyOp52
 70
     0
102
RTVSPropertyOp53
 70
     1
102
RTVSPropertyOp54
 70
     1
102
RTVSPropertyOp55
 70
     1
102
RTVSPropertyOp56
 70
     1
102
RTVSPropertyOp57
 70
     1
102
RTVSPost2010Prop28
280
     0
102
RTVSPost2010PropOp28
 70
     1
102
RTVSPost2010Prop29
280
     1
102
RTVSPost2010PropOp29
 70
     1
102
RTVSPost2010Prop30
280
     1
102
RTVSPost2010PropOp30
 70
     1
102
RTVSPost2010Prop31
280
     0
102
RTVSPost2010PropOp31
 70
     1
102
RTVSPost2010Prop32
280
     0
102
RTVSPost2010PropOp32
 70
     1
102
RTVSPost2010Prop33
280
     0
102
RTVSPost2010PropOp33
 70
     1
102
RTVSPost2010Prop34
280
     0
102
RTVSPost2010PropOp34
 70
     1
102
RTVSPost2010Prop35
280
     0
102
RTVSPost2010PropOp35
 70
     1
102
RTVSPost2010Prop36
280
     0
102
RTVSPost2010PropOp36
 70
     1
102
RTVSPost2010Prop37
 90
       50
102
RTVSPost2010PropOp37
 70
     1
102
RTVSPost2010Prop38
140
0.0
102
RTVSPost2010PropOp38
 70
     1
102
RTVSPost2010Prop39
140
1.0
102
RTVSPost2010PropOp39
 70
     1
102
RTVSPost2010Prop40
 90
        0
102
RTVSPost2010PropOp40
 70
     1
102
RTVSPost2010Prop41ColorIndex
 90
       18
102
RTVSPost2010Prop41ColorRGB
 90
        0
102
RTVSPost2010PropOp41
 70
     1
102
RTVSPost2010Prop42
 90
       50
102
RTVSPost2010PropOp42
 70
     1
102
RTVSPost2010Prop43
 90
        3
102
RTVSPost2010PropOp43
 70
     1
102
RTVSPost2010Prop44ColorIndex
 90
        5
102
RTVSPost2010Prop44ColorRGB
 90
      255
102
RTVSPost2010PropOp44
 70
     1
102
RTVSPost2010Prop45
280
     0
102
RTVSPost2010PropOp45
 70
     1
102
RTVSPost2010Prop46
 90
       50
102
RTVSPost2010PropOp46
 70
     1
102
RTVSPost2010Prop47
 90
       50
102
RTVSPost2010PropOp47
 70
     1
102
RTVSPost2010Prop48
 90
       50
102
RTVSPost2010PropOp48
 70
     1
102
RTVSPost2010Prop49
280
     0
102
RTVSPost2010PropOp49
 70
     1
102
RTVSPost2010Prop50
 90
       50
102
RTVSPost2010PropOp50
 70
     1
102
RTVSPost2010Prop51ColorIndex
 90
      256
102
RTVSPost2010Prop51ColorRGB
 90
-16777216
102
RTVSPost2010PropOp51
 70
     0
102
RTVSPost2010Prop52
140
1.0
102
RTVSPost2010PropOp52
 70
     0
102
RTVSPost2010Prop53
 90
        2
102
RTVSPost2010PropOp53
 70
     1
102
RTVSPost2010Prop54
  1
strokes_ogs.tif
102
RTVSPost2010PropOp54
 70
     1
102
RTVSPost2010Prop55
280
     0
102
RTVSPost2010PropOp55
 70
     1
102
RTVSPost2010Prop56
140
1.0
102
RTVSPost2010PropOp56
 70
     1
102
RTVSPost2010Prop57
140
1.0
102
RTVSPost2010PropOp57
 70
     1
  0
XRECORD
  5
198
102
{ACAD_REACTORS
330
197
102
}
330
197
100
AcDbXrecord
280
     1
102
RTVSPropertyOp0
 70
     0
102
RTVSPropertyOp1
 70
     0
102
RTVSPropertyOp2
 70
     0
102
RTVSPropertyOp3
 70
     0
102
RTVSPropertyOp4
 70
     0
102
RTVSPropertyOp5
 70
     0
102
RTVSPropertyOp6
 70
     0
102
RTVSPropertyOp7
 70
     0
102
RTVSPropertyOp8
 70
     0
102
RTVSPropertyOp9
 70
     0
102
RTVSPropertyOp10
 70
     0
102
RTVSPropertyOp11
 70
     0
102
RTVSPropertyOp12
 70
     0
102
RTVSPropertyOp13
 70
     0
102
RTVSPropertyOp14
 70
     2
102
RTVSPropertyOp15
 70
     0
102
RTVSPropertyOp16
 70
     0
102
RTVSPropertyOp17
 70
     0
102
RTVSPropertyOp18
 70
     0
102
RTVSPropertyOp19
 70
     0
102
RTVSPropertyOp20
 70
     0
102
RTVSPropertyOp21
 70
     0
102
RTVSPropertyOp22
 70
     0
102
RTVSPropertyOp23
 70
     0
102
RTVSPropertyOp24
 70
     0
102
RTVSPropertyOp25
 70
     0
102
RTVSPropertyOp26
 70
     0
102
RTVSPropertyOp27
 70
     0
102
RTVSPropertyOp28
 70
     0
102
RTVSPropertyOp29
 70
     0
102
RTVSPropertyOp30
 70
     0
102
RTVSPropertyOp31
 70
     0
102
RTVSPropertyOp32
 70
     0
102
RTVSPropertyOp33
 70
     0
102
RTVSPropertyOp34
 70
     0
102
RTVSPropertyOp35
 70
     0
102
RTVSPropertyOp36
 70
     0
102
RTVSPropertyOp37
 70
     0
102
RTVSPropertyOp38
 70
     0
102
RTVSPropertyOp39
 70
     0
102
RTVSPropertyOp40
 70
     0
102
RTVSPropertyOp41
 70
     0
102
RTVSPropertyOp42
 70
     0
102
RTVSPropertyOp43
 70
     0
102
RTVSPropertyOp44
 70
     0
102
RTVSPropertyOp45
 70
     0
102
RTVSPropertyOp46
 70
     0
102
RTVSPropertyOp47
 70
     0
102
RTVSPropertyOp48
 70
     0
102
RTVSPropertyOp49
 70
     0
102
RTVSPropertyOp50
 70
     0
102
RTVSPropertyOp51
 70
     0
102
RTVSPropertyOp52
 70
     0
102
RTVSPropertyOp53
 70
     0
102
RTVSPropertyOp54
 70
     0
102
RTVSPropertyOp55
 70
     0
102
RTVSPropertyOp56
 70
     0
102
RTVSPropertyOp57
 70
     0
102
RTVSPost2010Prop28
280
     0
102
RTVSPost2010PropOp28
 70
     0
102
RTVSPost2010Prop29
280
     1
102
RTVSPost2010PropOp29
 70
     0
102
RTVSPost2010Prop30
280
     1
102
RTVSPost2010PropOp30
 70
     0
102
RTVSPost2010Prop31
280
     0
102
RTVSPost2010PropOp31
 70
     0
102
RTVSPost2010Prop32
280
     0
102
RTVSPost2010PropOp32
 70
     0
102
RTVSPost2010Prop33
280
     0
102
RTVSPost2010PropOp33
 70
     0
102
RTVSPost2010Prop34
280
     0
102
RTVSPost2010PropOp34
 70
     0
102
RTVSPost2010Prop35
280
     0
102
RTVSPost2010PropOp35
 70
     0
102
RTVSPost2010Prop36
280
     0
102
RTVSPost2010PropOp36
 70
     0
102
RTVSPost2010Prop37
 90
       50
102
RTVSPost2010PropOp37
 70
     0
102
RTVSPost2010Prop38
140
0.0
102
RTVSPost2010PropOp38
 70
     0
102
RTVSPost2010Prop39
140
1.0
102
RTVSPost2010PropOp39
 70
     0
102
RTVSPost2010Prop40
 90
        0
102
RTVSPost2010PropOp40
 70
     0
102
RTVSPost2010Prop41ColorIndex
 90
       18
102
RTVSPost2010Prop41ColorRGB
 90
        0
102
RTVSPost2010PropOp41
 70
     0
102
RTVSPost2010Prop42
 90
       50
102
RTVSPost2010PropOp42
 70
     0
102
RTVSPost2010Prop43
 90
        3
102
RTVSPost2010PropOp43
 70
     0
102
RTVSPost2010Prop44ColorIndex
 90
        5
102
RTVSPost2010Prop44ColorRGB
 90
      255
102
RTVSPost2010PropOp44
 70
     0
102
RTVSPost2010Prop45
280
     0
102
RTVSPost2010PropOp45
 70
     0
102
RTVSPost2010Prop46
 90
       50
102
RTVSPost2010PropOp46
 70
     0
102
RTVSPost2010Prop47
 90
       50
102
RTVSPost2010PropOp47
 70
     0
102
RTVSPost2010Prop48
 90
       50
102
RTVSPost2010PropOp48
 70
     0
102
RTVSPost2010Prop49
280
     0
102
RTVSPost2010PropOp49
 70
     0
102
RTVSPost2010Prop50
 90
       50
102
RTVSPost2010PropOp50
 70
     0
102
RTVSPost2010Prop51ColorIndex
 90
      256
102
RTVSPost2010Prop51ColorRGB
 90
-16777216
102
RTVSPost2010PropOp51
 70
     0
102
RTVSPost2010Prop52
140
1.0
102
RTVSPost2010PropOp52
 70
     0
102
RTVSPost2010Prop53
 90
        2
102
RTVSPost2010PropOp53
 70
     0
102
RTVSPost2010Prop54
  1
strokes_ogs.tif
102
RTVSPost2010PropOp54
 70
     0
102
RTVSPost2010Prop55
280
     0
102
RTVSPost2010PropOp55
 70
     0
102
RTVSPost2010Prop56
140
1.0
102
RTVSPost2010PropOp56
 70
     0
102
RTVSPost2010Prop57
140
1.0
102
RTVSPost2010PropOp57
 70
     0
  0
XRECORD
  5
190
102
{ACAD_REACTORS
330
18F
102
}
330
18F
100
AcDbXrecord
280
     1
102
RTVSPropertyOp0
 70
     1
102
RTVSPropertyOp1
 70
     1
102
RTVSPropertyOp2
 70
     1
102
RTVSPropertyOp3
 70
     1
102
RTVSPropertyOp4
 70
     1
102
RTVSPropertyOp5
 70
     1
102
RTVSPropertyOp6
 70
     1
102
RTVSPropertyOp7
 70
     1
102
RTVSPropertyOp8
 70
     1
102
RTVSPropertyOp9
 70
     1
102
RTVSPropertyOp10
 70
     1
102
RTVSPropertyOp11
 70
     1
102
RTVSPropertyOp12
 70
     1
102
RTVSPropertyOp13
 70
     1
102
RTVSPropertyOp14
 70
     1
102
RTVSPropertyOp15
 70
     1
102
RTVSPropertyOp16
 70
     1
102
RTVSPropertyOp17
 70
     1
102
RTVSPropertyOp18
 70
     1
102
RTVSPropertyOp19
 70
     1
102
RTVSPropertyOp20
 70
     1
102
RTVSPropertyOp21
 70
     1
102
RTVSPropertyOp22
 70
     1
102
RTVSPropertyOp23
 70
     1
102
RTVSPropertyOp24
 70
     1
102
RTVSPropertyOp25
 70
     1
102
RTVSPropertyOp26
 70
     1
102
RTVSPropertyOp27
 70
     1
102
RTVSPropertyOp28
 70
     1
102
RTVSPropertyOp29
 70
     1
102
RTVSPropertyOp30
 70
     1
102
RTVSPropertyOp31
 70
     1
102
RTVSPropertyOp32
 70
     1
102
RTVSPropertyOp33
 70
     1
102
RTVSPropertyOp34
 70
     1
102
RTVSPropertyOp35
 70
     1
102
RTVSPropertyOp36
 70
     1
102
RTVSPropertyOp37
 70
     1
102
RTVSPropertyOp38
 70
     1
102
RTVSPropertyOp39
 70
     1
102
RTVSPropertyOp40
 70
     1
102
RTVSPropertyOp41
 70
     1
102
RTVSPropertyOp42
 70
     1
102
RTVSPropertyOp43
 70
     1
102
RTVSPropertyOp44
 70
     1
102
RTVSPropertyOp45
 70
     1
102
RTVSPropertyOp46
 70
     1
102
RTVSPropertyOp47
 70
     1
102
RTVSPropertyOp48
 70
     1
102
RTVSPropertyOp49
 70
     1
102
RTVSPropertyOp50
 70
     1
102
RTVSPropertyOp51
 70
     0
102
RTVSPropertyOp52
 70
     0
102
RTVSPropertyOp53
 70
     1
102
RTVSPropertyOp54
 70
     1
102
RTVSPropertyOp55
 70
     1
102
RTVSPropertyOp56
 70
     1
102
RTVSPropertyOp57
 70
     1
102
RTVSPost2010Prop28
280
     0
102
RTVSPost2010PropOp28
 70
     1
102
RTVSPost2010Prop29
280
     1
102
RTVSPost2010PropOp29
 70
     1
102
RTVSPost2010Prop30
280
     1
102
RTVSPost2010PropOp30
 70
     1
102
RTVSPost2010Prop31
280
     0
102
RTVSPost2010PropOp31
 70
     1
102
RTVSPost2010Prop32
280
     0
102
RTVSPost2010PropOp32
 70
     1
102
RTVSPost2010Prop33
280
     0
102
RTVSPost2010PropOp33
 70
     1
102
RTVSPost2010Prop34
280
     0
102
RTVSPost2010PropOp34
 70
     1
102
RTVSPost2010Prop35
280
     0
102
RTVSPost2010PropOp35
 70
     1
102
RTVSPost2010Prop36
280
     0
102
RTVSPost2010PropOp36
 70
     1
102
RTVSPost2010Prop37
 90
       50
102
RTVSPost2010PropOp37
 70
     1
102
RTVSPost2010Prop38
140
0.0
102
RTVSPost2010PropOp38
 70
     1
102
RTVSPost2010Prop39
140
1.0
102
RTVSPost2010PropOp39
 70
     1
102
RTVSPost2010Prop40
 90
        0
102
RTVSPost2010PropOp40
 70
     1
102
RTVSPost2010Prop41ColorIndex
 90
       18
102
RTVSPost2010Prop41ColorRGB
 90
        0
102
RTVSPost2010PropOp41
 70
     1
102
RTVSPost2010Prop42
 90
       50
102
RTVSPost2010PropOp42
 70
     1
102
RTVSPost2010Prop43
 90
        3
102
RTVSPost2010PropOp43
 70
     1
102
RTVSPost2010Prop44ColorIndex
 90
        5
102
RTVSPost2010Prop44ColorRGB
 90
      255
102
RTVSPost2010PropOp44
 70
     1
102
RTVSPost2010Prop45
280
     0
102
RTVSPost2010PropOp45
 70
     1
102
RTVSPost2010Prop46
 90
       50
102
RTVSPost2010PropOp46
 70
     1
102
RTVSPost2010Prop47
 90
       50
102
RTVSPost2010PropOp47
 70
     1
102
RTVSPost2010Prop48
 90
       50
102
RTVSPost2010PropOp48
 70
     1
102
RTVSPost2010Prop49
280
     0
102
RTVSPost2010PropOp49
 70
     1
102
RTVSPost2010Prop50
 90
       50
102
RTVSPost2010PropOp50
 70
     1
102
RTVSPost2010Prop51ColorIndex
 90
      256
102
RTVSPost2010Prop51ColorRGB
 90
-16777216
102
RTVSPost2010PropOp51
 70
     0
102
RTVSPost2010Prop52
140
1.0
102
RTVSPost2010PropOp52
 70
     0
102
RTVSPost2010Prop53
 90
        2
102
RTVSPost2010PropOp53
 70
     1
102
RTVSPost2010Prop54
  1
strokes_ogs.tif
102
RTVSPost2010PropOp54
 70
     1
102
RTVSPost2010Prop55
280
     0
102
RTVSPost2010PropOp55
 70
     1
102
RTVSPost2010Prop56
140
1.0
102
RTVSPost2010PropOp56
 70
     1
102
RTVSPost2010Prop57
140
1.0
102
RTVSPost2010PropOp57
 70
     1
  0
XRECORD
  5
174
102
{ACAD_REACTORS
330
173
102
}
330
173
100
AcDbXrecord
280
     1
102
RTVSPropertyOp0
 70
     1
102
RTVSPropertyOp1
 70
     1
102
RTVSPropertyOp2
 70
     1
102
RTVSPropertyOp3
 70
     1
102
RTVSPropertyOp4
 70
     1
102
RTVSPropertyOp5
 70
     1
102
RTVSPropertyOp6
 70
     1
102
RTVSPropertyOp7
 70
     1
102
RTVSPropertyOp8
 70
     1
102
RTVSPropertyOp9
 70
     1
102
RTVSPropertyOp10
 70
     1
102
RTVSPropertyOp11
 70
     1
102
RTVSPropertyOp12
 70
     1
102
RTVSPropertyOp13
 70
     1
102
RTVSPropertyOp14
 70
     1
102
RTVSPropertyOp15
 70
     1
102
RTVSPropertyOp16
 70
     1
102
RTVSPropertyOp17
 70
     1
102
RTVSPropertyOp18
 70
     1
102
RTVSPropertyOp19
 70
     1
102
RTVSPropertyOp20
 70
     1
102
RTVSPropertyOp21
 70
     1
102
RTVSPropertyOp22
 70
     1
102
RTVSPropertyOp23
 70
     1
102
RTVSPropertyOp24
 70
     1
102
RTVSPropertyOp25
 70
     1
102
RTVSPropertyOp26
 70
     1
102
RTVSPropertyOp27
 70
     1
102
RTVSPropertyOp28
 70
     1
102
RTVSPropertyOp29
 70
     1
102
RTVSPropertyOp30
 70
     1
102
RTVSPropertyOp31
 70
     1
102
RTVSPropertyOp32
 70
     1
102
RTVSPropertyOp33
 70
     1
102
RTVSPropertyOp34
 70
     1
102
RTVSPropertyOp35
 70
     1
102
RTVSPropertyOp36
 70
     1
102
RTVSPropertyOp37
 70
     1
102
RTVSPropertyOp38
 70
     1
102
RTVSPropertyOp39
 70
     1
102
RTVSPropertyOp40
 70
     1
102
RTVSPropertyOp41
 70
     1
102
RTVSPropertyOp42
 70
     1
102
RTVSPropertyOp43
 70
     1
102
RTVSPropertyOp44
 70
     1
102
RTVSPropertyOp45
 70
     1
102
RTVSPropertyOp46
 70
     1
102
RTVSPropertyOp47
 70
     1
102
RTVSPropertyOp48
 70
     1
102
RTVSPropertyOp49
 70
     1
102
RTVSPropertyOp50
 70
     1
102
RTVSPropertyOp51
 70
     0
102
RTVSPropertyOp52
 70
     0
102
RTVSPropertyOp53
 70
     1
102
RTVSPropertyOp54
 70
     1
102
RTVSPropertyOp55
 70
     1
102
RTVSPropertyOp56
 70
     1
102
RTVSPropertyOp57
 70
     1
102
RTVSPost2010Prop28
280
     0
102
RTVSPost2010PropOp28
 70
     1
102
RTVSPost2010Prop29
280
     1
102
RTVSPost2010PropOp29
 70
     1
102
RTVSPost2010Prop30
280
     1
102
RTVSPost2010PropOp30
 70
     1
102
RTVSPost2010Prop31
280
     0
102
RTVSPost2010PropOp31
 70
     1
102
RTVSPost2010Prop32
280
     0
102
RTVSPost2010PropOp32
 70
     1
102
RTVSPost2010Prop33
280
     0
102
RTVSPost2010PropOp33
 70
     1
102
RTVSPost2010Prop34
280
     0
102
RTVSPost2010PropOp34
 70
     1
102
RTVSPost2010Prop35
280
     0
102
RTVSPost2010PropOp35
 70
     1
102
RTVSPost2010Prop36
280
     0
102
RTVSPost2010PropOp36
 70
     1
102
RTVSPost2010Prop37
 90
       50
102
RTVSPost2010PropOp37
 70
     1
102
RTVSPost2010Prop38
140
0.0
102
RTVSPost2010PropOp38
 70
     1
102
RTVSPost2010Prop39
140
1.0
102
RTVSPost2010PropOp39
 70
     1
102
RTVSPost2010Prop40
 90
        0
102
RTVSPost2010PropOp40
 70
     1
102
RTVSPost2010Prop41ColorIndex
 90
       18
102
RTVSPost2010Prop41ColorRGB
 90
        0
102
RTVSPost2010PropOp41
 70
     1
102
RTVSPost2010Prop42
 90
       50
102
RTVSPost2010PropOp42
 70
     1
102
RTVSPost2010Prop43
 90
        3
102
RTVSPost2010PropOp43
 70
     1
102
RTVSPost2010Prop44ColorIndex
 90
        5
102
RTVSPost2010Prop44ColorRGB
 90
      255
102
RTVSPost2010PropOp44
 70
     1
102
RTVSPost2010Prop45
280
     0
102
RTVSPost2010PropOp45
 70
     1
102
RTVSPost2010Prop46
 90
       50
102
RTVSPost2010PropOp46
 70
     1
102
RTVSPost2010Prop47
 90
       50
102
RTVSPost2010PropOp47
 70
     1
102
RTVSPost2010Prop48
 90
       50
102
RTVSPost2010PropOp48
 70
     1
102
RTVSPost2010Prop49
280
     0
102
RTVSPost2010PropOp49
 70
     1
102
RTVSPost2010Prop50
 90
       50
102
RTVSPost2010PropOp50
 70
     1
102
RTVSPost2010Prop51ColorIndex
 90
      256
102
RTVSPost2010Prop51ColorRGB
 90
-16777216
102
RTVSPost2010PropOp51
 70
     0
102
RTVSPost2010Prop52
140
1.0
102
RTVSPost2010PropOp52
 70
     0
102
RTVSPost2010Prop53
 90
        2
102
RTVSPost2010PropOp53
 70
     1
102
RTVSPost2010Prop54
  1
strokes_ogs.tif
102
RTVSPost2010PropOp54
 70
     1
102
RTVSPost2010Prop55
280
     0
102
RTVSPost2010PropOp55
 70
     1
102
RTVSPost2010Prop56
140
1.0
102
RTVSPost2010PropOp56
 70
     1
102
RTVSPost2010Prop57
140
1.0
102
RTVSPost2010PropOp57
 70
     1
  0
XRECORD
  5
176
102
{ACAD_REACTORS
330
175
102
}
330
175
100
AcDbXrecord
280
     1
102
RTVSPropertyOp0
 70
     1
102
RTVSPropertyOp1
 70
     1
102
RTVSPropertyOp2
 70
     1
102
RTVSPropertyOp3
 70
     1
102
RTVSPropertyOp4
 70
     1
102
RTVSPropertyOp5
 70
     1
102
RTVSPropertyOp6
 70
     1
102
RTVSPropertyOp7
 70
     1
102
RTVSPropertyOp8
 70
     1
102
RTVSPropertyOp9
 70
     1
102
RTVSPropertyOp10
 70
     1
102
RTVSPropertyOp11
 70
     1
102
RTVSPropertyOp12
 70
     1
102
RTVSPropertyOp13
 70
     1
102
RTVSPropertyOp14
 70
     1
102
RTVSPropertyOp15
 70
     1
102
RTVSPropertyOp16
 70
     1
102
RTVSPropertyOp17
 70
     1
102
RTVSPropertyOp18
 70
     1
102
RTVSPropertyOp19
 70
     1
102
RTVSPropertyOp20
 70
     1
102
RTVSPropertyOp21
 70
     1
102
RTVSPropertyOp22
 70
     1
102
RTVSPropertyOp23
 70
     1
102
RTVSPropertyOp24
 70
     1
102
RTVSPropertyOp25
 70
     1
102
RTVSPropertyOp26
 70
     1
102
RTVSPropertyOp27
 70
     1
102
RTVSPropertyOp28
 70
     1
102
RTVSPropertyOp29
 70
     1
102
RTVSPropertyOp30
 70
     1
102
RTVSPropertyOp31
 70
     1
102
RTVSPropertyOp32
 70
     1
102
RTVSPropertyOp33
 70
     1
102
RTVSPropertyOp34
 70
     1
102
RTVSPropertyOp35
 70
     1
102
RTVSPropertyOp36
 70
     1
102
RTVSPropertyOp37
 70
     1
102
RTVSPropertyOp38
 70
     1
102
RTVSPropertyOp39
 70
     1
102
RTVSPropertyOp40
 70
     1
102
RTVSPropertyOp41
 70
     1
102
RTVSPropertyOp42
 70
     1
102
RTVSPropertyOp43
 70
     1
102
RTVSPropertyOp44
 70
     1
102
RTVSPropertyOp45
 70
     1
102
RTVSPropertyOp46
 70
     1
102
RTVSPropertyOp47
 70
     1
102
RTVSPropertyOp48
 70
     1
102
RTVSPropertyOp49
 70
     1
102
RTVSPropertyOp50
 70
     1
102
RTVSPropertyOp51
 70
     0
102
RTVSPropertyOp52
 70
     0
102
RTVSPropertyOp53
 70
     1
102
RTVSPropertyOp54
 70
     1
102
RTVSPropertyOp55
 70
     1
102
RTVSPropertyOp56
 70
     1
102
RTVSPropertyOp57
 70
     1
102
RTVSPost2010Prop28
280
     0
102
RTVSPost2010PropOp28
 70
     1
102
RTVSPost2010Prop29
280
     1
102
RTVSPost2010PropOp29
 70
     1
102
RTVSPost2010Prop30
280
     1
102
RTVSPost2010PropOp30
 70
     1
102
RTVSPost2010Prop31
280
     0
102
RTVSPost2010PropOp31
 70
     1
102
RTVSPost2010Prop32
280
     0
102
RTVSPost2010PropOp32
 70
     1
102
RTVSPost2010Prop33
280
     0
102
RTVSPost2010PropOp33
 70
     1
102
RTVSPost2010Prop34
280
     0
102
RTVSPost2010PropOp34
 70
     1
102
RTVSPost2010Prop35
280
     0
102
RTVSPost2010PropOp35
 70
     1
102
RTVSPost2010Prop36
280
     0
102
RTVSPost2010PropOp36
 70
     1
102
RTVSPost2010Prop37
 90
       50
102
RTVSPost2010PropOp37
 70
     1
102
RTVSPost2010Prop38
140
0.0
102
RTVSPost2010PropOp38
 70
     1
102
RTVSPost2010Prop39
140
1.0
102
RTVSPost2010PropOp39
 70
     1
102
RTVSPost2010Prop40
 90
        0
102
RTVSPost2010PropOp40
 70
     1
102
RTVSPost2010Prop41ColorIndex
 90
       18
102
RTVSPost2010Prop41ColorRGB
 90
        0
102
RTVSPost2010PropOp41
 70
     1
102
RTVSPost2010Prop42
 90
       50
102
RTVSPost2010PropOp42
 70
     1
102
RTVSPost2010Prop43
 90
        3
102
RTVSPost2010PropOp43
 70
     1
102
RTVSPost2010Prop44ColorIndex
 90
        5
102
RTVSPost2010Prop44ColorRGB
 90
      255
102
RTVSPost2010PropOp44
 70
     1
102
RTVSPost2010Prop45
280
     0
102
RTVSPost2010PropOp45
 70
     1
102
RTVSPost2010Prop46
 90
       50
102
RTVSPost2010PropOp46
 70
     1
102
RTVSPost2010Prop47
 90
       50
102
RTVSPost2010PropOp47
 70
     1
102
RTVSPost2010Prop48
 90
       50
102
RTVSPost2010PropOp48
 70
     1
102
RTVSPost2010Prop49
280
     0
102
RTVSPost2010PropOp49
 70
     1
102
RTVSPost2010Prop50
 90
       50
102
RTVSPost2010PropOp50
 70
     1
102
RTVSPost2010Prop51ColorIndex
 90
      256
102
RTVSPost2010Prop51ColorRGB
 90
-16777216
102
RTVSPost2010PropOp51
 70
     0
102
RTVSPost2010Prop52
140
1.0
102
RTVSPost2010PropOp52
 70
     0
102
RTVSPost2010Prop53
 90
        2
102
RTVSPost2010PropOp53
 70
     1
102
RTVSPost2010Prop54
  1
strokes_ogs.tif
102
RTVSPost2010PropOp54
 70
     1
102
RTVSPost2010Prop55
280
     0
102
RTVSPost2010PropOp55
 70
     1
102
RTVSPost2010Prop56
140
1.0
102
RTVSPost2010PropOp56
 70
     1
102
RTVSPost2010Prop57
140
1.0
102
RTVSPost2010PropOp57
 70
     1
  0
XRECORD
  5
178
102
{ACAD_REACTORS
330
177
102
}
330
177
100
AcDbXrecord
280
     1
102
RTVSPropertyOp0
 70
     1
102
RTVSPropertyOp1
 70
     1
102
RTVSPropertyOp2
 70
     1
102
RTVSPropertyOp3
 70
     1
102
RTVSPropertyOp4
 70
     1
102
RTVSPropertyOp5
 70
     1
102
RTVSPropertyOp6
 70
     1
102
RTVSPropertyOp7
 70
     1
102
RTVSPropertyOp8
 70
     1
102
RTVSPropertyOp9
 70
     1
102
RTVSPropertyOp10
 70
     1
102
RTVSPropertyOp11
 70
     1
102
RTVSPropertyOp12
 70
     1
102
RTVSPropertyOp13
 70
     1
102
RTVSPropertyOp14
 70
     1
102
RTVSPropertyOp15
 70
     1
102
RTVSPropertyOp16
 70
     1
102
RTVSPropertyOp17
 70
     1
102
RTVSPropertyOp18
 70
     1
102
RTVSPropertyOp19
 70
     1
102
RTVSPropertyOp20
 70
     1
102
RTVSPropertyOp21
 70
     1
102
RTVSPropertyOp22
 70
     1
102
RTVSPropertyOp23
 70
     1
102
RTVSPropertyOp24
 70
     1
102
RTVSPropertyOp25
 70
     1
102
RTVSPropertyOp26
 70
     1
102
RTVSPropertyOp27
 70
     1
102
RTVSPropertyOp28
 70
     1
102
RTVSPropertyOp29
 70
     1
102
RTVSPropertyOp30
 70
     1
102
RTVSPropertyOp31
 70
     1
102
RTVSPropertyOp32
 70
     1
102
RTVSPropertyOp33
 70
     1
102
RTVSPropertyOp34
 70
     1
102
RTVSPropertyOp35
 70
     1
102
RTVSPropertyOp36
 70
     1
102
RTVSPropertyOp37
 70
     1
102
RTVSPropertyOp38
 70
     1
102
RTVSPropertyOp39
 70
     1
102
RTVSPropertyOp40
 70
     1
102
RTVSPropertyOp41
 70
     1
102
RTVSPropertyOp42
 70
     1
102
RTVSPropertyOp43
 70
     1
102
RTVSPropertyOp44
 70
     1
102
RTVSPropertyOp45
 70
     1
102
RTVSPropertyOp46
 70
     1
102
RTVSPropertyOp47
 70
     1
102
RTVSPropertyOp48
 70
     1
102
RTVSPropertyOp49
 70
     1
102
RTVSPropertyOp50
 70
     1
102
RTVSPropertyOp51
 70
     0
102
RTVSPropertyOp52
 70
     0
102
RTVSPropertyOp53
 70
     1
102
RTVSPropertyOp54
 70
     1
102
RTVSPropertyOp55
 70
     1
102
RTVSPropertyOp56
 70
     1
102
RTVSPropertyOp57
 70
     1
102
RTVSPost2010Prop28
280
     0
102
RTVSPost2010PropOp28
 70
     1
102
RTVSPost2010Prop29
280
     1
102
RTVSPost2010PropOp29
 70
     1
102
RTVSPost2010Prop30
280
     1
102
RTVSPost2010PropOp30
 70
     1
102
RTVSPost2010Prop31
280
     0
102
RTVSPost2010PropOp31
 70
     1
102
RTVSPost2010Prop32
280
     0
102
RTVSPost2010PropOp32
 70
     1
102
RTVSPost2010Prop33
280
     0
102
RTVSPost2010PropOp33
 70
     1
102
RTVSPost2010Prop34
280
     0
102
RTVSPost2010PropOp34
 70
     1
102
RTVSPost2010Prop35
280
     0
102
RTVSPost2010PropOp35
 70
     1
102
RTVSPost2010Prop36
280
     0
102
RTVSPost2010PropOp36
 70
     1
102
RTVSPost2010Prop37
 90
       50
102
RTVSPost2010PropOp37
 70
     1
102
RTVSPost2010Prop38
140
0.0
102
RTVSPost2010PropOp38
 70
     1
102
RTVSPost2010Prop39
140
1.0
102
RTVSPost2010PropOp39
 70
     1
102
RTVSPost2010Prop40
 90
        0
102
RTVSPost2010PropOp40
 70
     1
102
RTVSPost2010Prop41ColorIndex
 90
       18
102
RTVSPost2010Prop41ColorRGB
 90
        0
102
RTVSPost2010PropOp41
 70
     1
102
RTVSPost2010Prop42
 90
       50
102
RTVSPost2010PropOp42
 70
     1
102
RTVSPost2010Prop43
 90
        3
102
RTVSPost2010PropOp43
 70
     1
102
RTVSPost2010Prop44ColorIndex
 90
        5
102
RTVSPost2010Prop44ColorRGB
 90
      255
102
RTVSPost2010PropOp44
 70
     1
102
RTVSPost2010Prop45
280
     0
102
RTVSPost2010PropOp45
 70
     1
102
RTVSPost2010Prop46
 90
       50
102
RTVSPost2010PropOp46
 70
     1
102
RTVSPost2010Prop47
 90
       50
102
RTVSPost2010PropOp47
 70
     1
102
RTVSPost2010Prop48
 90
       50
102
RTVSPost2010PropOp48
 70
     1
102
RTVSPost2010Prop49
280
     0
102
RTVSPost2010PropOp49
 70
     1
102
RTVSPost2010Prop50
 90
       50
102
RTVSPost2010PropOp50
 70
     1
102
RTVSPost2010Prop51ColorIndex
 90
      256
102
RTVSPost2010Prop51ColorRGB
 90
-16777216
102
RTVSPost2010PropOp51
 70
     0
102
RTVSPost2010Prop52
140
1.0
102
RTVSPost2010PropOp52
 70
     0
102
RTVSPost2010Prop53
 90
        2
102
RTVSPost2010PropOp53
 70
     1
102
RTVSPost2010Prop54
  1
strokes_ogs.tif
102
RTVSPost2010PropOp54
 70
     1
102
RTVSPost2010Prop55
280
     0
102
RTVSPost2010PropOp55
 70
     1
102
RTVSPost2010Prop56
140
1.0
102
RTVSPost2010PropOp56
 70
     1
102
RTVSPost2010Prop57
140
1.0
102
RTVSPost2010PropOp57
 70
     1
  0
XRECORD
  5
17A
102
{ACAD_REACTORS
330
179
102
}
330
179
100
AcDbXrecord
280
     1
102
RTVSPropertyOp0
 70
     1
102
RTVSPropertyOp1
 70
     1
102
RTVSPropertyOp2
 70
     1
102
RTVSPropertyOp3
 70
     1
102
RTVSPropertyOp4
 70
     1
102
RTVSPropertyOp5
 70
     1
102
RTVSPropertyOp6
 70
     1
102
RTVSPropertyOp7
 70
     1
102
RTVSPropertyOp8
 70
     1
102
RTVSPropertyOp9
 70
     1
102
RTVSPropertyOp10
 70
     1
102
RTVSPropertyOp11
 70
     1
102
RTVSPropertyOp12
 70
     1
102
RTVSPropertyOp13
 70
     1
102
RTVSPropertyOp14
 70
     1
102
RTVSPropertyOp15
 70
     1
102
RTVSPropertyOp16
 70
     1
102
RTVSPropertyOp17
 70
     1
102
RTVSPropertyOp18
 70
     1
102
RTVSPropertyOp19
 70
     1
102
RTVSPropertyOp20
 70
     1
102
RTVSPropertyOp21
 70
     1
102
RTVSPropertyOp22
 70
     1
102
RTVSPropertyOp23
 70
     1
102
RTVSPropertyOp24
 70
     1
102
RTVSPropertyOp25
 70
     1
102
RTVSPropertyOp26
 70
     1
102
RTVSPropertyOp27
 70
     1
102
RTVSPropertyOp28
 70
     1
102
RTVSPropertyOp29
 70
     1
102
RTVSPropertyOp30
 70
     1
102
RTVSPropertyOp31
 70
     1
102
RTVSPropertyOp32
 70
     1
102
RTVSPropertyOp33
 70
     1
102
RTVSPropertyOp34
 70
     1
102
RTVSPropertyOp35
 70
     1
102
RTVSPropertyOp36
 70
     1
102
RTVSPropertyOp37
 70
     1
102
RTVSPropertyOp38
 70
     1
102
RTVSPropertyOp39
 70
     1
102
RTVSPropertyOp40
 70
     1
102
RTVSPropertyOp41
 70
     1
102
RTVSPropertyOp42
 70
     1
102
RTVSPropertyOp43
 70
     1
102
RTVSPropertyOp44
 70
     1
102
RTVSPropertyOp45
 70
     1
102
RTVSPropertyOp46
 70
     1
102
RTVSPropertyOp47
 70
     1
102
RTVSPropertyOp48
 70
     1
102
RTVSPropertyOp49
 70
     1
102
RTVSPropertyOp50
 70
     1
102
RTVSPropertyOp51
 70
     0
102
RTVSPropertyOp52
 70
     0
102
RTVSPropertyOp53
 70
     1
102
RTVSPropertyOp54
 70
     1
102
RTVSPropertyOp55
 70
     1
102
RTVSPropertyOp56
 70
     1
102
RTVSPropertyOp57
 70
     1
102
RTVSPost2010Prop28
280
     0
102
RTVSPost2010PropOp28
 70
     1
102
RTVSPost2010Prop29
280
     1
102
RTVSPost2010PropOp29
 70
     1
102
RTVSPost2010Prop30
280
     1
102
RTVSPost2010PropOp30
 70
     1
102
RTVSPost2010Prop31
280
     0
102
RTVSPost2010PropOp31
 70
     1
102
RTVSPost2010Prop32
280
     0
102
RTVSPost2010PropOp32
 70
     1
102
RTVSPost2010Prop33
280
     0
102
RTVSPost2010PropOp33
 70
     1
102
RTVSPost2010Prop34
280
     0
102
RTVSPost2010PropOp34
 70
     1
102
RTVSPost2010Prop35
280
     0
102
RTVSPost2010PropOp35
 70
     1
102
RTVSPost2010Prop36
280
     0
102
RTVSPost2010PropOp36
 70
     1
102
RTVSPost2010Prop37
 90
       50
102
RTVSPost2010PropOp37
 70
     1
102
RTVSPost2010Prop38
140
0.0
102
RTVSPost2010PropOp38
 70
     1
102
RTVSPost2010Prop39
140
1.0
102
RTVSPost2010PropOp39
 70
     1
102
RTVSPost2010Prop40
 90
        0
102
RTVSPost2010PropOp40
 70
     1
102
RTVSPost2010Prop41ColorIndex
 90
       18
102
RTVSPost2010Prop41ColorRGB
 90
        0
102
RTVSPost2010PropOp41
 70
     1
102
RTVSPost2010Prop42
 90
       50
102
RTVSPost2010PropOp42
 70
     1
102
RTVSPost2010Prop43
 90
        3
102
RTVSPost2010PropOp43
 70
     1
102
RTVSPost2010Prop44ColorIndex
 90
        5
102
RTVSPost2010Prop44ColorRGB
 90
      255
102
RTVSPost2010PropOp44
 70
     1
102
RTVSPost2010Prop45
280
     0
102
RTVSPost2010PropOp45
 70
     1
102
RTVSPost2010Prop46
 90
       50
102
RTVSPost2010PropOp46
 70
     1
102
RTVSPost2010Prop47
 90
       50
102
RTVSPost2010PropOp47
 70
     1
102
RTVSPost2010Prop48
 90
       50
102
RTVSPost2010PropOp48
 70
     1
102
RTVSPost2010Prop49
280
     0
102
RTVSPost2010PropOp49
 70
     1
102
RTVSPost2010Prop50
 90
       50
102
RTVSPost2010PropOp50
 70
     1
102
RTVSPost2010Prop51ColorIndex
 90
      256
102
RTVSPost2010Prop51ColorRGB
 90
-16777216
102
RTVSPost2010PropOp51
 70
     0
102
RTVSPost2010Prop52
140
1.0
102
RTVSPost2010PropOp52
 70
     0
102
RTVSPost2010Prop53
 90
        2
102
RTVSPost2010PropOp53
 70
     1
102
RTVSPost2010Prop54
  1
strokes_ogs.tif
102
RTVSPost2010PropOp54
 70
     1
102
RTVSPost2010Prop55
280
     0
102
RTVSPost2010PropOp55
 70
     1
102
RTVSPost2010Prop56
140
1.0
102
RTVSPost2010PropOp56
 70
     1
102
RTVSPost2010Prop57
140
1.0
102
RTVSPost2010PropOp57
 70
     1
  0
XRECORD
  5
180
102
{ACAD_REACTORS
330
17F
102
}
330
17F
100
AcDbXrecord
280
     1
102
RTVSPropertyOp0
 70
     1
102
RTVSPropertyOp1
 70
     1
102
RTVSPropertyOp2
 70
     1
102
RTVSPropertyOp3
 70
     1
102
RTVSPropertyOp4
 70
     1
102
RTVSPropertyOp5
 70
     1
102
RTVSPropertyOp6
 70
     1
102
RTVSPropertyOp7
 70
     1
102
RTVSPropertyOp8
 70
     1
102
RTVSPropertyOp9
 70
     1
102
RTVSPropertyOp10
 70
     1
102
RTVSPropertyOp11
 70
     1
102
RTVSPropertyOp12
 70
     1
102
RTVSPropertyOp13
 70
     1
102
RTVSPropertyOp14
 70
     1
102
RTVSPropertyOp15
 70
     1
102
RTVSPropertyOp16
 70
     1
102
RTVSPropertyOp17
 70
     1
102
RTVSPropertyOp18
 70
     1
102
RTVSPropertyOp19
 70
     1
102
RTVSPropertyOp20
 70
     1
102
RTVSPropertyOp21
 70
     1
102
RTVSPropertyOp22
 70
     1
102
RTVSPropertyOp23
 70
     1
102
RTVSPropertyOp24
 70
     1
102
RTVSPropertyOp25
 70
     1
102
RTVSPropertyOp26
 70
     1
102
RTVSPropertyOp27
 70
     1
102
RTVSPropertyOp28
 70
     1
102
RTVSPropertyOp29
 70
     1
102
RTVSPropertyOp30
 70
     1
102
RTVSPropertyOp31
 70
     1
102
RTVSPropertyOp32
 70
     1
102
RTVSPropertyOp33
 70
     1
102
RTVSPropertyOp34
 70
     1
102
RTVSPropertyOp35
 70
     1
102
RTVSPropertyOp36
 70
     1
102
RTVSPropertyOp37
 70
     1
102
RTVSPropertyOp38
 70
     1
102
RTVSPropertyOp39
 70
     1
102
RTVSPropertyOp40
 70
     1
102
RTVSPropertyOp41
 70
     1
102
RTVSPropertyOp42
 70
     1
102
RTVSPropertyOp43
 70
     1
102
RTVSPropertyOp44
 70
     1
102
RTVSPropertyOp45
 70
     1
102
RTVSPropertyOp46
 70
     1
102
RTVSPropertyOp47
 70
     1
102
RTVSPropertyOp48
 70
     1
102
RTVSPropertyOp49
 70
     1
102
RTVSPropertyOp50
 70
     1
102
RTVSPropertyOp51
 70
     0
102
RTVSPropertyOp52
 70
     0
102
RTVSPropertyOp53
 70
     1
102
RTVSPropertyOp54
 70
     1
102
RTVSPropertyOp55
 70
     1
102
RTVSPropertyOp56
 70
     1
102
RTVSPropertyOp57
 70
     1
102
RTVSPost2010Prop28
280
     0
102
RTVSPost2010PropOp28
 70
     1
102
RTVSPost2010Prop29
280
     1
102
RTVSPost2010PropOp29
 70
     1
102
RTVSPost2010Prop30
280
     1
102
RTVSPost2010PropOp30
 70
     1
102
RTVSPost2010Prop31
280
     0
102
RTVSPost2010PropOp31
 70
     1
102
RTVSPost2010Prop32
280
     0
102
RTVSPost2010PropOp32
 70
     1
102
RTVSPost2010Prop33
280
     0
102
RTVSPost2010PropOp33
 70
     1
102
RTVSPost2010Prop34
280
     0
102
RTVSPost2010PropOp34
 70
     1
102
RTVSPost2010Prop35
280
     0
102
RTVSPost2010PropOp35
 70
     1
102
RTVSPost2010Prop36
280
     0
102
RTVSPost2010PropOp36
 70
     1
102
RTVSPost2010Prop37
 90
       50
102
RTVSPost2010PropOp37
 70
     1
102
RTVSPost2010Prop38
140
0.0
102
RTVSPost2010PropOp38
 70
     1
102
RTVSPost2010Prop39
140
1.0
102
RTVSPost2010PropOp39
 70
     1
102
RTVSPost2010Prop40
 90
        0
102
RTVSPost2010PropOp40
 70
     1
102
RTVSPost2010Prop41ColorIndex
 90
       18
102
RTVSPost2010Prop41ColorRGB
 90
        0
102
RTVSPost2010PropOp41
 70
     1
102
RTVSPost2010Prop42
 90
       50
102
RTVSPost2010PropOp42
 70
     1
102
RTVSPost2010Prop43
 90
        3
102
RTVSPost2010PropOp43
 70
     1
102
RTVSPost2010Prop44ColorIndex
 90
        5
102
RTVSPost2010Prop44ColorRGB
 90
      255
102
RTVSPost2010PropOp44
 70
     1
102
RTVSPost2010Prop45
280
     0
102
RTVSPost2010PropOp45
 70
     1
102
RTVSPost2010Prop46
 90
       50
102
RTVSPost2010PropOp46
 70
     1
102
RTVSPost2010Prop47
 90
       50
102
RTVSPost2010PropOp47
 70
     1
102
RTVSPost2010Prop48
 90
       50
102
RTVSPost2010PropOp48
 70
     1
102
RTVSPost2010Prop49
280
     0
102
RTVSPost2010PropOp49
 70
     1
102
RTVSPost2010Prop50
 90
       50
102
RTVSPost2010PropOp50
 70
     1
102
RTVSPost2010Prop51ColorIndex
 90
      256
102
RTVSPost2010Prop51ColorRGB
 90
-16777216
102
RTVSPost2010PropOp51
 70
     0
102
RTVSPost2010Prop52
140
1.0
102
RTVSPost2010PropOp52
 70
     0
102
RTVSPost2010Prop53
 90
        2
102
RTVSPost2010PropOp53
 70
     1
102
RTVSPost2010Prop54
  1
strokes_ogs.tif
102
RTVSPost2010PropOp54
 70
     1
102
RTVSPost2010Prop55
280
     0
102
RTVSPost2010PropOp55
 70
     1
102
RTVSPost2010Prop56
140
1.0
102
RTVSPost2010PropOp56
 70
     1
102
RTVSPost2010Prop57
140
1.0
102
RTVSPost2010PropOp57
 70
     1
  0
XRECORD
  5
194
102
{ACAD_REACTORS
330
193
102
}
330
193
100
AcDbXrecord
280
     1
102
RTVSPropertyOp0
 70
     0
102
RTVSPropertyOp1
 70
     0
102
RTVSPropertyOp2
 70
     0
102
RTVSPropertyOp3
 70
     0
102
RTVSPropertyOp4
 70
     0
102
RTVSPropertyOp5
 70
     0
102
RTVSPropertyOp6
 70
     0
102
RTVSPropertyOp7
 70
     0
102
RTVSPropertyOp8
 70
     0
102
RTVSPropertyOp9
 70
     0
102
RTVSPropertyOp10
 70
     0
102
RTVSPropertyOp11
 70
     0
102
RTVSPropertyOp12
 70
     0
102
RTVSPropertyOp13
 70
     0
102
RTVSPropertyOp14
 70
     2
102
RTVSPropertyOp15
 70
     0
102
RTVSPropertyOp16
 70
     0
102
RTVSPropertyOp17
 70
     0
102
RTVSPropertyOp18
 70
     0
102
RTVSPropertyOp19
 70
     0
102
RTVSPropertyOp20
 70
     0
102
RTVSPropertyOp21
 70
     0
102
RTVSPropertyOp22
 70
     0
102
RTVSPropertyOp23
 70
     0
102
RTVSPropertyOp24
 70
     0
102
RTVSPropertyOp25
 70
     0
102
RTVSPropertyOp26
 70
     0
102
RTVSPropertyOp27
 70
     0
102
RTVSPropertyOp28
 70
     0
102
RTVSPropertyOp29
 70
     0
102
RTVSPropertyOp30
 70
     0
102
RTVSPropertyOp31
 70
     0
102
RTVSPropertyOp32
 70
     0
102
RTVSPropertyOp33
 70
     0
102
RTVSPropertyOp34
 70
     0
102
RTVSPropertyOp35
 70
     0
102
RTVSPropertyOp36
 70
     0
102
RTVSPropertyOp37
 70
     0
102
RTVSPropertyOp38
 70
     0
102
RTVSPropertyOp39
 70
     0
102
RTVSPropertyOp40
 70
     0
102
RTVSPropertyOp41
 70
     0
102
RTVSPropertyOp42
 70
     0
102
RTVSPropertyOp43
 70
     0
102
RTVSPropertyOp44
 70
     0
102
RTVSPropertyOp45
 70
     0
102
RTVSPropertyOp46
 70
     0
102
RTVSPropertyOp47
 70
     0
102
RTVSPropertyOp48
 70
     0
102
RTVSPropertyOp49
 70
     0
102
RTVSPropertyOp50
 70
     0
102
RTVSPropertyOp51
 70
     0
102
RTVSPropertyOp52
 70
     0
102
RTVSPropertyOp53
 70
     0
102
RTVSPropertyOp54
 70
     0
102
RTVSPropertyOp55
 70
     0
102
RTVSPropertyOp56
 70
     0
102
RTVSPropertyOp57
 70
     0
102
RTVSPost2010Prop28
280
     0
102
RTVSPost2010PropOp28
 70
     0
102
RTVSPost2010Prop29
280
     1
102
RTVSPost2010PropOp29
 70
     0
102
RTVSPost2010Prop30
280
     1
102
RTVSPost2010PropOp30
 70
     0
102
RTVSPost2010Prop31
280
     0
102
RTVSPost2010PropOp31
 70
     0
102
RTVSPost2010Prop32
280
     0
102
RTVSPost2010PropOp32
 70
     0
102
RTVSPost2010Prop33
280
     0
102
RTVSPost2010PropOp33
 70
     0
102
RTVSPost2010Prop34
280
     0
102
RTVSPost2010PropOp34
 70
     0
102
RTVSPost2010Prop35
280
     0
102
RTVSPost2010PropOp35
 70
     0
102
RTVSPost2010Prop36
280
     0
102
RTVSPost2010PropOp36
 70
     0
102
RTVSPost2010Prop37
 90
       50
102
RTVSPost2010PropOp37
 70
     0
102
RTVSPost2010Prop38
140
0.0
102
RTVSPost2010PropOp38
 70
     0
102
RTVSPost2010Prop39
140
1.0
102
RTVSPost2010PropOp39
 70
     0
102
RTVSPost2010Prop40
 90
        0
102
RTVSPost2010PropOp40
 70
     0
102
RTVSPost2010Prop41ColorIndex
 90
       18
102
RTVSPost2010Prop41ColorRGB
 90
        0
102
RTVSPost2010PropOp41
 70
     0
102
RTVSPost2010Prop42
 90
       50
102
RTVSPost2010PropOp42
 70
     0
102
RTVSPost2010Prop43
 90
        3
102
RTVSPost2010PropOp43
 70
     0
102
RTVSPost2010Prop44ColorIndex
 90
        5
102
RTVSPost2010Prop44ColorRGB
 90
      255
102
RTVSPost2010PropOp44
 70
     0
102
RTVSPost2010Prop45
280
     0
102
RTVSPost2010PropOp45
 70
     0
102
RTVSPost2010Prop46
 90
       50
102
RTVSPost2010PropOp46
 70
     0
102
RTVSPost2010Prop47
 90
       50
102
RTVSPost2010PropOp47
 70
     0
102
RTVSPost2010Prop48
 90
       50
102
RTVSPost2010PropOp48
 70
     0
102
RTVSPost2010Prop49
280
     0
102
RTVSPost2010PropOp49
 70
     0
102
RTVSPost2010Prop50
 90
       50
102
RTVSPost2010PropOp50
 70
     0
102
RTVSPost2010Prop51ColorIndex
 90
      256
102
RTVSPost2010Prop51ColorRGB
 90
-16777216
102
RTVSPost2010PropOp51
 70
     0
102
RTVSPost2010Prop52
140
1.0
102
RTVSPost2010PropOp52
 70
     0
102
RTVSPost2010Prop53
 90
        2
102
RTVSPost2010PropOp53
 70
     0
102
RTVSPost2010Prop54
  1
strokes_ogs.tif
102
RTVSPost2010PropOp54
 70
     0
102
RTVSPost2010Prop55
280
     0
102
RTVSPost2010PropOp55
 70
     0
102
RTVSPost2010Prop56
140
1.0
102
RTVSPost2010PropOp56
 70
     0
102
RTVSPost2010Prop57
140
1.0
102
RTVSPost2010PropOp57
 70
     0
  0
XRECORD
  5
18E
102
{ACAD_REACTORS
330
18D
102
}
330
18D
100
AcDbXrecord
280
     1
102
RTVSPropertyOp0
 70
     1
102
RTVSPropertyOp1
 70
     1
102
RTVSPropertyOp2
 70
     1
102
RTVSPropertyOp3
 70
     1
102
RTVSPropertyOp4
 70
     1
102
RTVSPropertyOp5
 70
     1
102
RTVSPropertyOp6
 70
     1
102
RTVSPropertyOp7
 70
     1
102
RTVSPropertyOp8
 70
     1
102
RTVSPropertyOp9
 70
     1
102
RTVSPropertyOp10
 70
     1
102
RTVSPropertyOp11
 70
     1
102
RTVSPropertyOp12
 70
     1
102
RTVSPropertyOp13
 70
     1
102
RTVSPropertyOp14
 70
     1
102
RTVSPropertyOp15
 70
     1
102
RTVSPropertyOp16
 70
     1
102
RTVSPropertyOp17
 70
     1
102
RTVSPropertyOp18
 70
     1
102
RTVSPropertyOp19
 70
     1
102
RTVSPropertyOp20
 70
     1
102
RTVSPropertyOp21
 70
     1
102
RTVSPropertyOp22
 70
     1
102
RTVSPropertyOp23
 70
     1
102
RTVSPropertyOp24
 70
     1
102
RTVSPropertyOp25
 70
     1
102
RTVSPropertyOp26
 70
     1
102
RTVSPropertyOp27
 70
     1
102
RTVSPropertyOp28
 70
     1
102
RTVSPropertyOp29
 70
     1
102
RTVSPropertyOp30
 70
     1
102
RTVSPropertyOp31
 70
     1
102
RTVSPropertyOp32
 70
     1
102
RTVSPropertyOp33
 70
     1
102
RTVSPropertyOp34
 70
     1
102
RTVSPropertyOp35
 70
     1
102
RTVSPropertyOp36
 70
     1
102
RTVSPropertyOp37
 70
     1
102
RTVSPropertyOp38
 70
     1
102
RTVSPropertyOp39
 70
     1
102
RTVSPropertyOp40
 70
     1
102
RTVSPropertyOp41
 70
     1
102
RTVSPropertyOp42
 70
     1
102
RTVSPropertyOp43
 70
     1
102
RTVSPropertyOp44
 70
     1
102
RTVSPropertyOp45
 70
     1
102
RTVSPropertyOp46
 70
     1
102
RTVSPropertyOp47
 70
     1
102
RTVSPropertyOp48
 70
     1
102
RTVSPropertyOp49
 70
     1
102
RTVSPropertyOp50
 70
     1
102
RTVSPropertyOp51
 70
     0
102
RTVSPropertyOp52
 70
     0
102
RTVSPropertyOp53
 70
     1
102
RTVSPropertyOp54
 70
     1
102
RTVSPropertyOp55
 70
     1
102
RTVSPropertyOp56
 70
     1
102
RTVSPropertyOp57
 70
     1
102
RTVSPost2010Prop28
280
     0
102
RTVSPost2010PropOp28
 70
     1
102
RTVSPost2010Prop29
280
     1
102
RTVSPost2010PropOp29
 70
     1
102
RTVSPost2010Prop30
280
     1
102
RTVSPost2010PropOp30
 70
     1
102
RTVSPost2010Prop31
280
     0
102
RTVSPost2010PropOp31
 70
     1
102
RTVSPost2010Prop32
280
     0
102
RTVSPost2010PropOp32
 70
     1
102
RTVSPost2010Prop33
280
     0
102
RTVSPost2010PropOp33
 70
     1
102
RTVSPost2010Prop34
280
     0
102
RTVSPost2010PropOp34
 70
     1
102
RTVSPost2010Prop35
280
     0
102
RTVSPost2010PropOp35
 70
     1
102
RTVSPost2010Prop36
280
     0
102
RTVSPost2010PropOp36
 70
     1
102
RTVSPost2010Prop37
 90
       50
102
RTVSPost2010PropOp37
 70
     1
102
RTVSPost2010Prop38
140
0.0
102
RTVSPost2010PropOp38
 70
     1
102
RTVSPost2010Prop39
140
1.0
102
RTVSPost2010PropOp39
 70
     1
102
RTVSPost2010Prop40
 90
        0
102
RTVSPost2010PropOp40
 70
     1
102
RTVSPost2010Prop41ColorIndex
 90
       18
102
RTVSPost2010Prop41ColorRGB
 90
        0
102
RTVSPost2010PropOp41
 70
     1
102
RTVSPost2010Prop42
 90
       50
102
RTVSPost2010PropOp42
 70
     1
102
RTVSPost2010Prop43
 90
        3
102
RTVSPost2010PropOp43
 70
     1
102
RTVSPost2010Prop44ColorIndex
 90
        5
102
RTVSPost2010Prop44ColorRGB
 90
      255
102
RTVSPost2010PropOp44
 70
     1
102
RTVSPost2010Prop45
280
     0
102
RTVSPost2010PropOp45
 70
     1
102
RTVSPost2010Prop46
 90
       50
102
RTVSPost2010PropOp46
 70
     1
102
RTVSPost2010Prop47
 90
       50
102
RTVSPost2010PropOp47
 70
     1
102
RTVSPost2010Prop48
 90
       50
102
RTVSPost2010PropOp48
 70
     1
102
RTVSPost2010Prop49
280
     0
102
RTVSPost2010PropOp49
 70
     1
102
RTVSPost2010Prop50
 90
       50
102
RTVSPost2010PropOp50
 70
     1
102
RTVSPost2010Prop51ColorIndex
 90
      256
102
RTVSPost2010Prop51ColorRGB
 90
-16777216
102
RTVSPost2010PropOp51
 70
     0
102
RTVSPost2010Prop52
140
1.0
102
RTVSPost2010PropOp52
 70
     0
102
RTVSPost2010Prop53
 90
        2
102
RTVSPost2010PropOp53
 70
     1
102
RTVSPost2010Prop54
  1
strokes_ogs.tif
102
RTVSPost2010PropOp54
 70
     1
102
RTVSPost2010Prop55
280
     0
102
RTVSPost2010PropOp55
 70
     1
102
RTVSPost2010Prop56
140
1.0
102
RTVSPost2010PropOp56
 70
     1
102
RTVSPost2010Prop57
140
1.0
102
RTVSPost2010PropOp57
 70
     1
  0
XRECORD
  5
196
102
{ACAD_REACTORS
330
195
102
}
330
195
100
AcDbXrecord
280
     1
102
RTVSPropertyOp0
 70
     0
102
RTVSPropertyOp1
 70
     0
102
RTVSPropertyOp2
 70
     0
102
RTVSPropertyOp3
 70
     0
102
RTVSPropertyOp4
 70
     0
102
RTVSPropertyOp5
 70
     0
102
RTVSPropertyOp6
 70
     0
102
RTVSPropertyOp7
 70
     0
102
RTVSPropertyOp8
 70
     0
102
RTVSPropertyOp9
 70
     0
102
RTVSPropertyOp10
 70
     0
102
RTVSPropertyOp11
 70
     0
102
RTVSPropertyOp12
 70
     0
102
RTVSPropertyOp13
 70
     0
102
RTVSPropertyOp14
 70
     2
102
RTVSPropertyOp15
 70
     0
102
RTVSPropertyOp16
 70
     0
102
RTVSPropertyOp17
 70
     0
102
RTVSPropertyOp18
 70
     0
102
RTVSPropertyOp19
 70
     0
102
RTVSPropertyOp20
 70
     0
102
RTVSPropertyOp21
 70
     0
102
RTVSPropertyOp22
 70
     0
102
RTVSPropertyOp23
 70
     0
102
RTVSPropertyOp24
 70
     0
102
RTVSPropertyOp25
 70
     0
102
RTVSPropertyOp26
 70
     0
102
RTVSPropertyOp27
 70
     0
102
RTVSPropertyOp28
 70
     0
102
RTVSPropertyOp29
 70
     0
102
RTVSPropertyOp30
 70
     0
102
RTVSPropertyOp31
 70
     0
102
RTVSPropertyOp32
 70
     0
102
RTVSPropertyOp33
 70
     0
102
RTVSPropertyOp34
 70
     0
102
RTVSPropertyOp35
 70
     0
102
RTVSPropertyOp36
 70
     0
102
RTVSPropertyOp37
 70
     0
102
RTVSPropertyOp38
 70
     0
102
RTVSPropertyOp39
 70
     0
102
RTVSPropertyOp40
 70
     0
102
RTVSPropertyOp41
 70
     0
102
RTVSPropertyOp42
 70
     0
102
RTVSPropertyOp43
 70
     0
102
RTVSPropertyOp44
 70
     0
102
RTVSPropertyOp45
 70
     0
102
RTVSPropertyOp46
 70
     0
102
RTVSPropertyOp47
 70
     0
102
RTVSPropertyOp48
 70
     0
102
RTVSPropertyOp49
 70
     0
102
RTVSPropertyOp50
 70
     0
102
RTVSPropertyOp51
 70
     0
102
RTVSPropertyOp52
 70
     0
102
RTVSPropertyOp53
 70
     0
102
RTVSPropertyOp54
 70
     0
102
RTVSPropertyOp55
 70
     0
102
RTVSPropertyOp56
 70
     0
102
RTVSPropertyOp57
 70
     0
102
RTVSPost2010Prop28
280
     0
102
RTVSPost2010PropOp28
 70
     0
102
RTVSPost2010Prop29
280
     1
102
RTVSPost2010PropOp29
 70
     0
102
RTVSPost2010Prop30
280
     1
102
RTVSPost2010PropOp30
 70
     0
102
RTVSPost2010Prop31
280
     0
102
RTVSPost2010PropOp31
 70
     0
102
RTVSPost2010Prop32
280
     0
102
RTVSPost2010PropOp32
 70
     0
102
RTVSPost2010Prop33
280
     0
102
RTVSPost2010PropOp33
 70
     0
102
RTVSPost2010Prop34
280
     0
102
RTVSPost2010PropOp34
 70
     0
102
RTVSPost2010Prop35
280
     0
102
RTVSPost2010PropOp35
 70
     0
102
RTVSPost2010Prop36
280
     0
102
RTVSPost2010PropOp36
 70
     0
102
RTVSPost2010Prop37
 90
       50
102
RTVSPost2010PropOp37
 70
     0
102
RTVSPost2010Prop38
140
0.0
102
RTVSPost2010PropOp38
 70
     0
102
RTVSPost2010Prop39
140
1.0
102
RTVSPost2010PropOp39
 70
     0
102
RTVSPost2010Prop40
 90
        0
102
RTVSPost2010PropOp40
 70
     0
102
RTVSPost2010Prop41ColorIndex
 90
       18
102
RTVSPost2010Prop41ColorRGB
 90
        0
102
RTVSPost2010PropOp41
 70
     0
102
RTVSPost2010Prop42
 90
       50
102
RTVSPost2010PropOp42
 70
     0
102
RTVSPost2010Prop43
 90
        3
102
RTVSPost2010PropOp43
 70
     0
102
RTVSPost2010Prop44ColorIndex
 90
        5
102
RTVSPost2010Prop44ColorRGB
 90
      255
102
RTVSPost2010PropOp44
 70
     0
102
RTVSPost2010Prop45
280
     0
102
RTVSPost2010PropOp45
 70
     0
102
RTVSPost2010Prop46
 90
       50
102
RTVSPost2010PropOp46
 70
     0
102
RTVSPost2010Prop47
 90
       50
102
RTVSPost2010PropOp47
 70
     0
102
RTVSPost2010Prop48
 90
       50
102
RTVSPost2010PropOp48
 70
     0
102
RTVSPost2010Prop49
280
     0
102
RTVSPost2010PropOp49
 70
     0
102
RTVSPost2010Prop50
 90
       50
102
RTVSPost2010PropOp50
 70
     0
102
RTVSPost2010Prop51ColorIndex
 90
      256
102
RTVSPost2010Prop51ColorRGB
 90
-16777216
102
RTVSPost2010PropOp51
 70
     0
102
RTVSPost2010Prop52
140
1.0
102
RTVSPost2010PropOp52
 70
     0
102
RTVSPost2010Prop53
 90
        2
102
RTVSPost2010PropOp53
 70
     0
102
RTVSPost2010Prop54
  1
strokes_ogs.tif
102
RTVSPost2010PropOp54
 70
     0
102
RTVSPost2010Prop55
280
     0
102
RTVSPost2010PropOp55
 70
     0
102
RTVSPost2010Prop56
140
1.0
102
RTVSPost2010PropOp56
 70
     0
102
RTVSPost2010Prop57
140
1.0
102
RTVSPost2010PropOp57
 70
     0
  0
XRECORD
  5
184
102
{ACAD_REACTORS
330
183
102
}
330
183
100
AcDbXrecord
280
     1
102
RTVSPropertyOp0
 70
     1
102
RTVSPropertyOp1
 70
     1
102
RTVSPropertyOp2
 70
     1
102
RTVSPropertyOp3
 70
     1
102
RTVSPropertyOp4
 70
     1
102
RTVSPropertyOp5
 70
     1
102
RTVSPropertyOp6
 70
     1
102
RTVSPropertyOp7
 70
     1
102
RTVSPropertyOp8
 70
     1
102
RTVSPropertyOp9
 70
     1
102
RTVSPropertyOp10
 70
     1
102
RTVSPropertyOp11
 70
     1
102
RTVSPropertyOp12
 70
     1
102
RTVSPropertyOp13
 70
     1
102
RTVSPropertyOp14
 70
     1
102
RTVSPropertyOp15
 70
     1
102
RTVSPropertyOp16
 70
     1
102
RTVSPropertyOp17
 70
     1
102
RTVSPropertyOp18
 70
     1
102
RTVSPropertyOp19
 70
     1
102
RTVSPropertyOp20
 70
     1
102
RTVSPropertyOp21
 70
     1
102
RTVSPropertyOp22
 70
     1
102
RTVSPropertyOp23
 70
     1
102
RTVSPropertyOp24
 70
     1
102
RTVSPropertyOp25
 70
     1
102
RTVSPropertyOp26
 70
     1
102
RTVSPropertyOp27
 70
     1
102
RTVSPropertyOp28
 70
     1
102
RTVSPropertyOp29
 70
     1
102
RTVSPropertyOp30
 70
     1
102
RTVSPropertyOp31
 70
     1
102
RTVSPropertyOp32
 70
     1
102
RTVSPropertyOp33
 70
     1
102
RTVSPropertyOp34
 70
     1
102
RTVSPropertyOp35
 70
     1
102
RTVSPropertyOp36
 70
     1
102
RTVSPropertyOp37
 70
     1
102
RTVSPropertyOp38
 70
     1
102
RTVSPropertyOp39
 70
     1
102
RTVSPropertyOp40
 70
     1
102
RTVSPropertyOp41
 70
     1
102
RTVSPropertyOp42
 70
     1
102
RTVSPropertyOp43
 70
     1
102
RTVSPropertyOp44
 70
     1
102
RTVSPropertyOp45
 70
     1
102
RTVSPropertyOp46
 70
     1
102
RTVSPropertyOp47
 70
     1
102
RTVSPropertyOp48
 70
     1
102
RTVSPropertyOp49
 70
     1
102
RTVSPropertyOp50
 70
     1
102
RTVSPropertyOp51
 70
     0
102
RTVSPropertyOp52
 70
     0
102
RTVSPropertyOp53
 70
     1
102
RTVSPropertyOp54
 70
     1
102
RTVSPropertyOp55
 70
     1
102
RTVSPropertyOp56
 70
     1
102
RTVSPropertyOp57
 70
     1
102
RTVSPost2010Prop28
280
     0
102
RTVSPost2010PropOp28
 70
     1
102
RTVSPost2010Prop29
280
     1
102
RTVSPost2010PropOp29
 70
     1
102
RTVSPost2010Prop30
280
     1
102
RTVSPost2010PropOp30
 70
     1
102
RTVSPost2010Prop31
280
     0
102
RTVSPost2010PropOp31
 70
     1
102
RTVSPost2010Prop32
280
     0
102
RTVSPost2010PropOp32
 70
     1
102
RTVSPost2010Prop33
280
     0
102
RTVSPost2010PropOp33
 70
     1
102
RTVSPost2010Prop34
280
     0
102
RTVSPost2010PropOp34
 70
     1
102
RTVSPost2010Prop35
280
     0
102
RTVSPost2010PropOp35
 70
     1
102
RTVSPost2010Prop36
280
     0
102
RTVSPost2010PropOp36
 70
     1
102
RTVSPost2010Prop37
 90
       50
102
RTVSPost2010PropOp37
 70
     1
102
RTVSPost2010Prop38
140
0.0
102
RTVSPost2010PropOp38
 70
     1
102
RTVSPost2010Prop39
140
1.0
102
RTVSPost2010PropOp39
 70
     1
102
RTVSPost2010Prop40
 90
        0
102
RTVSPost2010PropOp40
 70
     1
102
RTVSPost2010Prop41ColorIndex
 90
       18
102
RTVSPost2010Prop41ColorRGB
 90
        0
102
RTVSPost2010PropOp41
 70
     1
102
RTVSPost2010Prop42
 90
       50
102
RTVSPost2010PropOp42
 70
     1
102
RTVSPost2010Prop43
 90
        3
102
RTVSPost2010PropOp43
 70
     1
102
RTVSPost2010Prop44ColorIndex
 90
        5
102
RTVSPost2010Prop44ColorRGB
 90
      255
102
RTVSPost2010PropOp44
 70
     1
102
RTVSPost2010Prop45
280
     0
102
RTVSPost2010PropOp45
 70
     1
102
RTVSPost2010Prop46
 90
       50
102
RTVSPost2010PropOp46
 70
     1
102
RTVSPost2010Prop47
 90
       50
102
RTVSPost2010PropOp47
 70
     1
102
RTVSPost2010Prop48
 90
       50
102
RTVSPost2010PropOp48
 70
     1
102
RTVSPost2010Prop49
280
     0
102
RTVSPost2010PropOp49
 70
     1
102
RTVSPost2010Prop50
 90
       50
102
RTVSPost2010PropOp50
 70
     1
102
RTVSPost2010Prop51ColorIndex
 90
      256
102
RTVSPost2010Prop51ColorRGB
 90
-16777216
102
RTVSPost2010PropOp51
 70
     0
102
RTVSPost2010Prop52
140
1.0
102
RTVSPost2010PropOp52
 70
     0
102
RTVSPost2010Prop53
 90
        2
102
RTVSPost2010PropOp53
 70
     1
102
RTVSPost2010Prop54
  1
strokes_ogs.tif
102
RTVSPost2010PropOp54
 70
     1
102
RTVSPost2010Prop55
280
     0
102
RTVSPost2010PropOp55
 70
     1
102
RTVSPost2010Prop56
140
1.0
102
RTVSPost2010PropOp56
 70
     1
102
RTVSPost2010Prop57
140
1.0
102
RTVSPost2010PropOp57
 70
     1
  0
XRECORD
  5
1A2
102
{ACAD_REACTORS
330
1A1
102
}
330
1A1
100
AcDbXrecord
280
     1
102
RTVSPropertyOp0
 70
     1
102
RTVSPropertyOp1
 70
     1
102
RTVSPropertyOp2
 70
     1
102
RTVSPropertyOp3
 70
     1
102
RTVSPropertyOp4
 70
     1
102
RTVSPropertyOp5
 70
     1
102
RTVSPropertyOp6
 70
     1
102
RTVSPropertyOp7
 70
     1
102
RTVSPropertyOp8
 70
     1
102
RTVSPropertyOp9
 70
     1
102
RTVSPropertyOp10
 70
     1
102
RTVSPropertyOp11
 70
     1
102
RTVSPropertyOp12
 70
     1
102
RTVSPropertyOp13
 70
     1
102
RTVSPropertyOp14
 70
     1
102
RTVSPropertyOp15
 70
     1
102
RTVSPropertyOp16
 70
     1
102
RTVSPropertyOp17
 70
     1
102
RTVSPropertyOp18
 70
     1
102
RTVSPropertyOp19
 70
     1
102
RTVSPropertyOp20
 70
     1
102
RTVSPropertyOp21
 70
     1
102
RTVSPropertyOp22
 70
     1
102
RTVSPropertyOp23
 70
     1
102
RTVSPropertyOp24
 70
     1
102
RTVSPropertyOp25
 70
     1
102
RTVSPropertyOp26
 70
     1
102
RTVSPropertyOp27
 70
     1
102
RTVSPropertyOp28
 70
     1
102
RTVSPropertyOp29
 70
     1
102
RTVSPropertyOp30
 70
     1
102
RTVSPropertyOp31
 70
     1
102
RTVSPropertyOp32
 70
     1
102
RTVSPropertyOp33
 70
     1
102
RTVSPropertyOp34
 70
     1
102
RTVSPropertyOp35
 70
     1
102
RTVSPropertyOp36
 70
     1
102
RTVSPropertyOp37
 70
     1
102
RTVSPropertyOp38
 70
     1
102
RTVSPropertyOp39
 70
     1
102
RTVSPropertyOp40
 70
     1
102
RTVSPropertyOp41
 70
     1
102
RTVSPropertyOp42
 70
     1
102
RTVSPropertyOp43
 70
     1
102
RTVSPropertyOp44
 70
     1
102
RTVSPropertyOp45
 70
     1
102
RTVSPropertyOp46
 70
     1
102
RTVSPropertyOp47
 70
     1
102
RTVSPropertyOp48
 70
     1
102
RTVSPropertyOp49
 70
     1
102
RTVSPropertyOp50
 70
     1
102
RTVSPropertyOp51
 70
     0
102
RTVSPropertyOp52
 70
     0
102
RTVSPropertyOp53
 70
     1
102
RTVSPropertyOp54
 70
     1
102
RTVSPropertyOp55
 70
     1
102
RTVSPropertyOp56
 70
     1
102
RTVSPropertyOp57
 70
     1
102
RTVSPost2010Prop28
280
     0
102
RTVSPost2010PropOp28
 70
     1
102
RTVSPost2010Prop29
280
     1
102
RTVSPost2010PropOp29
 70
     1
102
RTVSPost2010Prop30
280
     1
102
RTVSPost2010PropOp30
 70
     1
102
RTVSPost2010Prop31
280
     0
102
RTVSPost2010PropOp31
 70
     1
102
RTVSPost2010Prop32
280
     0
102
RTVSPost2010PropOp32
 70
     1
102
RTVSPost2010Prop33
280
     0
102
RTVSPost2010PropOp33
 70
     1
102
RTVSPost2010Prop34
280
     0
102
RTVSPost2010PropOp34
 70
     1
102
RTVSPost2010Prop35
280
     0
102
RTVSPost2010PropOp35
 70
     1
102
RTVSPost2010Prop36
280
     0
102
RTVSPost2010PropOp36
 70
     1
102
RTVSPost2010Prop37
 90
       50
102
RTVSPost2010PropOp37
 70
     1
102
RTVSPost2010Prop38
140
0.0
102
RTVSPost2010PropOp38
 70
     1
102
RTVSPost2010Prop39
140
1.0
102
RTVSPost2010PropOp39
 70
     1
102
RTVSPost2010Prop40
 90
        0
102
RTVSPost2010PropOp40
 70
     1
102
RTVSPost2010Prop41ColorIndex
 90
       18
102
RTVSPost2010Prop41ColorRGB
 90
        0
102
RTVSPost2010PropOp41
 70
     1
102
RTVSPost2010Prop42
 90
       50
102
RTVSPost2010PropOp42
 70
     1
102
RTVSPost2010Prop43
 90
        3
102
RTVSPost2010PropOp43
 70
     1
102
RTVSPost2010Prop44ColorIndex
 90
        5
102
RTVSPost2010Prop44ColorRGB
 90
      255
102
RTVSPost2010PropOp44
 70
     1
102
RTVSPost2010Prop45
280
     0
102
RTVSPost2010PropOp45
 70
     1
102
RTVSPost2010Prop46
 90
       50
102
RTVSPost2010PropOp46
 70
     1
102
RTVSPost2010Prop47
 90
       50
102
RTVSPost2010PropOp47
 70
     1
102
RTVSPost2010Prop48
 90
       50
102
RTVSPost2010PropOp48
 70
     1
102
RTVSPost2010Prop49
280
     0
102
RTVSPost2010PropOp49
 70
     1
102
RTVSPost2010Prop50
 90
       50
102
RTVSPost2010PropOp50
 70
     1
102
RTVSPost2010Prop51ColorIndex
 90
      256
102
RTVSPost2010Prop51ColorRGB
 90
-16777216
102
RTVSPost2010PropOp51
 70
     0
102
RTVSPost2010Prop52
140
1.0
102
RTVSPost2010PropOp52
 70
     0
102
RTVSPost2010Prop53
 90
        2
102
RTVSPost2010PropOp53
 70
     1
102
RTVSPost2010Prop54
  1
strokes_ogs.tif
102
RTVSPost2010PropOp54
 70
     1
102
RTVSPost2010Prop55
280
     0
102
RTVSPost2010PropOp55
 70
     1
102
RTVSPost2010Prop56
140
1.0
102
RTVSPost2010PropOp56
 70
     1
102
RTVSPost2010Prop57
140
1.0
102
RTVSPost2010PropOp57
 70
     1
  0
XRECORD
  5
1A0
102
{ACAD_REACTORS
330
19F
102
}
330
19F
100
AcDbXrecord
280
     1
102
RTVSPropertyOp0
 70
     1
102
RTVSPropertyOp1
 70
     1
102
RTVSPropertyOp2
 70
     1
102
RTVSPropertyOp3
 70
     1
102
RTVSPropertyOp4
 70
     1
102
RTVSPropertyOp5
 70
     1
102
RTVSPropertyOp6
 70
     1
102
RTVSPropertyOp7
 70
     1
102
RTVSPropertyOp8
 70
     1
102
RTVSPropertyOp9
 70
     1
102
RTVSPropertyOp10
 70
     1
102
RTVSPropertyOp11
 70
     1
102
RTVSPropertyOp12
 70
     1
102
RTVSPropertyOp13
 70
     1
102
RTVSPropertyOp14
 70
     1
102
RTVSPropertyOp15
 70
     1
102
RTVSPropertyOp16
 70
     1
102
RTVSPropertyOp17
 70
     1
102
RTVSPropertyOp18
 70
     1
102
RTVSPropertyOp19
 70
     1
102
RTVSPropertyOp20
 70
     1
102
RTVSPropertyOp21
 70
     1
102
RTVSPropertyOp22
 70
     1
102
RTVSPropertyOp23
 70
     1
102
RTVSPropertyOp24
 70
     1
102
RTVSPropertyOp25
 70
     1
102
RTVSPropertyOp26
 70
     1
102
RTVSPropertyOp27
 70
     1
102
RTVSPropertyOp28
 70
     1
102
RTVSPropertyOp29
 70
     1
102
RTVSPropertyOp30
 70
     1
102
RTVSPropertyOp31
 70
     1
102
RTVSPropertyOp32
 70
     1
102
RTVSPropertyOp33
 70
     1
102
RTVSPropertyOp34
 70
     1
102
RTVSPropertyOp35
 70
     1
102
RTVSPropertyOp36
 70
     1
102
RTVSPropertyOp37
 70
     1
102
RTVSPropertyOp38
 70
     1
102
RTVSPropertyOp39
 70
     1
102
RTVSPropertyOp40
 70
     1
102
RTVSPropertyOp41
 70
     1
102
RTVSPropertyOp42
 70
     1
102
RTVSPropertyOp43
 70
     1
102
RTVSPropertyOp44
 70
     1
102
RTVSPropertyOp45
 70
     1
102
RTVSPropertyOp46
 70
     1
102
RTVSPropertyOp47
 70
     1
102
RTVSPropertyOp48
 70
     1
102
RTVSPropertyOp49
 70
     1
102
RTVSPropertyOp50
 70
     1
102
RTVSPropertyOp51
 70
     0
102
RTVSPropertyOp52
 70
     0
102
RTVSPropertyOp53
 70
     1
102
RTVSPropertyOp54
 70
     1
102
RTVSPropertyOp55
 70
     1
102
RTVSPropertyOp56
 70
     1
102
RTVSPropertyOp57
 70
     1
102
RTVSPost2010Prop28
280
     0
102
RTVSPost2010PropOp28
 70
     1
102
RTVSPost2010Prop29
280
     1
102
RTVSPost2010PropOp29
 70
     1
102
RTVSPost2010Prop30
280
     1
102
RTVSPost2010PropOp30
 70
     1
102
RTVSPost2010Prop31
280
     0
102
RTVSPost2010PropOp31
 70
     1
102
RTVSPost2010Prop32
280
     0
102
RTVSPost2010PropOp32
 70
     1
102
RTVSPost2010Prop33
280
     0
102
RTVSPost2010PropOp33
 70
     1
102
RTVSPost2010Prop34
280
     0
102
RTVSPost2010PropOp34
 70
     1
102
RTVSPost2010Prop35
280
     0
102
RTVSPost2010PropOp35
 70
     1
102
RTVSPost2010Prop36
280
     0
102
RTVSPost2010PropOp36
 70
     1
102
RTVSPost2010Prop37
 90
       50
102
RTVSPost2010PropOp37
 70
     1
102
RTVSPost2010Prop38
140
0.0
102
RTVSPost2010PropOp38
 70
     1
102
RTVSPost2010Prop39
140
1.0
102
RTVSPost2010PropOp39
 70
     1
102
RTVSPost2010Prop40
 90
        0
102
RTVSPost2010PropOp40
 70
     1
102
RTVSPost2010Prop41ColorIndex
 90
       18
102
RTVSPost2010Prop41ColorRGB
 90
        0
102
RTVSPost2010PropOp41
 70
     1
102
RTVSPost2010Prop42
 90
       50
102
RTVSPost2010PropOp42
 70
     1
102
RTVSPost2010Prop43
 90
        3
102
RTVSPost2010PropOp43
 70
     1
102
RTVSPost2010Prop44ColorIndex
 90
        5
102
RTVSPost2010Prop44ColorRGB
 90
      255
102
RTVSPost2010PropOp44
 70
     1
102
RTVSPost2010Prop45
280
     0
102
RTVSPost2010PropOp45
 70
     1
102
RTVSPost2010Prop46
 90
       50
102
RTVSPost2010PropOp46
 70
     1
102
RTVSPost2010Prop47
 90
       50
102
RTVSPost2010PropOp47
 70
     1
102
RTVSPost2010Prop48
 90
       50
102
RTVSPost2010PropOp48
 70
     1
102
RTVSPost2010Prop49
280
     0
102
RTVSPost2010PropOp49
 70
     1
102
RTVSPost2010Prop50
 90
       50
102
RTVSPost2010PropOp50
 70
     1
102
RTVSPost2010Prop51ColorIndex
 90
      256
102
RTVSPost2010Prop51ColorRGB
 90
-16777216
102
RTVSPost2010PropOp51
 70
     0
102
RTVSPost2010Prop52
140
1.0
102
RTVSPost2010PropOp52
 70
     0
102
RTVSPost2010Prop53
 90
        2
102
RTVSPost2010PropOp53
 70
     1
102
RTVSPost2010Prop54
  1
strokes_ogs.tif
102
RTVSPost2010PropOp54
 70
     1
102
RTVSPost2010Prop55
280
     0
102
RTVSPost2010PropOp55
 70
     1
102
RTVSPost2010Prop56
140
1.0
102
RTVSPost2010PropOp56
 70
     1
102
RTVSPost2010Prop57
140
1.0
102
RTVSPost2010PropOp57
 70
     1
  0
XRECORD
  5
19A
102
{ACAD_REACTORS
330
199
102
}
330
199
100
AcDbXrecord
280
     1
102
RTVSPropertyOp0
 70
     1
102
RTVSPropertyOp1
 70
     1
102
RTVSPropertyOp2
 70
     1
102
RTVSPropertyOp3
 70
     1
102
RTVSPropertyOp4
 70
     1
102
RTVSPropertyOp5
 70
     1
102
RTVSPropertyOp6
 70
     1
102
RTVSPropertyOp7
 70
     1
102
RTVSPropertyOp8
 70
     1
102
RTVSPropertyOp9
 70
     1
102
RTVSPropertyOp10
 70
     1
102
RTVSPropertyOp11
 70
     1
102
RTVSPropertyOp12
 70
     1
102
RTVSPropertyOp13
 70
     1
102
RTVSPropertyOp14
 70
     1
102
RTVSPropertyOp15
 70
     1
102
RTVSPropertyOp16
 70
     1
102
RTVSPropertyOp17
 70
     1
102
RTVSPropertyOp18
 70
     1
102
RTVSPropertyOp19
 70
     1
102
RTVSPropertyOp20
 70
     1
102
RTVSPropertyOp21
 70
     1
102
RTVSPropertyOp22
 70
     1
102
RTVSPropertyOp23
 70
     1
102
RTVSPropertyOp24
 70
     1
102
RTVSPropertyOp25
 70
     1
102
RTVSPropertyOp26
 70
     1
102
RTVSPropertyOp27
 70
     1
102
RTVSPropertyOp28
 70
     1
102
RTVSPropertyOp29
 70
     1
102
RTVSPropertyOp30
 70
     1
102
RTVSPropertyOp31
 70
     1
102
RTVSPropertyOp32
 70
     1
102
RTVSPropertyOp33
 70
     1
102
RTVSPropertyOp34
 70
     1
102
RTVSPropertyOp35
 70
     1
102
RTVSPropertyOp36
 70
     1
102
RTVSPropertyOp37
 70
     1
102
RTVSPropertyOp38
 70
     1
102
RTVSPropertyOp39
 70
     1
102
RTVSPropertyOp40
 70
     1
102
RTVSPropertyOp41
 70
     1
102
RTVSPropertyOp42
 70
     1
102
RTVSPropertyOp43
 70
     1
102
RTVSPropertyOp44
 70
     1
102
RTVSPropertyOp45
 70
     1
102
RTVSPropertyOp46
 70
     1
102
RTVSPropertyOp47
 70
     1
102
RTVSPropertyOp48
 70
     1
102
RTVSPropertyOp49
 70
     1
102
RTVSPropertyOp50
 70
     1
102
RTVSPropertyOp51
 70
     0
102
RTVSPropertyOp52
 70
     0
102
RTVSPropertyOp53
 70
     1
102
RTVSPropertyOp54
 70
     1
102
RTVSPropertyOp55
 70
     1
102
RTVSPropertyOp56
 70
     1
102
RTVSPropertyOp57
 70
     1
102
RTVSPost2010Prop28
280
     0
102
RTVSPost2010PropOp28
 70
     1
102
RTVSPost2010Prop29
280
     1
102
RTVSPost2010PropOp29
 70
     1
102
RTVSPost2010Prop30
280
     1
102
RTVSPost2010PropOp30
 70
     1
102
RTVSPost2010Prop31
280
     0
102
RTVSPost2010PropOp31
 70
     1
102
RTVSPost2010Prop32
280
     0
102
RTVSPost2010PropOp32
 70
     1
102
RTVSPost2010Prop33
280
     0
102
RTVSPost2010PropOp33
 70
     1
102
RTVSPost2010Prop34
280
     0
102
RTVSPost2010PropOp34
 70
     1
102
RTVSPost2010Prop35
280
     0
102
RTVSPost2010PropOp35
 70
     1
102
RTVSPost2010Prop36
280
     0
102
RTVSPost2010PropOp36
 70
     1
102
RTVSPost2010Prop37
 90
       50
102
RTVSPost2010PropOp37
 70
     1
102
RTVSPost2010Prop38
140
0.0
102
RTVSPost2010PropOp38
 70
     1
102
RTVSPost2010Prop39
140
1.0
102
RTVSPost2010PropOp39
 70
     1
102
RTVSPost2010Prop40
 90
        0
102
RTVSPost2010PropOp40
 70
     1
102
RTVSPost2010Prop41ColorIndex
 90
       18
102
RTVSPost2010Prop41ColorRGB
 90
        0
102
RTVSPost2010PropOp41
 70
     1
102
RTVSPost2010Prop42
 90
       50
102
RTVSPost2010PropOp42
 70
     1
102
RTVSPost2010Prop43
 90
        3
102
RTVSPost2010PropOp43
 70
     1
102
RTVSPost2010Prop44ColorIndex
 90
        5
102
RTVSPost2010Prop44ColorRGB
 90
      255
102
RTVSPost2010PropOp44
 70
     1
102
RTVSPost2010Prop45
280
     0
102
RTVSPost2010PropOp45
 70
     1
102
RTVSPost2010Prop46
 90
       50
102
RTVSPost2010PropOp46
 70
     1
102
RTVSPost2010Prop47
 90
       50
102
RTVSPost2010PropOp47
 70
     1
102
RTVSPost2010Prop48
 90
       50
102
RTVSPost2010PropOp48
 70
     1
102
RTVSPost2010Prop49
280
     0
102
RTVSPost2010PropOp49
 70
     1
102
RTVSPost2010Prop50
 90
       50
102
RTVSPost2010PropOp50
 70
     1
102
RTVSPost2010Prop51ColorIndex
 90
      256
102
RTVSPost2010Prop51ColorRGB
 90
-16777216
102
RTVSPost2010PropOp51
 70
     0
102
RTVSPost2010Prop52
140
1.0
102
RTVSPost2010PropOp52
 70
     0
102
RTVSPost2010Prop53
 90
        2
102
RTVSPost2010PropOp53
 70
     1
102
RTVSPost2010Prop54
  1
strokes_ogs.tif
102
RTVSPost2010PropOp54
 70
     1
102
RTVSPost2010Prop55
280
     0
102
RTVSPost2010PropOp55
 70
     1
102
RTVSPost2010Prop56
140
1.0
102
RTVSPost2010PropOp56
 70
     1
102
RTVSPost2010Prop57
140
1.0
102
RTVSPost2010PropOp57
 70
     1
  0
XRECORD
  5
19C
102
{ACAD_REACTORS
330
19B
102
}
330
19B
100
AcDbXrecord
280
     1
102
RTVSPropertyOp0
 70
     1
102
RTVSPropertyOp1
 70
     1
102
RTVSPropertyOp2
 70
     1
102
RTVSPropertyOp3
 70
     1
102
RTVSPropertyOp4
 70
     1
102
RTVSPropertyOp5
 70
     1
102
RTVSPropertyOp6
 70
     1
102
RTVSPropertyOp7
 70
     1
102
RTVSPropertyOp8
 70
     1
102
RTVSPropertyOp9
 70
     1
102
RTVSPropertyOp10
 70
     1
102
RTVSPropertyOp11
 70
     1
102
RTVSPropertyOp12
 70
     1
102
RTVSPropertyOp13
 70
     1
102
RTVSPropertyOp14
 70
     1
102
RTVSPropertyOp15
 70
     1
102
RTVSPropertyOp16
 70
     1
102
RTVSPropertyOp17
 70
     1
102
RTVSPropertyOp18
 70
     1
102
RTVSPropertyOp19
 70
     1
102
RTVSPropertyOp20
 70
     1
102
RTVSPropertyOp21
 70
     1
102
RTVSPropertyOp22
 70
     1
102
RTVSPropertyOp23
 70
     1
102
RTVSPropertyOp24
 70
     1
102
RTVSPropertyOp25
 70
     1
102
RTVSPropertyOp26
 70
     1
102
RTVSPropertyOp27
 70
     1
102
RTVSPropertyOp28
 70
     1
102
RTVSPropertyOp29
 70
     1
102
RTVSPropertyOp30
 70
     1
102
RTVSPropertyOp31
 70
     1
102
RTVSPropertyOp32
 70
     1
102
RTVSPropertyOp33
 70
     1
102
RTVSPropertyOp34
 70
     1
102
RTVSPropertyOp35
 70
     1
102
RTVSPropertyOp36
 70
     1
102
RTVSPropertyOp37
 70
     1
102
RTVSPropertyOp38
 70
     1
102
RTVSPropertyOp39
 70
     1
102
RTVSPropertyOp40
 70
     1
102
RTVSPropertyOp41
 70
     1
102
RTVSPropertyOp42
 70
     1
102
RTVSPropertyOp43
 70
     1
102
RTVSPropertyOp44
 70
     1
102
RTVSPropertyOp45
 70
     1
102
RTVSPropertyOp46
 70
     1
102
RTVSPropertyOp47
 70
     1
102
RTVSPropertyOp48
 70
     1
102
RTVSPropertyOp49
 70
     1
102
RTVSPropertyOp50
 70
     1
102
RTVSPropertyOp51
 70
     0
102
RTVSPropertyOp52
 70
     0
102
RTVSPropertyOp53
 70
     1
102
RTVSPropertyOp54
 70
     1
102
RTVSPropertyOp55
 70
     1
102
RTVSPropertyOp56
 70
     1
102
RTVSPropertyOp57
 70
     1
102
RTVSPost2010Prop28
280
     0
102
RTVSPost2010PropOp28
 70
     1
102
RTVSPost2010Prop29
280
     1
102
RTVSPost2010PropOp29
 70
     1
102
RTVSPost2010Prop30
280
     1
102
RTVSPost2010PropOp30
 70
     1
102
RTVSPost2010Prop31
280
     0
102
RTVSPost2010PropOp31
 70
     1
102
RTVSPost2010Prop32
280
     0
102
RTVSPost2010PropOp32
 70
     1
102
RTVSPost2010Prop33
280
     0
102
RTVSPost2010PropOp33
 70
     1
102
RTVSPost2010Prop34
280
     0
102
RTVSPost2010PropOp34
 70
     1
102
RTVSPost2010Prop35
280
     0
102
RTVSPost2010PropOp35
 70
     1
102
RTVSPost2010Prop36
280
     0
102
RTVSPost2010PropOp36
 70
     1
102
RTVSPost2010Prop37
 90
       50
102
RTVSPost2010PropOp37
 70
     1
102
RTVSPost2010Prop38
140
0.0
102
RTVSPost2010PropOp38
 70
     1
102
RTVSPost2010Prop39
140
1.0
102
RTVSPost2010PropOp39
 70
     1
102
RTVSPost2010Prop40
 90
        0
102
RTVSPost2010PropOp40
 70
     1
102
RTVSPost2010Prop41ColorIndex
 90
       18
102
RTVSPost2010Prop41ColorRGB
 90
        0
102
RTVSPost2010PropOp41
 70
     1
102
RTVSPost2010Prop42
 90
       50
102
RTVSPost2010PropOp42
 70
     1
102
RTVSPost2010Prop43
 90
        3
102
RTVSPost2010PropOp43
 70
     1
102
RTVSPost2010Prop44ColorIndex
 90
        5
102
RTVSPost2010Prop44ColorRGB
 90
      255
102
RTVSPost2010PropOp44
 70
     1
102
RTVSPost2010Prop45
280
     0
102
RTVSPost2010PropOp45
 70
     1
102
RTVSPost2010Prop46
 90
       50
102
RTVSPost2010PropOp46
 70
     1
102
RTVSPost2010Prop47
 90
       50
102
RTVSPost2010PropOp47
 70
     1
102
RTVSPost2010Prop48
 90
       50
102
RTVSPost2010PropOp48
 70
     1
102
RTVSPost2010Prop49
280
     0
102
RTVSPost2010PropOp49
 70
     1
102
RTVSPost2010Prop50
 90
       50
102
RTVSPost2010PropOp50
 70
     1
102
RTVSPost2010Prop51ColorIndex
 90
      256
102
RTVSPost2010Prop51ColorRGB
 90
-16777216
102
RTVSPost2010PropOp51
 70
     0
102
RTVSPost2010Prop52
140
1.0
102
RTVSPost2010PropOp52
 70
     0
102
RTVSPost2010Prop53
 90
        2
102
RTVSPost2010PropOp53
 70
     1
102
RTVSPost2010Prop54
  1
strokes_ogs.tif
102
RTVSPost2010PropOp54
 70
     1
102
RTVSPost2010Prop55
280
     0
102
RTVSPost2010PropOp55
 70
     1
102
RTVSPost2010Prop56
140
1.0
102
RTVSPost2010PropOp56
 70
     1
102
RTVSPost2010Prop57
140
1.0
102
RTVSPost2010PropOp57
 70
     1
  0
XRECORD
  5
18C
102
{ACAD_REACTORS
330
18B
102
}
330
18B
100
AcDbXrecord
280
     1
102
RTVSPropertyOp0
 70
     1
102
RTVSPropertyOp1
 70
     1
102
RTVSPropertyOp2
 70
     1
102
RTVSPropertyOp3
 70
     1
102
RTVSPropertyOp4
 70
     1
102
RTVSPropertyOp5
 70
     1
102
RTVSPropertyOp6
 70
     1
102
RTVSPropertyOp7
 70
     1
102
RTVSPropertyOp8
 70
     1
102
RTVSPropertyOp9
 70
     1
102
RTVSPropertyOp10
 70
     1
102
RTVSPropertyOp11
 70
     1
102
RTVSPropertyOp12
 70
     1
102
RTVSPropertyOp13
 70
     1
102
RTVSPropertyOp14
 70
     1
102
RTVSPropertyOp15
 70
     1
102
RTVSPropertyOp16
 70
     1
102
RTVSPropertyOp17
 70
     1
102
RTVSPropertyOp18
 70
     1
102
RTVSPropertyOp19
 70
     1
102
RTVSPropertyOp20
 70
     1
102
RTVSPropertyOp21
 70
     1
102
RTVSPropertyOp22
 70
     1
102
RTVSPropertyOp23
 70
     1
102
RTVSPropertyOp24
 70
     1
102
RTVSPropertyOp25
 70
     1
102
RTVSPropertyOp26
 70
     1
102
RTVSPropertyOp27
 70
     1
102
RTVSPropertyOp28
 70
     1
102
RTVSPropertyOp29
 70
     1
102
RTVSPropertyOp30
 70
     1
102
RTVSPropertyOp31
 70
     1
102
RTVSPropertyOp32
 70
     1
102
RTVSPropertyOp33
 70
     1
102
RTVSPropertyOp34
 70
     1
102
RTVSPropertyOp35
 70
     1
102
RTVSPropertyOp36
 70
     1
102
RTVSPropertyOp37
 70
     1
102
RTVSPropertyOp38
 70
     1
102
RTVSPropertyOp39
 70
     1
102
RTVSPropertyOp40
 70
     1
102
RTVSPropertyOp41
 70
     1
102
RTVSPropertyOp42
 70
     1
102
RTVSPropertyOp43
 70
     1
102
RTVSPropertyOp44
 70
     1
102
RTVSPropertyOp45
 70
     1
102
RTVSPropertyOp46
 70
     1
102
RTVSPropertyOp47
 70
     1
102
RTVSPropertyOp48
 70
     1
102
RTVSPropertyOp49
 70
     1
102
RTVSPropertyOp50
 70
     1
102
RTVSPropertyOp51
 70
     0
102
RTVSPropertyOp52
 70
     0
102
RTVSPropertyOp53
 70
     1
102
RTVSPropertyOp54
 70
     1
102
RTVSPropertyOp55
 70
     1
102
RTVSPropertyOp56
 70
     1
102
RTVSPropertyOp57
 70
     1
102
RTVSPost2010Prop28
280
     0
102
RTVSPost2010PropOp28
 70
     1
102
RTVSPost2010Prop29
280
     1
102
RTVSPost2010PropOp29
 70
     1
102
RTVSPost2010Prop30
280
     1
102
RTVSPost2010PropOp30
 70
     1
102
RTVSPost2010Prop31
280
     0
102
RTVSPost2010PropOp31
 70
     1
102
RTVSPost2010Prop32
280
     0
102
RTVSPost2010PropOp32
 70
     1
102
RTVSPost2010Prop33
280
     0
102
RTVSPost2010PropOp33
 70
     1
102
RTVSPost2010Prop34
280
     0
102
RTVSPost2010PropOp34
 70
     1
102
RTVSPost2010Prop35
280
     0
102
RTVSPost2010PropOp35
 70
     1
102
RTVSPost2010Prop36
280
     0
102
RTVSPost2010PropOp36
 70
     1
102
RTVSPost2010Prop37
 90
       50
102
RTVSPost2010PropOp37
 70
     1
102
RTVSPost2010Prop38
140
0.0
102
RTVSPost2010PropOp38
 70
     1
102
RTVSPost2010Prop39
140
1.0
102
RTVSPost2010PropOp39
 70
     1
102
RTVSPost2010Prop40
 90
        0
102
RTVSPost2010PropOp40
 70
     1
102
RTVSPost2010Prop41ColorIndex
 90
       18
102
RTVSPost2010Prop41ColorRGB
 90
        0
102
RTVSPost2010PropOp41
 70
     1
102
RTVSPost2010Prop42
 90
       50
102
RTVSPost2010PropOp42
 70
     1
102
RTVSPost2010Prop43
 90
        3
102
RTVSPost2010PropOp43
 70
     1
102
RTVSPost2010Prop44ColorIndex
 90
        5
102
RTVSPost2010Prop44ColorRGB
 90
      255
102
RTVSPost2010PropOp44
 70
     1
102
RTVSPost2010Prop45
280
     0
102
RTVSPost2010PropOp45
 70
     1
102
RTVSPost2010Prop46
 90
       50
102
RTVSPost2010PropOp46
 70
     1
102
RTVSPost2010Prop47
 90
       50
102
RTVSPost2010PropOp47
 70
     1
102
RTVSPost2010Prop48
 90
       50
102
RTVSPost2010PropOp48
 70
     1
102
RTVSPost2010Prop49
280
     0
102
RTVSPost2010PropOp49
 70
     1
102
RTVSPost2010Prop50
 90
       50
102
RTVSPost2010PropOp50
 70
     1
102
RTVSPost2010Prop51ColorIndex
 90
      256
102
RTVSPost2010Prop51ColorRGB
 90
-16777216
102
RTVSPost2010PropOp51
 70
     0
102
RTVSPost2010Prop52
140
1.0
102
RTVSPost2010PropOp52
 70
     0
102
RTVSPost2010Prop53
 90
        2
102
RTVSPost2010PropOp53
 70
     1
102
RTVSPost2010Prop54
  1
strokes_ogs.tif
102
RTVSPost2010PropOp54
 70
     1
102
RTVSPost2010Prop55
280
     0
102
RTVSPost2010PropOp55
 70
     1
102
RTVSPost2010Prop56
140
1.0
102
RTVSPost2010PropOp56
 70
     1
102
RTVSPost2010Prop57
140
1.0
102
RTVSPost2010PropOp57
 70
     1
  0
XRECORD
  5
17E
102
{ACAD_REACTORS
330
17D
102
}
330
17D
100
AcDbXrecord
280
     1
102
RTVSPropertyOp0
 70
     1
102
RTVSPropertyOp1
 70
     1
102
RTVSPropertyOp2
 70
     1
102
RTVSPropertyOp3
 70
     1
102
RTVSPropertyOp4
 70
     1
102
RTVSPropertyOp5
 70
     1
102
RTVSPropertyOp6
 70
     1
102
RTVSPropertyOp7
 70
     1
102
RTVSPropertyOp8
 70
     1
102
RTVSPropertyOp9
 70
     1
102
RTVSPropertyOp10
 70
     1
102
RTVSPropertyOp11
 70
     1
102
RTVSPropertyOp12
 70
     1
102
RTVSPropertyOp13
 70
     1
102
RTVSPropertyOp14
 70
     1
102
RTVSPropertyOp15
 70
     1
102
RTVSPropertyOp16
 70
     1
102
RTVSPropertyOp17
 70
     1
102
RTVSPropertyOp18
 70
     1
102
RTVSPropertyOp19
 70
     1
102
RTVSPropertyOp20
 70
     1
102
RTVSPropertyOp21
 70
     1
102
RTVSPropertyOp22
 70
     1
102
RTVSPropertyOp23
 70
     1
102
RTVSPropertyOp24
 70
     1
102
RTVSPropertyOp25
 70
     1
102
RTVSPropertyOp26
 70
     1
102
RTVSPropertyOp27
 70
     1
102
RTVSPropertyOp28
 70
     1
102
RTVSPropertyOp29
 70
     1
102
RTVSPropertyOp30
 70
     1
102
RTVSPropertyOp31
 70
     1
102
RTVSPropertyOp32
 70
     1
102
RTVSPropertyOp33
 70
     1
102
RTVSPropertyOp34
 70
     1
102
RTVSPropertyOp35
 70
     1
102
RTVSPropertyOp36
 70
     1
102
RTVSPropertyOp37
 70
     1
102
RTVSPropertyOp38
 70
     1
102
RTVSPropertyOp39
 70
     1
102
RTVSPropertyOp40
 70
     1
102
RTVSPropertyOp41
 70
     1
102
RTVSPropertyOp42
 70
     1
102
RTVSPropertyOp43
 70
     1
102
RTVSPropertyOp44
 70
     1
102
RTVSPropertyOp45
 70
     1
102
RTVSPropertyOp46
 70
     1
102
RTVSPropertyOp47
 70
     1
102
RTVSPropertyOp48
 70
     1
102
RTVSPropertyOp49
 70
     1
102
RTVSPropertyOp50
 70
     1
102
RTVSPropertyOp51
 70
     0
102
RTVSPropertyOp52
 70
     0
102
RTVSPropertyOp53
 70
     1
102
RTVSPropertyOp54
 70
     1
102
RTVSPropertyOp55
 70
     1
102
RTVSPropertyOp56
 70
     1
102
RTVSPropertyOp57
 70
     1
102
RTVSPost2010Prop28
280
     0
102
RTVSPost2010PropOp28
 70
     1
102
RTVSPost2010Prop29
280
     1
102
RTVSPost2010PropOp29
 70
     1
102
RTVSPost2010Prop30
280
     1
102
RTVSPost2010PropOp30
 70
     1
102
RTVSPost2010Prop31
280
     0
102
RTVSPost2010PropOp31
 70
     1
102
RTVSPost2010Prop32
280
     0
102
RTVSPost2010PropOp32
 70
     1
102
RTVSPost2010Prop33
280
     0
102
RTVSPost2010PropOp33
 70
     1
102
RTVSPost2010Prop34
280
     0
102
RTVSPost2010PropOp34
 70
     1
102
RTVSPost2010Prop35
280
     0
102
RTVSPost2010PropOp35
 70
     1
102
RTVSPost2010Prop36
280
     0
102
RTVSPost2010PropOp36
 70
     1
102
RTVSPost2010Prop37
 90
       50
102
RTVSPost2010PropOp37
 70
     1
102
RTVSPost2010Prop38
140
0.0
102
RTVSPost2010PropOp38
 70
     1
102
RTVSPost2010Prop39
140
1.0
102
RTVSPost2010PropOp39
 70
     1
102
RTVSPost2010Prop40
 90
        0
102
RTVSPost2010PropOp40
 70
     1
102
RTVSPost2010Prop41ColorIndex
 90
       18
102
RTVSPost2010Prop41ColorRGB
 90
        0
102
RTVSPost2010PropOp41
 70
     1
102
RTVSPost2010Prop42
 90
       50
102
RTVSPost2010PropOp42
 70
     1
102
RTVSPost2010Prop43
 90
        3
102
RTVSPost2010PropOp43
 70
     1
102
RTVSPost2010Prop44ColorIndex
 90
        5
102
RTVSPost2010Prop44ColorRGB
 90
      255
102
RTVSPost2010PropOp44
 70
     1
102
RTVSPost2010Prop45
280
     0
102
RTVSPost2010PropOp45
 70
     1
102
RTVSPost2010Prop46
 90
       50
102
RTVSPost2010PropOp46
 70
     1
102
RTVSPost2010Prop47
 90
       50
102
RTVSPost2010PropOp47
 70
     1
102
RTVSPost2010Prop48
 90
       50
102
RTVSPost2010PropOp48
 70
     1
102
RTVSPost2010Prop49
280
     0
102
RTVSPost2010PropOp49
 70
     1
102
RTVSPost2010Prop50
 90
       50
102
RTVSPost2010PropOp50
 70
     1
102
RTVSPost2010Prop51ColorIndex
 90
      256
102
RTVSPost2010Prop51ColorRGB
 90
-16777216
102
RTVSPost2010PropOp51
 70
     0
102
RTVSPost2010Prop52
140
1.0
102
RTVSPost2010PropOp52
 70
     0
102
RTVSPost2010Prop53
 90
        2
102
RTVSPost2010PropOp53
 70
     1
102
RTVSPost2010Prop54
  1
strokes_ogs.tif
102
RTVSPost2010PropOp54
 70
     1
102
RTVSPost2010Prop55
280
     0
102
RTVSPost2010PropOp55
 70
     1
102
RTVSPost2010Prop56
140
1.0
102
RTVSPost2010PropOp56
 70
     1
102
RTVSPost2010Prop57
140
1.0
102
RTVSPost2010PropOp57
 70
     1
  0
XRECORD
  5
19E
102
{ACAD_REACTORS
330
19D
102
}
330
19D
100
AcDbXrecord
280
     1
102
RTVSPropertyOp0
 70
     1
102
RTVSPropertyOp1
 70
     1
102
RTVSPropertyOp2
 70
     1
102
RTVSPropertyOp3
 70
     1
102
RTVSPropertyOp4
 70
     1
102
RTVSPropertyOp5
 70
     1
102
RTVSPropertyOp6
 70
     1
102
RTVSPropertyOp7
 70
     1
102
RTVSPropertyOp8
 70
     1
102
RTVSPropertyOp9
 70
     1
102
RTVSPropertyOp10
 70
     1
102
RTVSPropertyOp11
 70
     1
102
RTVSPropertyOp12
 70
     1
102
RTVSPropertyOp13
 70
     1
102
RTVSPropertyOp14
 70
     1
102
RTVSPropertyOp15
 70
     1
102
RTVSPropertyOp16
 70
     1
102
RTVSPropertyOp17
 70
     1
102
RTVSPropertyOp18
 70
     1
102
RTVSPropertyOp19
 70
     1
102
RTVSPropertyOp20
 70
     1
102
RTVSPropertyOp21
 70
     1
102
RTVSPropertyOp22
 70
     1
102
RTVSPropertyOp23
 70
     1
102
RTVSPropertyOp24
 70
     1
102
RTVSPropertyOp25
 70
     1
102
RTVSPropertyOp26
 70
     1
102
RTVSPropertyOp27
 70
     1
102
RTVSPropertyOp28
 70
     1
102
RTVSPropertyOp29
 70
     1
102
RTVSPropertyOp30
 70
     1
102
RTVSPropertyOp31
 70
     1
102
RTVSPropertyOp32
 70
     1
102
RTVSPropertyOp33
 70
     1
102
RTVSPropertyOp34
 70
     1
102
RTVSPropertyOp35
 70
     1
102
RTVSPropertyOp36
 70
     1
102
RTVSPropertyOp37
 70
     1
102
RTVSPropertyOp38
 70
     1
102
RTVSPropertyOp39
 70
     1
102
RTVSPropertyOp40
 70
     1
102
RTVSPropertyOp41
 70
     1
102
RTVSPropertyOp42
 70
     1
102
RTVSPropertyOp43
 70
     1
102
RTVSPropertyOp44
 70
     1
102
RTVSPropertyOp45
 70
     1
102
RTVSPropertyOp46
 70
     1
102
RTVSPropertyOp47
 70
     1
102
RTVSPropertyOp48
 70
     1
102
RTVSPropertyOp49
 70
     1
102
RTVSPropertyOp50
 70
     1
102
RTVSPropertyOp51
 70
     0
102
RTVSPropertyOp52
 70
     0
102
RTVSPropertyOp53
 70
     1
102
RTVSPropertyOp54
 70
     1
102
RTVSPropertyOp55
 70
     1
102
RTVSPropertyOp56
 70
     1
102
RTVSPropertyOp57
 70
     1
102
RTVSPost2010Prop28
280
     0
102
RTVSPost2010PropOp28
 70
     1
102
RTVSPost2010Prop29
280
     1
102
RTVSPost2010PropOp29
 70
     1
102
RTVSPost2010Prop30
280
     1
102
RTVSPost2010PropOp30
 70
     1
102
RTVSPost2010Prop31
280
     0
102
RTVSPost2010PropOp31
 70
     1
102
RTVSPost2010Prop32
280
     0
102
RTVSPost2010PropOp32
 70
     1
102
RTVSPost2010Prop33
280
     0
102
RTVSPost2010PropOp33
 70
     1
102
RTVSPost2010Prop34
280
     0
102
RTVSPost2010PropOp34
 70
     1
102
RTVSPost2010Prop35
280
     0
102
RTVSPost2010PropOp35
 70
     1
102
RTVSPost2010Prop36
280
     0
102
RTVSPost2010PropOp36
 70
     1
102
RTVSPost2010Prop37
 90
       50
102
RTVSPost2010PropOp37
 70
     1
102
RTVSPost2010Prop38
140
0.0
102
RTVSPost2010PropOp38
 70
     1
102
RTVSPost2010Prop39
140
1.0
102
RTVSPost2010PropOp39
 70
     1
102
RTVSPost2010Prop40
 90
        0
102
RTVSPost2010PropOp40
 70
     1
102
RTVSPost2010Prop41ColorIndex
 90
       18
102
RTVSPost2010Prop41ColorRGB
 90
        0
102
RTVSPost2010PropOp41
 70
     1
102
RTVSPost2010Prop42
 90
       50
102
RTVSPost2010PropOp42
 70
     1
102
RTVSPost2010Prop43
 90
        3
102
RTVSPost2010PropOp43
 70
     1
102
RTVSPost2010Prop44ColorIndex
 90
        5
102
RTVSPost2010Prop44ColorRGB
 90
      255
102
RTVSPost2010PropOp44
 70
     1
102
RTVSPost2010Prop45
280
     0
102
RTVSPost2010PropOp45
 70
     1
102
RTVSPost2010Prop46
 90
       50
102
RTVSPost2010PropOp46
 70
     1
102
RTVSPost2010Prop47
 90
       50
102
RTVSPost2010PropOp47
 70
     1
102
RTVSPost2010Prop48
 90
       50
102
RTVSPost2010PropOp48
 70
     1
102
RTVSPost2010Prop49
280
     0
102
RTVSPost2010PropOp49
 70
     1
102
RTVSPost2010Prop50
 90
       50
102
RTVSPost2010PropOp50
 70
     1
102
RTVSPost2010Prop51ColorIndex
 90
      256
102
RTVSPost2010Prop51ColorRGB
 90
-16777216
102
RTVSPost2010PropOp51
 70
     0
102
RTVSPost2010Prop52
140
1.0
102
RTVSPost2010PropOp52
 70
     0
102
RTVSPost2010Prop53
 90
        2
102
RTVSPost2010PropOp53
 70
     1
102
RTVSPost2010Prop54
  1
strokes_ogs.tif
102
RTVSPost2010PropOp54
 70
     1
102
RTVSPost2010Prop55
280
     0
102
RTVSPost2010PropOp55
 70
     1
102
RTVSPost2010Prop56
140
1.0
102
RTVSPost2010PropOp56
 70
     1
102
RTVSPost2010Prop57
140
1.0
102
RTVSPost2010PropOp57
 70
     1
  0
ENDSEC
  0
EOF
