ISO-10303-21;
HEADER;
FILE_DESCRIPTION (( 'STEP AP214' ),
    '1' );
FILE_NAME ('washer for thumb ring.STEP',
    '2025-05-26T20:57:22',
    ( '' ),
    ( '' ),
    'SwSTEP 2.0',
    'SolidWorks 2020',
    '' );
FILE_SCHEMA (( 'AUTOMOTIVE_DESIGN' ));
ENDSEC;

DATA;
#1 = DIRECTION ( 'NONE',  ( 0.000000000000000000, 1.000000000000000000, 0.000000000000000000 ) ) ;
#2 = SURFACE_STYLE_USAGE ( .BOTH. , #157 ) ;
#3 = DIRECTION ( 'NONE',  ( -0.000000000000000000, -1.000000000000000000, -0.000000000000000000 ) ) ;
#4 = EDGE_CURVE ( 'NONE', #134, #146, #191, .T. ) ;
#5 = PRODUCT_CONTEXT ( 'NONE', #200, 'mechanical' ) ;
#6 = EDGE_LOOP ( 'NONE', ( #57, #42, #106, #202 ) ) ;
#7 = CARTESIAN_POINT ( 'NONE',  ( 0.000000000000000000, 0.000000000000000000, 0.000000000000000000 ) ) ;
#8 = VERTEX_POINT ( 'NONE', #61 ) ;
#9 = VECTOR ( 'NONE', #173, 1000.000000000000000 ) ;
#10 = CARTESIAN_POINT ( 'NONE',  ( 0.000000000000000000, 1.500000000000000000, 0.000000000000000000 ) ) ;
#11 = CYLINDRICAL_SURFACE ( 'NONE', #182, 4.349999999999999645 ) ;
#12 = CLOSED_SHELL ( 'NONE', ( #21, #99, #47, #169, #94, #210 ) ) ;
#13 = CYLINDRICAL_SURFACE ( 'NONE', #192, 3.350000000000000089 ) ;
#14 = EDGE_CURVE ( 'NONE', #171, #146, #78, .T. ) ;
#15 = DIRECTION ( 'NONE',  ( 0.000000000000000000, -0.000000000000000000, 1.000000000000000000 ) ) ;
#16 = DIRECTION ( 'NONE',  ( 0.000000000000000000, 0.000000000000000000, 1.000000000000000000 ) ) ;
#17 = DIRECTION ( 'NONE',  ( 0.000000000000000000, 1.000000000000000000, 0.000000000000000000 ) ) ;
#18 = CARTESIAN_POINT ( 'NONE',  ( 0.000000000000000000, 1.500000000000000000, 0.000000000000000000 ) ) ;
#19 = AXIS2_PLACEMENT_3D ( 'NONE', #64, #17, #160 ) ;
#20 = VERTEX_POINT ( 'NONE', #26 ) ;
#21 = ADVANCED_FACE ( 'NONE', ( #58 ), #13, .F. ) ;
#22 = PRESENTATION_STYLE_ASSIGNMENT (( #165 ) ) ;
#23 = UNCERTAINTY_MEASURE_WITH_UNIT (LENGTH_MEASURE( 1.000000000000000082E-05 ), #179, 'distance_accuracy_value', 'NONE');
#24 = ORIENTED_EDGE ( 'NONE', *, *, #180, .T. ) ;
#25 = AXIS2_PLACEMENT_3D ( 'NONE', #73, #122, #15 ) ;
#26 = CARTESIAN_POINT ( 'NONE',  ( 0.000000000000000000, 1.500000000000000000, -4.349999999999999645 ) ) ;
#27 = CARTESIAN_POINT ( 'NONE',  ( 5.327213576290986242E-16, 1.500000000000000000, 4.349999999999999645 ) ) ;
#28 = ORIENTED_EDGE ( 'NONE', *, *, #141, .F. ) ;
#29 = DIRECTION ( 'NONE',  ( 0.000000000000000000, 0.000000000000000000, -1.000000000000000000 ) ) ;
#30 = CARTESIAN_POINT ( 'NONE',  ( 4.102566777143633281E-16, 1.500000000000000000, 3.350000000000000089 ) ) ;
#31 = CARTESIAN_POINT ( 'NONE',  ( 0.000000000000000000, 0.000000000000000000, 0.000000000000000000 ) ) ;
#32 = PRODUCT ( 'washer for thumb ring', 'washer for thumb ring', '', ( #5 ) ) ;
#33 = COLOUR_RGB ( '',0.6470588235294117974, 0.6196078431372549211, 0.5843137254901961120 ) ;
#34 = DIRECTION ( 'NONE',  ( 1.000000000000000000, 0.000000000000000000, 0.000000000000000000 ) ) ;
#35 = ORIENTED_EDGE ( 'NONE', *, *, #66, .F. ) ;
#36 = AXIS2_PLACEMENT_3D ( 'NONE', #44, #172, #155 ) ;
#37 = PRESENTATION_LAYER_ASSIGNMENT (  '', '', ( #56 ) ) ;
#38 = MECHANICAL_DESIGN_GEOMETRIC_PRESENTATION_REPRESENTATION (  '', ( #105 ), #211 ) ;
#39 = FILL_AREA_STYLE ('',( #199 ) ) ;
#40 = ORIENTED_EDGE ( 'NONE', *, *, #103, .F. ) ;
#41 = AXIS2_PLACEMENT_3D ( 'NONE', #181, #1, #102 ) ;
#42 = ORIENTED_EDGE ( 'NONE', *, *, #4, .T. ) ;
#43 = CARTESIAN_POINT ( 'NONE',  ( 0.000000000000000000, 1.500000000000000000, -4.349999999999999645 ) ) ;
#44 = CARTESIAN_POINT ( 'NONE',  ( 0.000000000000000000, 0.000000000000000000, 0.000000000000000000 ) ) ;
#45 = DIRECTION ( 'NONE',  ( 0.000000000000000000, 0.000000000000000000, -1.000000000000000000 ) ) ;
#46 = DIRECTION ( 'NONE',  ( 0.000000000000000000, 1.000000000000000000, 0.000000000000000000 ) ) ;
#47 = ADVANCED_FACE ( 'NONE', ( #109, #108 ), #90, .T. ) ;
#48 = CARTESIAN_POINT ( 'NONE',  ( 0.000000000000000000, 1.500000000000000000, 0.000000000000000000 ) ) ;
#49 =( NAMED_UNIT ( * ) SI_UNIT ( $, .STERADIAN. ) SOLID_ANGLE_UNIT ( ) );
#50 = DIRECTION ( 'NONE',  ( 0.000000000000000000, 0.000000000000000000, -1.000000000000000000 ) ) ;
#51 = FACE_OUTER_BOUND ( 'NONE', #140, .T. ) ;
#52 =( NAMED_UNIT ( * ) PLANE_ANGLE_UNIT ( ) SI_UNIT ( $, .RADIAN. ) );
#53 = DIRECTION ( 'NONE',  ( 0.000000000000000000, 0.000000000000000000, 1.000000000000000000 ) ) ;
#54 = EDGE_LOOP ( 'NONE', ( #147, #88 ) ) ;
#55 =( NAMED_UNIT ( * ) SI_UNIT ( $, .STERADIAN. ) SOLID_ANGLE_UNIT ( ) );
#56 = STYLED_ITEM ( 'NONE', ( #22 ), #117 ) ;
#57 = ORIENTED_EDGE ( 'NONE', *, *, #201, .T. ) ;
#58 = FACE_OUTER_BOUND ( 'NONE', #6, .T. ) ;
#59 = FACE_OUTER_BOUND ( 'NONE', #207, .T. ) ;
#60 = LINE ( 'NONE', #43, #9 ) ;
#61 = CARTESIAN_POINT ( 'NONE',  ( 5.327213576290986242E-16, 0.000000000000000000, 4.349999999999999645 ) ) ;
#62 = EDGE_LOOP ( 'NONE', ( #149, #153, #126, #118 ) ) ;
#63 = EDGE_CURVE ( 'NONE', #134, #209, #152, .T. ) ;
#64 = CARTESIAN_POINT ( 'NONE',  ( 0.000000000000000000, 0.000000000000000000, 0.000000000000000000 ) ) ;
#65 = APPLICATION_PROTOCOL_DEFINITION ( 'draft international standard', 'automotive_design', 1998, #200 ) ;
#66 = EDGE_CURVE ( 'NONE', #20, #124, #60, .T. ) ;
#67 = LINE ( 'NONE', #145, #150 ) ;
#68 = PRESENTATION_STYLE_ASSIGNMENT (( #2 ) ) ;
#69 = DIRECTION ( 'NONE',  ( 0.000000000000000000, 0.000000000000000000, 1.000000000000000000 ) ) ;
#70 =( GEOMETRIC_REPRESENTATION_CONTEXT ( 3 ) GLOBAL_UNCERTAINTY_ASSIGNED_CONTEXT ( ( #203 ) ) GLOBAL_UNIT_ASSIGNED_CONTEXT ( ( #178, #177, #49 ) ) REPRESENTATION_CONTEXT ( 'NONE', 'WORKASPACE' ) );
#71 = MECHANICAL_DESIGN_GEOMETRIC_PRESENTATION_REPRESENTATION (  '', ( #56 ), #87 ) ;
#72 = ORIENTED_EDGE ( 'NONE', *, *, #205, .T. ) ;
#73 = CARTESIAN_POINT ( 'NONE',  ( 0.000000000000000000, 1.500000000000000000, 0.000000000000000000 ) ) ;
#74 = CARTESIAN_POINT ( 'NONE',  ( 0.000000000000000000, 1.500000000000000000, 0.000000000000000000 ) ) ;
#75 = ORIENTED_EDGE ( 'NONE', *, *, #180, .F. ) ;
#76 = DIRECTION ( 'NONE',  ( -0.000000000000000000, -1.000000000000000000, -0.000000000000000000 ) ) ;
#77 = DIRECTION ( 'NONE',  ( 0.000000000000000000, 1.000000000000000000, 0.000000000000000000 ) ) ;
#78 = CIRCLE ( 'NONE', #36, 3.350000000000000089 ) ;
#79 = DIRECTION ( 'NONE',  ( 0.000000000000000000, 1.000000000000000000, 0.000000000000000000 ) ) ;
#80 = AXIS2_PLACEMENT_3D ( 'NONE', #139, #154, #212 ) ;
#81 = DIRECTION ( 'NONE',  ( 0.000000000000000000, 0.000000000000000000, 1.000000000000000000 ) ) ;
#82 =( NAMED_UNIT ( * ) SI_UNIT ( $, .STERADIAN. ) SOLID_ANGLE_UNIT ( ) );
#83 = PRODUCT_RELATED_PRODUCT_CATEGORY ( 'part', '', ( #32 ) ) ;
#84 = DIRECTION ( 'NONE',  ( -0.000000000000000000, -1.000000000000000000, -0.000000000000000000 ) ) ;
#85 = AXIS2_PLACEMENT_3D ( 'NONE', #193, #46, #111 ) ;
#86 = SHAPE_DEFINITION_REPRESENTATION ( #198, #117 ) ;
#87 =( GEOMETRIC_REPRESENTATION_CONTEXT ( 3 ) GLOBAL_UNCERTAINTY_ASSIGNED_CONTEXT ( ( #148 ) ) GLOBAL_UNIT_ASSIGNED_CONTEXT ( ( #167, #52, #55 ) ) REPRESENTATION_CONTEXT ( 'NONE', 'WORKASPACE' ) );
#88 = ORIENTED_EDGE ( 'NONE', *, *, #103, .T. ) ;
#89 = EDGE_LOOP ( 'NONE', ( #107, #24 ) ) ;
#90 = PLANE ( 'NONE',  #25 ) ;
#91 = VERTEX_POINT ( 'NONE', #27 ) ;
#92 = ORIENTED_EDGE ( 'NONE', *, *, #201, .F. ) ;
#93 = DIRECTION ( 'NONE',  ( -0.000000000000000000, -1.000000000000000000, -0.000000000000000000 ) ) ;
#94 = ADVANCED_FACE ( 'NONE', ( #151 ), #11, .T. ) ;
#95 = CARTESIAN_POINT ( 'NONE',  ( 0.000000000000000000, 0.000000000000000000, 0.000000000000000000 ) ) ;
#96 = CIRCLE ( 'NONE', #184, 3.350000000000000089 ) ;
#97 = CARTESIAN_POINT ( 'NONE',  ( 4.102566777143633281E-16, 0.000000000000000000, 3.350000000000000089 ) ) ;
#98 = COLOUR_RGB ( '',0.6470588235294117974, 0.6196078431372549211, 0.5843137254901961120 ) ;
#99 = ADVANCED_FACE ( 'NONE', ( #59 ), #174, .T. ) ;
#100 = PLANE ( 'NONE',  #41 ) ;
#101 = AXIS2_PLACEMENT_3D ( 'NONE', #125, #189, #16 ) ;
#102 = DIRECTION ( 'NONE',  ( 0.000000000000000000, -0.000000000000000000, 1.000000000000000000 ) ) ;
#103 = EDGE_CURVE ( 'NONE', #91, #20, #213, .T. ) ;
#104 = SURFACE_STYLE_FILL_AREA ( #39 ) ;
#105 = STYLED_ITEM ( 'NONE', ( #68 ), #166 ) ;
#106 = ORIENTED_EDGE ( 'NONE', *, *, #14, .F. ) ;
#107 = ORIENTED_EDGE ( 'NONE', *, *, #14, .T. ) ;
#108 = FACE_BOUND ( 'NONE', #135, .T. ) ;
#109 = FACE_OUTER_BOUND ( 'NONE', #54, .T. ) ;
#110 = ORIENTED_EDGE ( 'NONE', *, *, #159, .F. ) ;
#111 = DIRECTION ( 'NONE',  ( 0.000000000000000000, 0.000000000000000000, 1.000000000000000000 ) ) ;
#112 = CIRCLE ( 'NONE', #19, 4.349999999999999645 ) ;
#113 = AXIS2_PLACEMENT_3D ( 'NONE', #48, #79, #81 ) ;
#114 = SURFACE_STYLE_FILL_AREA ( #115 ) ;
#115 = FILL_AREA_STYLE ('',( #132 ) ) ;
#116 = AXIS2_PLACEMENT_3D ( 'NONE', #175, #93, #29 ) ;
#117 = ADVANCED_BREP_SHAPE_REPRESENTATION ( 'washer for thumb ring', ( #166, #121 ), #70 ) ;
#118 = ORIENTED_EDGE ( 'NONE', *, *, #159, .T. ) ;
#119 = PRODUCT_DEFINITION ( 'UNKNOWN', '', #187, #188 ) ;
#120 = EDGE_CURVE ( 'NONE', #20, #91, #163, .T. ) ;
#121 = AXIS2_PLACEMENT_3D ( 'NONE', #7, #53, #34 ) ;
#122 = DIRECTION ( 'NONE',  ( 0.000000000000000000, 1.000000000000000000, 0.000000000000000000 ) ) ;
#123 = DIRECTION ( 'NONE',  ( 0.000000000000000000, 0.000000000000000000, -1.000000000000000000 ) ) ;
#124 = VERTEX_POINT ( 'NONE', #176 ) ;
#125 = CARTESIAN_POINT ( 'NONE',  ( 0.000000000000000000, 1.500000000000000000, 0.000000000000000000 ) ) ;
#126 = ORIENTED_EDGE ( 'NONE', *, *, #66, .T. ) ;
#127 = APPLICATION_CONTEXT ( 'automotive_design' ) ;
#128 = DIRECTION ( 'NONE',  ( -0.000000000000000000, -1.000000000000000000, -0.000000000000000000 ) ) ;
#129 = VECTOR ( 'NONE', #190, 1000.000000000000000 ) ;
#130 = CARTESIAN_POINT ( 'NONE',  ( 0.000000000000000000, 1.500000000000000000, -3.350000000000000089 ) ) ;
#131 = PRESENTATION_LAYER_ASSIGNMENT (  '', '', ( #105 ) ) ;
#132 = FILL_AREA_STYLE_COLOUR ( '', #33 ) ;
#133 = ORIENTED_EDGE ( 'NONE', *, *, #63, .T. ) ;
#134 = VERTEX_POINT ( 'NONE', #30 ) ;
#135 = EDGE_LOOP ( 'NONE', ( #92, #186 ) ) ;
#136 = EDGE_LOOP ( 'NONE', ( #204, #133, #72, #75 ) ) ;
#137 = ORIENTED_EDGE ( 'NONE', *, *, #141, .T. ) ;
#138 = DIRECTION ( 'NONE',  ( -0.000000000000000000, -1.000000000000000000, -0.000000000000000000 ) ) ;
#139 = CARTESIAN_POINT ( 'NONE',  ( 0.000000000000000000, 1.500000000000000000, 0.000000000000000000 ) ) ;
#140 = EDGE_LOOP ( 'NONE', ( #110, #28 ) ) ;
#141 = EDGE_CURVE ( 'NONE', #8, #124, #168, .T. ) ;
#142 = CYLINDRICAL_SURFACE ( 'NONE', #161, 3.350000000000000089 ) ;
#143 = CARTESIAN_POINT ( 'NONE',  ( 0.000000000000000000, 1.500000000000000000, -3.350000000000000089 ) ) ;
#144 = FACE_BOUND ( 'NONE', #89, .T. ) ;
#145 = CARTESIAN_POINT ( 'NONE',  ( 5.327213576290986242E-16, 1.500000000000000000, 4.349999999999999645 ) ) ;
#146 = VERTEX_POINT ( 'NONE', #97 ) ;
#147 = ORIENTED_EDGE ( 'NONE', *, *, #120, .T. ) ;
#148 = UNCERTAINTY_MEASURE_WITH_UNIT (LENGTH_MEASURE( 1.000000000000000082E-05 ), #167, 'distance_accuracy_value', 'NONE');
#149 = ORIENTED_EDGE ( 'NONE', *, *, #164, .F. ) ;
#150 = VECTOR ( 'NONE', #128, 1000.000000000000000 ) ;
#151 = FACE_OUTER_BOUND ( 'NONE', #62, .T. ) ;
#152 = CIRCLE ( 'NONE', #101, 3.350000000000000089 ) ;
#153 = ORIENTED_EDGE ( 'NONE', *, *, #120, .F. ) ;
#154 = DIRECTION ( 'NONE',  ( 0.000000000000000000, 1.000000000000000000, 0.000000000000000000 ) ) ;
#155 = DIRECTION ( 'NONE',  ( 0.000000000000000000, 0.000000000000000000, 1.000000000000000000 ) ) ;
#156 =( NAMED_UNIT ( * ) PLANE_ANGLE_UNIT ( ) SI_UNIT ( $, .RADIAN. ) );
#157 = SURFACE_SIDE_STYLE ('',( #114 ) ) ;
#158 = LINE ( 'NONE', #130, #170 ) ;
#159 = EDGE_CURVE ( 'NONE', #124, #8, #112, .T. ) ;
#160 = DIRECTION ( 'NONE',  ( 0.000000000000000000, 0.000000000000000000, 1.000000000000000000 ) ) ;
#161 = AXIS2_PLACEMENT_3D ( 'NONE', #18, #84, #50 ) ;
#162 = DIRECTION ( 'NONE',  ( 0.000000000000000000, 1.000000000000000000, 0.000000000000000000 ) ) ;
#163 = CIRCLE ( 'NONE', #85, 4.349999999999999645 ) ;
#164 = EDGE_CURVE ( 'NONE', #91, #8, #67, .T. ) ;
#165 = SURFACE_STYLE_USAGE ( .BOTH. , #185 ) ;
#166 = MANIFOLD_SOLID_BREP ( 'Boss-Extrude1', #12 ) ;
#167 =( LENGTH_UNIT ( ) NAMED_UNIT ( * ) SI_UNIT ( .MILLI., .METRE. ) );
#168 = CIRCLE ( 'NONE', #194, 4.349999999999999645 ) ;
#169 = ADVANCED_FACE ( 'NONE', ( #51, #144 ), #100, .F. ) ;
#170 = VECTOR ( 'NONE', #3, 1000.000000000000000 ) ;
#171 = VERTEX_POINT ( 'NONE', #197 ) ;
#172 = DIRECTION ( 'NONE',  ( 0.000000000000000000, 1.000000000000000000, 0.000000000000000000 ) ) ;
#173 = DIRECTION ( 'NONE',  ( -0.000000000000000000, -1.000000000000000000, -0.000000000000000000 ) ) ;
#174 = CYLINDRICAL_SURFACE ( 'NONE', #116, 4.349999999999999645 ) ;
#175 = CARTESIAN_POINT ( 'NONE',  ( 0.000000000000000000, 1.500000000000000000, 0.000000000000000000 ) ) ;
#176 = CARTESIAN_POINT ( 'NONE',  ( 0.000000000000000000, 0.000000000000000000, -4.349999999999999645 ) ) ;
#177 =( NAMED_UNIT ( * ) PLANE_ANGLE_UNIT ( ) SI_UNIT ( $, .RADIAN. ) );
#178 =( LENGTH_UNIT ( ) NAMED_UNIT ( * ) SI_UNIT ( .MILLI., .METRE. ) );
#179 =( LENGTH_UNIT ( ) NAMED_UNIT ( * ) SI_UNIT ( .MILLI., .METRE. ) );
#180 = EDGE_CURVE ( 'NONE', #146, #171, #96, .T. ) ;
#181 = CARTESIAN_POINT ( 'NONE',  ( 0.000000000000000000, 0.000000000000000000, 0.000000000000000000 ) ) ;
#182 = AXIS2_PLACEMENT_3D ( 'NONE', #74, #76, #45 ) ;
#183 = APPLICATION_PROTOCOL_DEFINITION ( 'draft international standard', 'automotive_design', 1998, #127 ) ;
#184 = AXIS2_PLACEMENT_3D ( 'NONE', #31, #162, #195 ) ;
#185 = SURFACE_SIDE_STYLE ('',( #104 ) ) ;
#186 = ORIENTED_EDGE ( 'NONE', *, *, #63, .F. ) ;
#187 = PRODUCT_DEFINITION_FORMATION_WITH_SPECIFIED_SOURCE ( 'ANY', '', #32, .NOT_KNOWN. ) ;
#188 = PRODUCT_DEFINITION_CONTEXT ( 'detailed design', #127, 'design' ) ;
#189 = DIRECTION ( 'NONE',  ( 0.000000000000000000, 1.000000000000000000, 0.000000000000000000 ) ) ;
#190 = DIRECTION ( 'NONE',  ( -0.000000000000000000, -1.000000000000000000, -0.000000000000000000 ) ) ;
#191 = LINE ( 'NONE', #214, #129 ) ;
#192 = AXIS2_PLACEMENT_3D ( 'NONE', #10, #138, #123 ) ;
#193 = CARTESIAN_POINT ( 'NONE',  ( 0.000000000000000000, 1.500000000000000000, 0.000000000000000000 ) ) ;
#194 = AXIS2_PLACEMENT_3D ( 'NONE', #95, #77, #69 ) ;
#195 = DIRECTION ( 'NONE',  ( 0.000000000000000000, 0.000000000000000000, 1.000000000000000000 ) ) ;
#196 = FACE_OUTER_BOUND ( 'NONE', #136, .T. ) ;
#197 = CARTESIAN_POINT ( 'NONE',  ( 0.000000000000000000, 0.000000000000000000, -3.350000000000000089 ) ) ;
#198 = PRODUCT_DEFINITION_SHAPE ( 'NONE', 'NONE',  #119 ) ;
#199 = FILL_AREA_STYLE_COLOUR ( '', #98 ) ;
#200 = APPLICATION_CONTEXT ( 'automotive_design' ) ;
#201 = EDGE_CURVE ( 'NONE', #209, #134, #206, .T. ) ;
#202 = ORIENTED_EDGE ( 'NONE', *, *, #205, .F. ) ;
#203 = UNCERTAINTY_MEASURE_WITH_UNIT (LENGTH_MEASURE( 1.000000000000000082E-05 ), #178, 'distance_accuracy_value', 'NONE');
#204 = ORIENTED_EDGE ( 'NONE', *, *, #4, .F. ) ;
#205 = EDGE_CURVE ( 'NONE', #209, #171, #158, .T. ) ;
#206 = CIRCLE ( 'NONE', #113, 3.350000000000000089 ) ;
#207 = EDGE_LOOP ( 'NONE', ( #40, #208, #137, #35 ) ) ;
#208 = ORIENTED_EDGE ( 'NONE', *, *, #164, .T. ) ;
#209 = VERTEX_POINT ( 'NONE', #143 ) ;
#210 = ADVANCED_FACE ( 'NONE', ( #196 ), #142, .F. ) ;
#211 =( GEOMETRIC_REPRESENTATION_CONTEXT ( 3 ) GLOBAL_UNCERTAINTY_ASSIGNED_CONTEXT ( ( #23 ) ) GLOBAL_UNIT_ASSIGNED_CONTEXT ( ( #179, #156, #82 ) ) REPRESENTATION_CONTEXT ( 'NONE', 'WORKASPACE' ) );
#212 = DIRECTION ( 'NONE',  ( 0.000000000000000000, 0.000000000000000000, 1.000000000000000000 ) ) ;
#213 = CIRCLE ( 'NONE', #80, 4.349999999999999645 ) ;
#214 = CARTESIAN_POINT ( 'NONE',  ( 4.102566777143633281E-16, 1.500000000000000000, 3.350000000000000089 ) ) ;
ENDSEC;
END-ISO-10303-21;
