  0
SECTION
  2
HEADER
  9
$ACADVER
  1
AC1021
  9
$ACADMAINTVER
 70
    50
  9
$DWGCODEPAGE
  3
ANSI_1252
  9
$INSBASE
 10
0.0
 20
0.0
 30
0.0
  9
$EXTMIN
 10
1.000000000000000E+20
 20
1.000000000000000E+20
 30
1.000000000000000E+20
  9
$EXTMAX
 10
-1.000000000000000E+20
 20
-1.000000000000000E+20
 30
-1.000000000000000E+20
  9
$LIMMIN
 10
0.0
 20
0.0
  9
$LIMMAX
 10
12.0
 20
9.0
  9
$ORTHOMODE
 70
     0
  9
$REGENMODE
 70
     1
  9
$FILLMODE
 70
     1
  9
$QTEXTMODE
 70
     0
  9
$MIRRTEXT
 70
     0
  9
$LTSCALE
 40
1.0
  9
$ATTMODE
 70
     1
  9
$TEXTSIZE
 40
0.2
  9
$TRACEWID
 40
0.05
  9
$TEXTSTYLE
  7
Standard
  9
$CLAYER
  8
0
  9
$CELTYPE
  6
ByLayer
  9
$CECOLOR
 62
   256
  9
$CELTSCALE
 40
1.0
  9
$DISPSILH
 70
     0
  9
$DIMSCALE
 40
1.0
  9
$DIMASZ
 40
0.18
  9
$DIMEXO
 40
0.0625
  9
$DIMDLI
 40
0.38
  9
$DIMRND
 40
0.0
  9
$DIMDLE
 40
0.0
  9
$DIMEXE
 40
0.18
  9
$DIMTP
 40
0.0
  9
$DIMTM
 40
0.0
  9
$DIMTXT
 40
0.18
  9
$DIMCEN
 40
0.09
  9
$DIMTSZ
 40
0.0
  9
$DIMTOL
 70
     0
  9
$DIMLIM
 70
     0
  9
$DIMTIH
 70
     1
  9
$DIMTOH
 70
     1
  9
$DIMSE1
 70
     0
  9
$DIMSE2
 70
     0
  9
$DIMTAD
 70
     0
  9
$DIMZIN
 70
     0
  9
$DIMBLK
  1

  9
$DIMASO
 70
     1
  9
$DIMSHO
 70
     1
  9
$DIMPOST
  1

  9
$DIMAPOST
  1

  9
$DIMALT
 70
     0
  9
$DIMALTD
 70
     2
  9
$DIMALTF
 40
25.4
  9
$DIMLFAC
 40
1.0
  9
$DIMTOFL
 70
     0
  9
$DIMTVP
 40
0.0
  9
$DIMTIX
 70
     0
  9
$DIMSOXD
 70
     0
  9
$DIMSAH
 70
     0
  9
$DIMBLK1
  1

  9
$DIMBLK2
  1

  9
$DIMSTYLE
  2
Standard
  9
$DIMCLRD
 70
     0
  9
$DIMCLRE
 70
     0
  9
$DIMCLRT
 70
     0
  9
$DIMTFAC
 40
1.0
  9
$DIMGAP
 40
0.09
  9
$DIMJUST
 70
     0
  9
$DIMSD1
 70
     0
  9
$DIMSD2
 70
     0
  9
$DIMTOLJ
 70
     1
  9
$DIMTZIN
 70
     0
  9
$DIMALTZ
 70
     0
  9
$DIMALTTZ
 70
     0
  9
$DIMUPT
 70
     0
  9
$DIMDEC
 70
     4
  9
$DIMTDEC
 70
     4
  9
$DIMALTU
 70
     2
  9
$DIMALTTD
 70
     2
  9
$DIMTXSTY
  7
Standard
  9
$DIMAUNIT
 70
     0
  9
$DIMADEC
 70
     0
  9
$DIMALTRND
 40
0.0
  9
$DIMAZIN
 70
     0
  9
$DIMDSEP
 70
    46
  9
$DIMATFIT
 70
     3
  9
$DIMFRAC
 70
     0
  9
$DIMLDRBLK
  1

  9
$DIMLUNIT
 70
     2
  9
$DIMLWD
 70
    -2
  9
$DIMLWE
 70
    -2
  9
$DIMTMOVE
 70
     0
  9
$DIMFXL
 40
1.0
  9
$DIMFXLON
 70
     0
  9
$DIMJOGANG
 40
0.7853981633974483
  9
$DIMTFILL
 70
     0
  9
$DIMTFILLCLR
 70
     0
  9
$DIMARCSYM
 70
     0
  9
$DIMLTYPE
  6

  9
$DIMLTEX1
  6

  9
$DIMLTEX2
  6

  9
$LUNITS
 70
     2
  9
$LUPREC
 70
     4
  9
$SKETCHINC
 40
0.1
  9
$FILLETRAD
 40
0.0
  9
$AUNITS
 70
     0
  9
$AUPREC
 70
     0
  9
$MENU
  1
.
  9
$ELEVATION
 40
0.0
  9
$PELEVATION
 40
0.0
  9
$THICKNESS
 40
0.0
  9
$LIMCHECK
 70
     0
  9
$CHAMFERA
 40
0.0
  9
$CHAMFERB
 40
0.0
  9
$CHAMFERC
 40
0.0
  9
$CHAMFERD
 40
0.0
  9
$SKPOLY
 70
     0
  9
$TDCREATE
 40
2460389.646087963
  9
$TDUCREATE
 40
2460389.604421296
  9
$TDUPDATE
 40
2460389.646087963
  9
$TDUUPDATE
 40
2460389.604421296
  9
$TDINDWG
 40
0.0000000000
  9
$TDUSRTIMER
 40
0.0000000000
  9
$USRTIMER
 70
     1
  9
$ANGBASE
 50
0.0
  9
$ANGDIR
 70
     0
  9
$PDMODE
 70
     0
  9
$PDSIZE
 40
0.0
  9
$PLINEWID
 40
0.0
  9
$SPLFRAME
 70
     0
  9
$SPLINETYPE
 70
     6
  9
$SPLINESEGS
 70
     8
  9
$HANDSEED
  5
F0
  9
$SURFTAB1
 70
     6
  9
$SURFTAB2
 70
     6
  9
$SURFTYPE
 70
     6
  9
$SURFU
 70
     6
  9
$SURFV
 70
     6
  9
$UCSBASE
  2

  9
$UCSNAME
  2

  9
$UCSORG
 10
0.0
 20
0.0
 30
0.0
  9
$UCSXDIR
 10
1.0
 20
0.0
 30
0.0
  9
$UCSYDIR
 10
0.0
 20
1.0
 30
0.0
  9
$UCSORTHOREF
  2

  9
$UCSORTHOVIEW
 70
     0
  9
$UCSORGTOP
 10
0.0
 20
0.0
 30
0.0
  9
$UCSORGBOTTOM
 10
0.0
 20
0.0
 30
0.0
  9
$UCSORGLEFT
 10
0.0
 20
0.0
 30
0.0
  9
$UCSORGRIGHT
 10
0.0
 20
0.0
 30
0.0
  9
$UCSORGFRONT
 10
0.0
 20
0.0
 30
0.0
  9
$UCSORGBACK
 10
0.0
 20
0.0
 30
0.0
  9
$PUCSBASE
  2

  9
$PUCSNAME
  2

  9
$PUCSORG
 10
0.0
 20
0.0
 30
0.0
  9
$PUCSXDIR
 10
1.0
 20
0.0
 30
0.0
  9
$PUCSYDIR
 10
0.0
 20
1.0
 30
0.0
  9
$PUCSORTHOREF
  2

  9
$PUCSORTHOVIEW
 70
     0
  9
$PUCSORGTOP
 10
0.0
 20
0.0
 30
0.0
  9
$PUCSORGBOTTOM
 10
0.0
 20
0.0
 30
0.0
  9
$PUCSORGLEFT
 10
0.0
 20
0.0
 30
0.0
  9
$PUCSORGRIGHT
 10
0.0
 20
0.0
 30
0.0
  9
$PUCSORGFRONT
 10
0.0
 20
0.0
 30
0.0
  9
$PUCSORGBACK
 10
0.0
 20
0.0
 30
0.0
  9
$USERI1
 70
     0
  9
$USERI2
 70
     0
  9
$USERI3
 70
     0
  9
$USERI4
 70
     0
  9
$USERI5
 70
     0
  9
$USERR1
 40
0.0
  9
$USERR2
 40
0.0
  9
$USERR3
 40
0.0
  9
$USERR4
 40
0.0
  9
$USERR5
 40
0.0
  9
$WORLDVIEW
 70
     1
  9
$SHADEDGE
 70
     3
  9
$SHADEDIF
 70
    70
  9
$TILEMODE
 70
     1
  9
$MAXACTVP
 70
    64
  9
$PINSBASE
 10
0.0
 20
0.0
 30
0.0
  9
$PLIMCHECK
 70
     0
  9
$PEXTMIN
 10
1.000000000000000E+20
 20
1.000000000000000E+20
 30
1.000000000000000E+20
  9
$PEXTMAX
 10
-1.000000000000000E+20
 20
-1.000000000000000E+20
 30
-1.000000000000000E+20
  9
$PLIMMIN
 10
0.0
 20
0.0
  9
$PLIMMAX
 10
12.0
 20
9.0
  9
$UNITMODE
 70
     0
  9
$VISRETAIN
 70
     1
  9
$PLINEGEN
 70
     0
  9
$PSLTSCALE
 70
     1
  9
$TREEDEPTH
 70
  3020
  9
$CMLSTYLE
  2
Standard
  9
$CMLJUST
 70
     0
  9
$CMLSCALE
 40
1.0
  9
$PROXYGRAPHICS
 70
     1
  9
$MEASUREMENT
 70
     0
  9
$CELWEIGHT
370
    -1
  9
$ENDCAPS
280
     0
  9
$JOINSTYLE
280
     0
  9
$LWDISPLAY
290
     1
  9
$INSUNITS
 70
     5
  9
$HYPERLINKBASE
  1

  9
$STYLESHEET
  1

  9
$XEDIT
290
     1
  9
$CEPSNTYPE
380
     0
  9
$PSTYLEMODE
290
     1
  9
$FINGERPRINTGUID
  2
{7DDA4895-3FD7-8344-97A8-09619D787829}
  9
$VERSIONGUID
  2
{51F0636C-2D24-B146-BBFE-10D4A860FF6A}
  9
$EXTNAMES
290
     1
  9
$PSVPSCALE
 40
0.0
  9
$OLESTARTUP
290
     0
  9
$SORTENTS
280
   127
  9
$INDEXCTL
280
     0
  9
$HIDETEXT
280
     1
  9
$XCLIPFRAME
290
     0
  9
$HALOGAP
280
     0
  9
$OBSCOLOR
 70
   257
  9
$OBSLTYPE
280
     0
  9
$INTERSECTIONDISPLAY
280
     0
  9
$INTERSECTIONCOLOR
 70
   257
  9
$DIMASSOC
280
     2
  9
$PROJECTNAME
  1

  9
$CAMERADISPLAY
290
     0
  9
$LENSLENGTH
 40
50.0
  9
$CAMERAHEIGHT
 40
0.0
  9
$STEPSPERSEC
 40
2.0
  9
$STEPSIZE
 40
6.0
  9
$3DDWFPREC
 40
2.0
  9
$PSOLWIDTH
 40
0.25
  9
$PSOLHEIGHT
 40
4.0
  9
$LOFTANG1
 40
1.570796326794896
  9
$LOFTANG2
 40
1.570796326794896
  9
$LOFTMAG1
 40
0.0
  9
$LOFTMAG2
 40
0.0
  9
$LOFTPARAM
 70
     7
  9
$LOFTNORMALS
280
     1
  9
$LATITUDE
 40
37.795
  9
$LONGITUDE
 40
-122.394
  9
$NORTHDIRECTION
 40
0.0
  9
$TIMEZONE
 70
 -8000
  9
$LIGHTGLYPHDISPLAY
280
     1
  9
$TILEMODELIGHTSYNCH
280
     1
  9
$CMATERIAL
347
11
  9
$SOLIDHIST
280
     0
  9
$SHOWHIST
280
     1
  9
$DWFFRAME
280
     2
  9
$DGNFRAME
280
     0
  9
$REALWORLDSCALE
290
     1
  9
$INTERFERECOLOR
 62
     1
  9
$INTERFEREOBJVS
345
33
  9
$INTERFEREVPVS
346
30
  9
$CSHADOW
280
     0
  9
$SHADOWPLANELOCATION
 40
0.0
  0
ENDSEC
  0
SECTION
  2
CLASSES
  0
CLASS
  1
ACDBDICTIONARYWDFLT
  2
AcDbDictionaryWithDefault
  3
ObjectDBX Classes
 90
        0
 91
        1
280
     0
281
     0
  0
CLASS
  1
MATERIAL
  2
AcDbMaterial
  3
ObjectDBX Classes
 90
     1153
 91
        3
280
     0
281
     0
  0
CLASS
  1
VISUALSTYLE
  2
AcDbVisualStyle
  3
ObjectDBX Classes
 90
     4095
 91
       24
280
     0
281
     0
  0
CLASS
  1
SCALE
  2
AcDbScale
  3
ObjectDBX Classes
 90
     1153
 91
       17
280
     0
281
     0
  0
CLASS
  1
TABLESTYLE
  2
AcDbTableStyle
  3
ObjectDBX Classes
 90
     4095
 91
        1
280
     0
281
     0
  0
CLASS
  1
MLEADERSTYLE
  2
AcDbMLeaderStyle
  3
ACDB_MLEADERSTYLE_CLASS
 90
     4095
 91
        1
280
     0
281
     0
  0
CLASS
  1
ACDBSECTIONVIEWSTYLE
  2
AcDbSectionViewStyle
  3
ObjectDBX Classes
 90
     1025
 91
        1
280
     0
281
     0
  0
CLASS
  1
ACDBDETAILVIEWSTYLE
  2
AcDbDetailViewStyle
  3
ObjectDBX Classes
 90
     1025
 91
        1
280
     0
281
     0
  0
CLASS
  1
DICTIONARYVAR
  2
AcDbDictionaryVar
  3
ObjectDBX Classes
 90
        0
 91
        6
280
     0
281
     0
  0
CLASS
  1
CELLSTYLEMAP
  2
AcDbCellStyleMap
  3
ObjectDBX Classes
 90
     1152
 91
        1
280
     0
281
     0
  0
ENDSEC
  0
SECTION
  2
TABLES
  0
TABLE
  2
VPORT
  5
8
330
0
100
AcDbSymbolTable
 70
     1
  0
VPORT
  5
57
330
8
100
AcDbSymbolTableRecord
100
AcDbViewportTableRecord
  2
*Active
 70
     0
 10
0.0
 20
0.0
 11
1.0
 21
1.0
 12
0.0
 22
0.0
 13
0.0
 23
0.0
 14
1.0
 24
1.0
 15
0.0
 25
0.0
 16
0.0
 26
0.0
 36
1.0
 17
42.49999998937502
 27
-27.49999999312507
 37
0.0
 40
56.09999998597513
 41
1.545454545454542
 42
50.0
 43
0.0
 44
0.0
 50
0.0
 51
0.0
 71
     0
 72
   100
 73
     1
 74
     1
 75
     0
 76
     0
 77
     0
 78
     0
281
     0
 65
     1
110
0.0
120
0.0
130
0.0
111
1.0
121
0.0
131
0.0
112
0.0
122
1.0
132
0.0
 79
     0
146
0.0
 60
     3
 61
     5
292
     1
282
     1
141
0.0
142
0.0
 63
   250
421
  3355443
  0
ENDTAB
  0
TABLE
  2
LTYPE
  5
5
330
0
100
AcDbSymbolTable
 70
     1
  0
LTYPE
  5
5B
330
5
100
AcDbSymbolTableRecord
100
AcDbLinetypeTableRecord
  2
ByBlock
 70
     0
  3

 72
    65
 73
     0
 40
0.0
  0
LTYPE
  5
5C
330
5
100
AcDbSymbolTableRecord
100
AcDbLinetypeTableRecord
  2
ByLayer
 70
     0
  3

 72
    65
 73
     0
 40
0.0
  0
LTYPE
  5
5D
330
5
100
AcDbSymbolTableRecord
100
AcDbLinetypeTableRecord
  2
Continuous
 70
     0
  3
Solid line
 72
    65
 73
     0
 40
0.0
  0
ENDTAB
  0
TABLE
  2
LAYER
  5
2
330
0
100
AcDbSymbolTable
 70
     5
  0
LAYER
  5
54
330
2
100
AcDbSymbolTableRecord
100
AcDbLayerTableRecord
  2
0
 70
     0
 62
     7
  6
Continuous
370
    -3
390
F
347
21
  0
LAYER
  5
78
330
2
100
AcDbSymbolTableRecord
100
AcDbLayerTableRecord
  2
box
 70
     0
 62
     7
  6
Continuous
370
     0
390
F
347
21
  0
LAYER
  5
7F
330
2
100
AcDbSymbolTableRecord
100
AcDbLayerTableRecord
  2
windows
 70
     0
 62
     7
  6
Continuous
370
     0
390
F
347
21
  0
LAYER
  5
88
330
2
100
AcDbSymbolTableRecord
100
AcDbLayerTableRecord
  2
logo text
 70
     0
 62
     7
  6
Continuous
370
     0
390
F
347
21
  0
LAYER
  5
AE
330
2
100
AcDbSymbolTableRecord
100
AcDbLayerTableRecord
  2
Dimensions
 70
     0
 62
     7
  6
Continuous
370
     0
390
F
347
21
  0
ENDTAB
  0
TABLE
  2
STYLE
  5
3
330
0
100
AcDbSymbolTable
 70
     2
  0
STYLE
  5
55
330
3
100
AcDbSymbolTableRecord
100
AcDbTextStyleTableRecord
  2
Standard
 70
     0
 40
0.0
 41
1.0
 50
0.0
 71
     0
 42
0.2
  3
txt
  4

  0
STYLE
  5
5A
330
3
100
AcDbSymbolTableRecord
100
AcDbTextStyleTableRecord
  2
Annotative
 70
     0
 40
0.0
 41
1.0
 50
0.0
 71
     0
 42
0.2
  3
txt
  4

1001
AcadAnnotative
1000
AnnotativeData
1002
{
1070
     1
1070
     1
1002
}
  0
ENDTAB
  0
TABLE
  2
VIEW
  5
6
330
0
100
AcDbSymbolTable
 70
     0
  0
ENDTAB
  0
TABLE
  2
UCS
  5
7
330
0
100
AcDbSymbolTable
 70
     0
  0
ENDTAB
  0
TABLE
  2
APPID
  5
9
330
0
100
AcDbSymbolTable
 70
     3
  0
APPID
  5
56
330
9
100
AcDbSymbolTableRecord
100
AcDbRegAppTableRecord
  2
ACAD
 70
     0
  0
APPID
  5
5E
330
9
100
AcDbSymbolTableRecord
100
AcDbRegAppTableRecord
  2
AcadAnnotative
 70
     0
  0
APPID
  5
E9
330
9
100
AcDbSymbolTableRecord
100
AcDbRegAppTableRecord
  2
ACAD_MLEADERVER
 70
     0
  0
ENDTAB
  0
TABLE
  2
DIMSTYLE
  5
A
330
0
100
AcDbSymbolTable
 70
     2
100
AcDbDimStyleTable
 71
     0
  0
DIMSTYLE
105
58
330
A
100
AcDbSymbolTableRecord
100
AcDbDimStyleTableRecord
  2
Standard
 70
     0
340
55
  0
DIMSTYLE
105
59
330
A
100
AcDbSymbolTableRecord
100
AcDbDimStyleTableRecord
  2
Annotative
 70
     0
340
55
1001
AcadAnnotative
1000
AnnotativeData
1002
{
1070
     1
1070
     1
1002
}
  0
ENDTAB
  0
TABLE
  2
BLOCK_RECORD
  5
1
330
0
100
AcDbSymbolTable
 70
     1
  0
BLOCK_RECORD
  5
70
330
1
100
AcDbSymbolTableRecord
100
AcDbBlockTableRecord
  2
*Model_Space
340
73
 70
     0
280
     1
281
     0
  0
BLOCK_RECORD
  5
6C
330
1
100
AcDbSymbolTableRecord
100
AcDbBlockTableRecord
  2
*Paper_Space
340
6F
 70
     0
280
     1
281
     0
  0
BLOCK_RECORD
  5
74
330
1
100
AcDbSymbolTableRecord
100
AcDbBlockTableRecord
  2
*Paper_Space0
340
77
 70
     0
280
     1
281
     0
  0
ENDTAB
  0
ENDSEC
  0
SECTION
  2
BLOCKS
  0
BLOCK
  5
71
330
70
100
AcDbEntity
  8
0
100
AcDbBlockBegin
  2
*Model_Space
 70
     0
 10
0.0
 20
0.0
 30
0.0
  3
*Model_Space
  1

  0
ENDBLK
  5
72
330
70
100
AcDbEntity
  8
0
100
AcDbBlockEnd
  0
BLOCK
  5
6D
330
6C
100
AcDbEntity
 67
     1
  8
0
100
AcDbBlockBegin
  2
*Paper_Space
 70
     0
 10
0.0
 20
0.0
 30
0.0
  3
*Paper_Space
  1

  0
ENDBLK
  5
6E
330
6C
100
AcDbEntity
 67
     1
  8
0
100
AcDbBlockEnd
  0
BLOCK
  5
75
330
74
100
AcDbEntity
 67
     1
  8
0
100
AcDbBlockBegin
  2
*Paper_Space0
 70
     0
 10
0.0
 20
0.0
 30
0.0
  3
*Paper_Space0
  1

  0
ENDBLK
  5
76
330
74
100
AcDbEntity
 67
     1
  8
0
100
AcDbBlockEnd
  0
ENDSEC
  0
SECTION
  2
ENTITIES
  0
SPLINE
  5
79
330
70
100
AcDbEntity
  8
box
 62
     1
370
     9
100
AcDbSpline
210
0.0
220
0.0
230
1.0
 70
    11
 71
     3
 72
   209
 73
   205
 74
     0
 42
0.0000000001
 43
0.0000000001
 40
0.0
 40
0.0
 40
0.0
 40
0.0
 40
1.0
 40
1.0
 40
1.0
 40
2.0
 40
2.0
 40
2.0
 40
3.0
 40
3.0
 40
3.0
 40
4.0
 40
4.0
 40
4.0
 40
5.0
 40
5.0
 40
5.0
 40
6.0
 40
6.0
 40
6.0
 40
7.0
 40
7.0
 40
7.0
 40
8.0
 40
8.0
 40
8.0
 40
9.0
 40
9.0
 40
9.0
 40
10.0
 40
10.0
 40
10.0
 40
11.0
 40
11.0
 40
11.0
 40
12.0
 40
12.0
 40
12.0
 40
13.0
 40
13.0
 40
13.0
 40
14.0
 40
14.0
 40
14.0
 40
15.0
 40
15.0
 40
15.0
 40
16.0
 40
16.0
 40
16.0
 40
17.0
 40
17.0
 40
17.0
 40
18.0
 40
18.0
 40
18.0
 40
19.0
 40
19.0
 40
19.0
 40
20.0
 40
20.0
 40
20.0
 40
21.0
 40
21.0
 40
21.0
 40
22.0
 40
22.0
 40
22.0
 40
23.0
 40
23.0
 40
23.0
 40
24.0
 40
24.0
 40
24.0
 40
25.0
 40
25.0
 40
25.0
 40
26.0
 40
26.0
 40
26.0
 40
27.0
 40
27.0
 40
27.0
 40
28.0
 40
28.0
 40
28.0
 40
29.0
 40
29.0
 40
29.0
 40
30.0
 40
30.0
 40
30.0
 40
31.0
 40
31.0
 40
31.0
 40
32.0
 40
32.0
 40
32.0
 40
33.0
 40
33.0
 40
33.0
 40
34.0
 40
34.0
 40
34.0
 40
35.0
 40
35.0
 40
35.0
 40
36.0
 40
36.0
 40
36.0
 40
37.0
 40
37.0
 40
37.0
 40
38.0
 40
38.0
 40
38.0
 40
39.0
 40
39.0
 40
39.0
 40
40.0
 40
40.0
 40
40.0
 40
41.0
 40
41.0
 40
41.0
 40
42.0
 40
42.0
 40
42.0
 40
43.0
 40
43.0
 40
43.0
 40
44.0
 40
44.0
 40
44.0
 40
45.0
 40
45.0
 40
45.0
 40
46.0
 40
46.0
 40
46.0
 40
47.0
 40
47.0
 40
47.0
 40
48.0
 40
48.0
 40
48.0
 40
49.0
 40
49.0
 40
49.0
 40
50.0
 40
50.0
 40
50.0
 40
51.0
 40
51.0
 40
51.0
 40
52.0
 40
52.0
 40
52.0
 40
53.0
 40
53.0
 40
53.0
 40
54.0
 40
54.0
 40
54.0
 40
55.0
 40
55.0
 40
55.0
 40
56.0
 40
56.0
 40
56.0
 40
57.0
 40
57.0
 40
57.0
 40
58.0
 40
58.0
 40
58.0
 40
59.0
 40
59.0
 40
59.0
 40
60.0
 40
60.0
 40
60.0
 40
61.0
 40
61.0
 40
61.0
 40
62.0
 40
62.0
 40
62.0
 40
63.0
 40
63.0
 40
63.0
 40
64.0
 40
64.0
 40
64.0
 40
65.0
 40
65.0
 40
65.0
 40
66.0
 40
66.0
 40
66.0
 40
67.0
 40
67.0
 40
67.0
 40
68.0
 40
68.0
 40
68.0
 40
68.0
 10
1.963108712939558
 20
-16.42032587829296
 30
0.0
 10
1.963108712939558
 20
-16.42032587829296
 30
0.0
 10
1.963108712939558
 20
-19.51692604499797
 30
0.0
 10
1.963108712939558
 20
-19.51692604499797
 30
0.0
 10
1.963108712939558
 20
-19.51692604499797
 30
0.0
 10
2.263108695976575
 20
-19.51692604499797
 30
0.0
 10
2.263108695976575
 20
-19.51692604499797
 30
0.0
 10
2.263108695976575
 20
-19.51692604499797
 30
0.0
 10
2.263108695976575
 20
-22.28932579058115
 30
0.0
 10
2.263108695976575
 20
-22.28932579058115
 30
0.0
 10
2.263108695976575
 20
-22.28932579058115
 30
0.0
 10
1.963108712939558
 20
-22.28932579058115
 30
0.0
 10
1.963108712939558
 20
-22.28932579058115
 30
0.0
 10
1.963108712939558
 20
-22.28932579058115
 30
0.0
 10
1.963108712939558
 20
-25.06172553616427
 30
0.0
 10
1.963108712939558
 20
-25.06172553616427
 30
0.0
 10
1.963108712939558
 20
-25.06172553616427
 30
0.0
 10
2.263108695976575
 20
-25.06172553616427
 30
0.0
 10
2.263108695976575
 20
-25.06172553616427
 30
0.0
 10
2.263108695976575
 20
-25.06172553616427
 30
0.0
 10
2.263108695976575
 20
-27.83412528174754
 30
0.0
 10
2.263108695976575
 20
-27.83412528174754
 30
0.0
 10
2.263108695976575
 20
-27.83412528174754
 30
0.0
 10
1.963108712939558
 20
-27.83412528174754
 30
0.0
 10
1.963108712939558
 20
-27.83412528174754
 30
0.0
 10
1.963108712939558
 20
-27.83412528174754
 30
0.0
 10
1.963108712939558
 20
-30.60652502733059
 30
0.0
 10
1.963108712939558
 20
-30.60652502733059
 30
0.0
 10
1.963108712939558
 20
-30.60652502733059
 30
0.0
 10
2.263108695976575
 20
-30.60652502733059
 30
0.0
 10
2.263108695976575
 20
-30.60652502733059
 30
0.0
 10
2.263108695976575
 20
-30.60652502733059
 30
0.0
 10
2.263108695976575
 20
-33.37892477291403
 30
0.0
 10
2.263108695976575
 20
-33.37892477291403
 30
0.0
 10
2.263108695976575
 20
-33.37892477291403
 30
0.0
 10
1.963108712939558
 20
-33.37892477291403
 30
0.0
 10
1.963108712939558
 20
-33.37892477291403
 30
0.0
 10
1.963108712939558
 20
-33.37892477291403
 30
0.0
 10
1.963108712939558
 20
-36.15132451849695
 30
0.0
 10
1.963108712939558
 20
-36.15132451849695
 30
0.0
 10
1.963108712939558
 20
-36.15132451849695
 30
0.0
 10
2.263108695976575
 20
-36.15132451849695
 30
0.0
 10
2.263108695976575
 20
-36.15132451849695
 30
0.0
 10
2.263108695976575
 20
-36.15132451849695
 30
0.0
 10
2.263108695976575
 20
-38.92372426408038
 30
0.0
 10
2.263108695976575
 20
-38.92372426408038
 30
0.0
 10
2.263108695976575
 20
-38.92372426408038
 30
0.0
 10
1.963108712939558
 20
-38.92372426408038
 30
0.0
 10
1.963108712939558
 20
-38.92372426408038
 30
0.0
 10
1.963108712939558
 20
-38.92372426408038
 30
0.0
 10
1.963108712939558
 20
-42.0203244307852
 30
0.0
 10
1.963108712939558
 20
-42.0203244307852
 30
0.0
 10
1.963108712939558
 20
-42.0203244307852
 30
0.0
 10
4.309708540582257
 20
-42.0203244307852
 30
0.0
 10
4.309708540582257
 20
-42.0203244307852
 30
0.0
 10
4.309708540582257
 20
-42.0203244307852
 30
0.0
 10
4.309708540582257
 20
-41.72032444774818
 30
0.0
 10
4.309708540582257
 20
-41.72032444774818
 30
0.0
 10
4.309708540582257
 20
-41.72032444774818
 30
0.0
 10
7.082108286165436
 20
-41.72032444774818
 30
0.0
 10
7.082108286165436
 20
-41.72032444774818
 30
0.0
 10
7.082108286165436
 20
-41.72032444774818
 30
0.0
 10
7.082108286165436
 20
-42.0203244307852
 30
0.0
 10
7.082108286165436
 20
-42.0203244307852
 30
0.0
 10
7.082108286165436
 20
-42.0203244307852
 30
0.0
 10
9.854508413218319
 20
-42.0203244307852
 30
0.0
 10
9.854508413218319
 20
-42.0203244307852
 30
0.0
 10
9.854508413218319
 20
-42.0203244307852
 30
0.0
 10
9.854508413218319
 20
-41.72032444774818
 30
0.0
 10
9.854508413218319
 20
-41.72032444774818
 30
0.0
 10
9.854508413218319
 20
-41.72032444774818
 30
0.0
 10
12.62690815880149
 20
-41.72032444774818
 30
0.0
 10
12.62690815880149
 20
-41.72032444774818
 30
0.0
 10
12.62690815880149
 20
-41.72032444774818
 30
0.0
 10
12.62690815880149
 20
-42.0203244307852
 30
0.0
 10
12.62690815880149
 20
-42.0203244307852
 30
0.0
 10
12.62690815880149
 20
-42.0203244307852
 30
0.0
 10
15.39930790438467
 20
-42.0203244307852
 30
0.0
 10
15.39930790438467
 20
-42.0203244307852
 30
0.0
 10
15.39930790438467
 20
-42.0203244307852
 30
0.0
 10
15.39930790438467
 20
-41.72032444774818
 30
0.0
 10
15.39930790438467
 20
-41.72032444774818
 30
0.0
 10
15.39930790438467
 20
-41.72032444774818
 30
0.0
 10
18.17170764996785
 20
-41.72032444774818
 30
0.0
 10
18.17170764996785
 20
-41.72032444774818
 30
0.0
 10
18.17170764996785
 20
-41.72032444774818
 30
0.0
 10
18.17170764996785
 20
-42.0203244307852
 30
0.0
 10
18.17170764996785
 20
-42.0203244307852
 30
0.0
 10
18.17170764996785
 20
-42.0203244307852
 30
0.0
 10
20.94410739555103
 20
-42.0203244307852
 30
0.0
 10
20.94410739555103
 20
-42.0203244307852
 30
0.0
 10
20.94410739555103
 20
-42.0203244307852
 30
0.0
 10
20.94410739555103
 20
-41.72032444774818
 30
0.0
 10
20.94410739555103
 20
-41.72032444774818
 30
0.0
 10
20.94410739555103
 20
-41.72032444774818
 30
0.0
 10
23.71650714113421
 20
-41.72032444774818
 30
0.0
 10
23.71650714113421
 20
-41.72032444774818
 30
0.0
 10
23.71650714113421
 20
-41.72032444774818
 30
0.0
 10
23.71650714113421
 20
-42.0203244307852
 30
0.0
 10
23.71650714113421
 20
-42.0203244307852
 30
0.0
 10
23.71650714113421
 20
-42.0203244307852
 30
0.0
 10
26.06310735024662
 20
-42.0203244307852
 30
0.0
 10
26.06310735024662
 20
-42.0203244307852
 30
0.0
 10
26.06310735024662
 20
-42.0203244307852
 30
0.0
 10
26.06310735024662
 20
-38.92372426408038
 30
0.0
 10
26.06310735024662
 20
-38.92372426408038
 30
0.0
 10
26.06310735024662
 20
-38.92372426408038
 30
0.0
 10
25.7631073672096
 20
-38.92372426408038
 30
0.0
 10
25.7631073672096
 20
-38.92372426408038
 30
0.0
 10
25.7631073672096
 20
-38.92372426408038
 30
0.0
 10
25.7631073672096
 20
-36.15132451849695
 30
0.0
 10
25.7631073672096
 20
-36.15132451849695
 30
0.0
 10
25.7631073672096
 20
-36.15132451849695
 30
0.0
 10
26.06310735024662
 20
-36.15132451849695
 30
0.0
 10
26.06310735024662
 20
-36.15132451849695
 30
0.0
 10
26.06310735024662
 20
-36.15132451849695
 30
0.0
 10
26.06310735024662
 20
-33.37892477291403
 30
0.0
 10
26.06310735024662
 20
-33.37892477291403
 30
0.0
 10
26.06310735024662
 20
-33.37892477291403
 30
0.0
 10
25.7631073672096
 20
-33.37892477291403
 30
0.0
 10
25.7631073672096
 20
-33.37892477291403
 30
0.0
 10
25.7631073672096
 20
-33.37892477291403
 30
0.0
 10
25.7631073672096
 20
-30.60652502733059
 30
0.0
 10
25.7631073672096
 20
-30.60652502733059
 30
0.0
 10
25.7631073672096
 20
-30.60652502733059
 30
0.0
 10
26.06310735024662
 20
-30.60652502733059
 30
0.0
 10
26.06310735024662
 20
-30.60652502733059
 30
0.0
 10
26.06310735024662
 20
-30.60652502733059
 30
0.0
 10
26.06310735024662
 20
-27.83412528174754
 30
0.0
 10
26.06310735024662
 20
-27.83412528174754
 30
0.0
 10
26.06310735024662
 20
-27.83412528174754
 30
0.0
 10
25.7631073672096
 20
-27.83412528174754
 30
0.0
 10
25.7631073672096
 20
-27.83412528174754
 30
0.0
 10
25.7631073672096
 20
-27.83412528174754
 30
0.0
 10
25.7631073672096
 20
-25.06172553616427
 30
0.0
 10
25.7631073672096
 20
-25.06172553616427
 30
0.0
 10
25.7631073672096
 20
-25.06172553616427
 30
0.0
 10
26.06310735024662
 20
-25.06172553616427
 30
0.0
 10
26.06310735024662
 20
-25.06172553616427
 30
0.0
 10
26.06310735024662
 20
-25.06172553616427
 30
0.0
 10
26.06310735024662
 20
-22.28932579058115
 30
0.0
 10
26.06310735024662
 20
-22.28932579058115
 30
0.0
 10
26.06310735024662
 20
-22.28932579058115
 30
0.0
 10
25.7631073672096
 20
-22.28932579058115
 30
0.0
 10
25.7631073672096
 20
-22.28932579058115
 30
0.0
 10
25.7631073672096
 20
-22.28932579058115
 30
0.0
 10
25.7631073672096
 20
-19.51692604499797
 30
0.0
 10
25.7631073672096
 20
-19.51692604499797
 30
0.0
 10
25.7631073672096
 20
-19.51692604499797
 30
0.0
 10
26.06310735024662
 20
-19.51692604499797
 30
0.0
 10
26.06310735024662
 20
-19.51692604499797
 30
0.0
 10
26.06310735024662
 20
-19.51692604499797
 30
0.0
 10
26.06310735024662
 20
-16.42032587829296
 30
0.0
 10
26.06310735024662
 20
-16.42032587829296
 30
0.0
 10
26.06310735024662
 20
-16.42032587829296
 30
0.0
 10
23.71650714113421
 20
-16.42032587829296
 30
0.0
 10
23.71650714113421
 20
-16.42032587829296
 30
0.0
 10
23.71650714113421
 20
-16.42032587829296
 30
0.0
 10
23.71650714113421
 20
-16.72032586132998
 30
0.0
 10
23.71650714113421
 20
-16.72032586132998
 30
0.0
 10
23.71650714113421
 20
-16.72032586132998
 30
0.0
 10
20.94410739555103
 20
-16.72032586132998
 30
0.0
 10
20.94410739555103
 20
-16.72032586132998
 30
0.0
 10
20.94410739555103
 20
-16.72032586132998
 30
0.0
 10
20.94410739555103
 20
-16.42032587829296
 30
0.0
 10
20.94410739555103
 20
-16.42032587829296
 30
0.0
 10
20.94410739555103
 20
-16.42032587829296
 30
0.0
 10
18.17170764996785
 20
-16.42032587829296
 30
0.0
 10
18.17170764996785
 20
-16.42032587829296
 30
0.0
 10
18.17170764996785
 20
-16.42032587829296
 30
0.0
 10
18.17170764996785
 20
-16.72032586132998
 30
0.0
 10
18.17170764996785
 20
-16.72032586132998
 30
0.0
 10
18.17170764996785
 20
-16.72032586132998
 30
0.0
 10
15.39930790438467
 20
-16.72032586132998
 30
0.0
 10
15.39930790438467
 20
-16.72032586132998
 30
0.0
 10
15.39930790438467
 20
-16.72032586132998
 30
0.0
 10
15.39930790438467
 20
-16.42032587829296
 30
0.0
 10
15.39930790438467
 20
-16.42032587829296
 30
0.0
 10
15.39930790438467
 20
-16.42032587829296
 30
0.0
 10
12.62690815880149
 20
-16.42032587829296
 30
0.0
 10
12.62690815880149
 20
-16.42032587829296
 30
0.0
 10
12.62690815880149
 20
-16.42032587829296
 30
0.0
 10
12.62690815880149
 20
-16.72032586132998
 30
0.0
 10
12.62690815880149
 20
-16.72032586132998
 30
0.0
 10
12.62690815880149
 20
-16.72032586132998
 30
0.0
 10
9.854508413218319
 20
-16.72032586132998
 30
0.0
 10
9.854508413218319
 20
-16.72032586132998
 30
0.0
 10
9.854508413218319
 20
-16.72032586132998
 30
0.0
 10
9.854508413218319
 20
-16.42032587829296
 30
0.0
 10
9.854508413218319
 20
-16.42032587829296
 30
0.0
 10
9.854508413218319
 20
-16.42032587829296
 30
0.0
 10
7.082108286165436
 20
-16.42032587829296
 30
0.0
 10
7.082108286165436
 20
-16.42032587829296
 30
0.0
 10
7.082108286165436
 20
-16.42032587829296
 30
0.0
 10
7.082108286165436
 20
-16.72032586132998
 30
0.0
 10
7.082108286165436
 20
-16.72032586132998
 30
0.0
 10
7.082108286165436
 20
-16.72032586132998
 30
0.0
 10
4.309708540582257
 20
-16.72032586132998
 30
0.0
 10
4.309708540582257
 20
-16.72032586132998
 30
0.0
 10
4.309708540582257
 20
-16.72032586132998
 30
0.0
 10
4.309708540582257
 20
-16.42032587829296
 30
0.0
 10
4.309708540582257
 20
-16.42032587829296
 30
0.0
 10
4.309708540582257
 20
-16.42032587829296
 30
0.0
 10
1.963108712939558
 20
-16.42032587829296
 30
0.0
 10
1.963108712939558
 20
-16.42032587829296
 30
0.0
  0
SPLINE
  5
7A
330
70
100
AcDbEntity
  8
box
 62
     1
370
     9
100
AcDbSpline
210
0.0
220
0.0
230
1.0
 70
    11
 71
     3
 72
   161
 73
   157
 74
     0
 42
0.0000000001
 43
0.0000000001
 40
0.0
 40
0.0
 40
0.0
 40
0.0
 40
1.0
 40
1.0
 40
1.0
 40
2.0
 40
2.0
 40
2.0
 40
3.0
 40
3.0
 40
3.0
 40
4.0
 40
4.0
 40
4.0
 40
5.0
 40
5.0
 40
5.0
 40
6.0
 40
6.0
 40
6.0
 40
7.0
 40
7.0
 40
7.0
 40
8.0
 40
8.0
 40
8.0
 40
9.0
 40
9.0
 40
9.0
 40
10.0
 40
10.0
 40
10.0
 40
11.0
 40
11.0
 40
11.0
 40
12.0
 40
12.0
 40
12.0
 40
13.0
 40
13.0
 40
13.0
 40
14.0
 40
14.0
 40
14.0
 40
15.0
 40
15.0
 40
15.0
 40
16.0
 40
16.0
 40
16.0
 40
17.0
 40
17.0
 40
17.0
 40
18.0
 40
18.0
 40
18.0
 40
19.0
 40
19.0
 40
19.0
 40
20.0
 40
20.0
 40
20.0
 40
21.0
 40
21.0
 40
21.0
 40
22.0
 40
22.0
 40
22.0
 40
23.0
 40
23.0
 40
23.0
 40
24.0
 40
24.0
 40
24.0
 40
25.0
 40
25.0
 40
25.0
 40
26.0
 40
26.0
 40
26.0
 40
27.0
 40
27.0
 40
27.0
 40
28.0
 40
28.0
 40
28.0
 40
29.0
 40
29.0
 40
29.0
 40
30.0
 40
30.0
 40
30.0
 40
31.0
 40
31.0
 40
31.0
 40
32.0
 40
32.0
 40
32.0
 40
33.0
 40
33.0
 40
33.0
 40
34.0
 40
34.0
 40
34.0
 40
35.0
 40
35.0
 40
35.0
 40
36.0
 40
36.0
 40
36.0
 40
37.0
 40
37.0
 40
37.0
 40
38.0
 40
38.0
 40
38.0
 40
39.0
 40
39.0
 40
39.0
 40
40.0
 40
40.0
 40
40.0
 40
41.0
 40
41.0
 40
41.0
 40
42.0
 40
42.0
 40
42.0
 40
43.0
 40
43.0
 40
43.0
 40
44.0
 40
44.0
 40
44.0
 40
45.0
 40
45.0
 40
45.0
 40
46.0
 40
46.0
 40
46.0
 40
47.0
 40
47.0
 40
47.0
 40
48.0
 40
48.0
 40
48.0
 40
49.0
 40
49.0
 40
49.0
 40
50.0
 40
50.0
 40
50.0
 40
51.0
 40
51.0
 40
51.0
 40
52.0
 40
52.0
 40
52.0
 40
52.0
 10
26.66310731632065
 20
-16.42032587829296
 30
0.0
 10
26.66310731632065
 20
-16.42032587829296
 30
0.0
 10
26.66310731632065
 20
-19.51692604499797
 30
0.0
 10
26.66310731632065
 20
-19.51692604499797
 30
0.0
 10
26.66310731632065
 20
-19.51692604499797
 30
0.0
 10
26.36310733328363
 20
-19.51692604499797
 30
0.0
 10
26.36310733328363
 20
-19.51692604499797
 30
0.0
 10
26.36310733328363
 20
-19.51692604499797
 30
0.0
 10
26.36310733328363
 20
-22.28932579058115
 30
0.0
 10
26.36310733328363
 20
-22.28932579058115
 30
0.0
 10
26.36310733328363
 20
-22.28932579058115
 30
0.0
 10
26.66310731632065
 20
-22.28932579058115
 30
0.0
 10
26.66310731632065
 20
-22.28932579058115
 30
0.0
 10
26.66310731632065
 20
-22.28932579058115
 30
0.0
 10
26.66310731632065
 20
-25.06172553616427
 30
0.0
 10
26.66310731632065
 20
-25.06172553616427
 30
0.0
 10
26.66310731632065
 20
-25.06172553616427
 30
0.0
 10
26.36310733328363
 20
-25.06172553616427
 30
0.0
 10
26.36310733328363
 20
-25.06172553616427
 30
0.0
 10
26.36310733328363
 20
-25.06172553616427
 30
0.0
 10
26.36310733328363
 20
-27.83412528174754
 30
0.0
 10
26.36310733328363
 20
-27.83412528174754
 30
0.0
 10
26.36310733328363
 20
-27.83412528174754
 30
0.0
 10
26.66310731632065
 20
-27.83412528174754
 30
0.0
 10
26.66310731632065
 20
-27.83412528174754
 30
0.0
 10
26.66310731632065
 20
-27.83412528174754
 30
0.0
 10
26.66310731632065
 20
-30.60652502733059
 30
0.0
 10
26.66310731632065
 20
-30.60652502733059
 30
0.0
 10
26.66310731632065
 20
-30.60652502733059
 30
0.0
 10
26.36310733328363
 20
-30.60652502733059
 30
0.0
 10
26.36310733328363
 20
-30.60652502733059
 30
0.0
 10
26.36310733328363
 20
-30.60652502733059
 30
0.0
 10
26.36310733328363
 20
-33.37892477291403
 30
0.0
 10
26.36310733328363
 20
-33.37892477291403
 30
0.0
 10
26.36310733328363
 20
-33.37892477291403
 30
0.0
 10
26.66310731632065
 20
-33.37892477291403
 30
0.0
 10
26.66310731632065
 20
-33.37892477291403
 30
0.0
 10
26.66310731632065
 20
-33.37892477291403
 30
0.0
 10
26.66310731632065
 20
-36.15132451849695
 30
0.0
 10
26.66310731632065
 20
-36.15132451849695
 30
0.0
 10
26.66310731632065
 20
-36.15132451849695
 30
0.0
 10
26.36310733328363
 20
-36.15132451849695
 30
0.0
 10
26.36310733328363
 20
-36.15132451849695
 30
0.0
 10
26.36310733328363
 20
-36.15132451849695
 30
0.0
 10
26.36310733328363
 20
-38.92372426408038
 30
0.0
 10
26.36310733328363
 20
-38.92372426408038
 30
0.0
 10
26.36310733328363
 20
-38.92372426408038
 30
0.0
 10
26.66310731632065
 20
-38.92372426408038
 30
0.0
 10
26.66310731632065
 20
-38.92372426408038
 30
0.0
 10
26.66310731632065
 20
-38.92372426408038
 30
0.0
 10
26.66310731632065
 20
-42.0203244307852
 30
0.0
 10
26.66310731632065
 20
-42.0203244307852
 30
0.0
 10
26.66310731632065
 20
-42.0203244307852
 30
0.0
 10
29.10450732476027
 20
-42.0203244307852
 30
0.0
 10
29.10450732476027
 20
-42.0203244307852
 30
0.0
 10
29.10450732476027
 20
-42.0203244307852
 30
0.0
 10
29.10450732476027
 20
-41.72032444774818
 30
0.0
 10
29.10450732476027
 20
-41.72032444774818
 30
0.0
 10
29.10450732476027
 20
-41.72032444774818
 30
0.0
 10
31.87690707034344
 20
-41.72032444774818
 30
0.0
 10
31.87690707034344
 20
-41.72032444774818
 30
0.0
 10
31.87690707034344
 20
-41.72032444774818
 30
0.0
 10
31.87690707034344
 20
-42.0203244307852
 30
0.0
 10
31.87690707034344
 20
-42.0203244307852
 30
0.0
 10
31.87690707034344
 20
-42.0203244307852
 30
0.0
 10
34.64930681592662
 20
-42.0203244307852
 30
0.0
 10
34.64930681592662
 20
-42.0203244307852
 30
0.0
 10
34.64930681592662
 20
-42.0203244307852
 30
0.0
 10
34.64930681592662
 20
-41.72032444774818
 30
0.0
 10
34.64930681592662
 20
-41.72032444774818
 30
0.0
 10
34.64930681592662
 20
-41.72032444774818
 30
0.0
 10
37.42170656150986
 20
-41.72032444774818
 30
0.0
 10
37.42170656150986
 20
-41.72032444774818
 30
0.0
 10
37.42170656150986
 20
-41.72032444774818
 30
0.0
 10
37.42170656150986
 20
-42.0203244307852
 30
0.0
 10
37.42170656150986
 20
-42.0203244307852
 30
0.0
 10
37.42170656150986
 20
-42.0203244307852
 30
0.0
 10
39.86310656994934
 20
-42.0203244307852
 30
0.0
 10
39.86310656994934
 20
-42.0203244307852
 30
0.0
 10
39.86310656994934
 20
-42.0203244307852
 30
0.0
 10
39.86310656994934
 20
-38.92372426408038
 30
0.0
 10
39.86310656994934
 20
-38.92372426408038
 30
0.0
 10
39.86310656994934
 20
-38.92372426408038
 30
0.0
 10
40.16310655298639
 20
-38.92372426408038
 30
0.0
 10
40.16310655298639
 20
-38.92372426408038
 30
0.0
 10
40.16310655298639
 20
-38.92372426408038
 30
0.0
 10
40.16310655298639
 20
-36.15132451849695
 30
0.0
 10
40.16310655298639
 20
-36.15132451849695
 30
0.0
 10
40.16310655298639
 20
-36.15132451849695
 30
0.0
 10
39.86310656994934
 20
-36.15132451849695
 30
0.0
 10
39.86310656994934
 20
-36.15132451849695
 30
0.0
 10
39.86310656994934
 20
-36.15132451849695
 30
0.0
 10
39.86310656994934
 20
-33.37892477291403
 30
0.0
 10
39.86310656994934
 20
-33.37892477291403
 30
0.0
 10
39.86310656994934
 20
-33.37892477291403
 30
0.0
 10
40.16310655298639
 20
-33.37892477291403
 30
0.0
 10
40.16310655298639
 20
-33.37892477291403
 30
0.0
 10
40.16310655298639
 20
-33.37892477291403
 30
0.0
 10
40.16310655298639
 20
-30.60652502733059
 30
0.0
 10
40.16310655298639
 20
-30.60652502733059
 30
0.0
 10
40.16310655298639
 20
-30.60652502733059
 30
0.0
 10
39.86310656994934
 20
-30.60652502733059
 30
0.0
 10
39.86310656994934
 20
-30.60652502733059
 30
0.0
 10
39.86310656994934
 20
-30.60652502733059
 30
0.0
 10
39.86310656994934
 20
-27.83412528174754
 30
0.0
 10
39.86310656994934
 20
-27.83412528174754
 30
0.0
 10
39.86310656994934
 20
-27.83412528174754
 30
0.0
 10
40.16310655298639
 20
-27.83412528174754
 30
0.0
 10
40.16310655298639
 20
-27.83412528174754
 30
0.0
 10
40.16310655298639
 20
-27.83412528174754
 30
0.0
 10
40.16310655298639
 20
-25.06172553616427
 30
0.0
 10
40.16310655298639
 20
-25.06172553616427
 30
0.0
 10
40.16310655298639
 20
-25.06172553616427
 30
0.0
 10
39.86310656994934
 20
-25.06172553616427
 30
0.0
 10
39.86310656994934
 20
-25.06172553616427
 30
0.0
 10
39.86310656994934
 20
-25.06172553616427
 30
0.0
 10
39.86310656994934
 20
-22.28932579058115
 30
0.0
 10
39.86310656994934
 20
-22.28932579058115
 30
0.0
 10
39.86310656994934
 20
-22.28932579058115
 30
0.0
 10
40.16310655298639
 20
-22.28932579058115
 30
0.0
 10
40.16310655298639
 20
-22.28932579058115
 30
0.0
 10
40.16310655298639
 20
-22.28932579058115
 30
0.0
 10
40.16310655298639
 20
-19.51692604499797
 30
0.0
 10
40.16310655298639
 20
-19.51692604499797
 30
0.0
 10
40.16310655298639
 20
-19.51692604499797
 30
0.0
 10
39.86310656994934
 20
-19.51692604499797
 30
0.0
 10
39.86310656994934
 20
-19.51692604499797
 30
0.0
 10
39.86310656994934
 20
-19.51692604499797
 30
0.0
 10
39.86310656994934
 20
-16.42032587829296
 30
0.0
 10
39.86310656994934
 20
-16.42032587829296
 30
0.0
 10
39.86310656994934
 20
-16.42032587829296
 30
0.0
 10
37.42170656150986
 20
-16.42032587829296
 30
0.0
 10
37.42170656150986
 20
-16.42032587829296
 30
0.0
 10
37.42170656150986
 20
-16.42032587829296
 30
0.0
 10
37.42170656150986
 20
-16.72032586132998
 30
0.0
 10
37.42170656150986
 20
-16.72032586132998
 30
0.0
 10
37.42170656150986
 20
-16.72032586132998
 30
0.0
 10
34.64930681592662
 20
-16.72032586132998
 30
0.0
 10
34.64930681592662
 20
-16.72032586132998
 30
0.0
 10
34.64930681592662
 20
-16.72032586132998
 30
0.0
 10
34.64930681592662
 20
-16.42032587829296
 30
0.0
 10
34.64930681592662
 20
-16.42032587829296
 30
0.0
 10
34.64930681592662
 20
-16.42032587829296
 30
0.0
 10
31.87690707034344
 20
-16.42032587829296
 30
0.0
 10
31.87690707034344
 20
-16.42032587829296
 30
0.0
 10
31.87690707034344
 20
-16.42032587829296
 30
0.0
 10
31.87690707034344
 20
-16.72032586132998
 30
0.0
 10
31.87690707034344
 20
-16.72032586132998
 30
0.0
 10
31.87690707034344
 20
-16.72032586132998
 30
0.0
 10
29.10450732476027
 20
-16.72032586132998
 30
0.0
 10
29.10450732476027
 20
-16.72032586132998
 30
0.0
 10
29.10450732476027
 20
-16.72032586132998
 30
0.0
 10
29.10450732476027
 20
-16.42032587829296
 30
0.0
 10
29.10450732476027
 20
-16.42032587829296
 30
0.0
 10
29.10450732476027
 20
-16.42032587829296
 30
0.0
 10
26.66310731632065
 20
-16.42032587829296
 30
0.0
 10
26.66310731632065
 20
-16.42032587829296
 30
0.0
  0
SPLINE
  5
7B
330
70
100
AcDbEntity
  8
box
 62
     1
370
     9
100
AcDbSpline
210
0.0
220
0.0
230
1.0
 70
    11
 71
     3
 72
   161
 73
   157
 74
     0
 42
0.0000000001
 43
0.0000000001
 40
0.0
 40
0.0
 40
0.0
 40
0.0
 40
1.0
 40
1.0
 40
1.0
 40
2.0
 40
2.0
 40
2.0
 40
3.0
 40
3.0
 40
3.0
 40
4.0
 40
4.0
 40
4.0
 40
5.0
 40
5.0
 40
5.0
 40
6.0
 40
6.0
 40
6.0
 40
7.0
 40
7.0
 40
7.0
 40
8.0
 40
8.0
 40
8.0
 40
9.0
 40
9.0
 40
9.0
 40
10.0
 40
10.0
 40
10.0
 40
11.0
 40
11.0
 40
11.0
 40
12.0
 40
12.0
 40
12.0
 40
13.0
 40
13.0
 40
13.0
 40
14.0
 40
14.0
 40
14.0
 40
15.0
 40
15.0
 40
15.0
 40
16.0
 40
16.0
 40
16.0
 40
17.0
 40
17.0
 40
17.0
 40
18.0
 40
18.0
 40
18.0
 40
19.0
 40
19.0
 40
19.0
 40
20.0
 40
20.0
 40
20.0
 40
21.0
 40
21.0
 40
21.0
 40
22.0
 40
22.0
 40
22.0
 40
23.0
 40
23.0
 40
23.0
 40
24.0
 40
24.0
 40
24.0
 40
25.0
 40
25.0
 40
25.0
 40
26.0
 40
26.0
 40
26.0
 40
27.0
 40
27.0
 40
27.0
 40
28.0
 40
28.0
 40
28.0
 40
29.0
 40
29.0
 40
29.0
 40
30.0
 40
30.0
 40
30.0
 40
31.0
 40
31.0
 40
31.0
 40
32.0
 40
32.0
 40
32.0
 40
33.0
 40
33.0
 40
33.0
 40
34.0
 40
34.0
 40
34.0
 40
35.0
 40
35.0
 40
35.0
 40
36.0
 40
36.0
 40
36.0
 40
37.0
 40
37.0
 40
37.0
 40
38.0
 40
38.0
 40
38.0
 40
39.0
 40
39.0
 40
39.0
 40
40.0
 40
40.0
 40
40.0
 40
41.0
 40
41.0
 40
41.0
 40
42.0
 40
42.0
 40
42.0
 40
43.0
 40
43.0
 40
43.0
 40
44.0
 40
44.0
 40
44.0
 40
45.0
 40
45.0
 40
45.0
 40
46.0
 40
46.0
 40
46.0
 40
47.0
 40
47.0
 40
47.0
 40
48.0
 40
48.0
 40
48.0
 40
49.0
 40
49.0
 40
49.0
 40
50.0
 40
50.0
 40
50.0
 40
51.0
 40
51.0
 40
51.0
 40
52.0
 40
52.0
 40
52.0
 40
52.0
 10
40.76310651906046
 20
-28.52032519411942
 30
0.0
 10
40.76310651906046
 20
-28.52032519411942
 30
0.0
 10
40.76310651906046
 20
-30.96172520255891
 30
0.0
 10
40.76310651906046
 20
-30.96172520255891
 30
0.0
 10
40.76310651906046
 20
-30.96172520255891
 30
0.0
 10
40.46310653602341
 20
-30.96172520255891
 30
0.0
 10
40.46310653602341
 20
-30.96172520255891
 30
0.0
 10
40.46310653602341
 20
-30.96172520255891
 30
0.0
 10
40.46310653602341
 20
-33.73412494814221
 30
0.0
 10
40.46310653602341
 20
-33.73412494814221
 30
0.0
 10
40.46310653602341
 20
-33.73412494814221
 30
0.0
 10
40.76310651906046
 20
-33.73412494814221
 30
0.0
 10
40.76310651906046
 20
-33.73412494814221
 30
0.0
 10
40.76310651906046
 20
-33.73412494814221
 30
0.0
 10
40.76310651906046
 20
-36.50652469372526
 30
0.0
 10
40.76310651906046
 20
-36.50652469372526
 30
0.0
 10
40.76310651906046
 20
-36.50652469372526
 30
0.0
 10
40.46310653602341
 20
-36.50652469372526
 30
0.0
 10
40.46310653602341
 20
-36.50652469372526
 30
0.0
 10
40.46310653602341
 20
-36.50652469372526
 30
0.0
 10
40.46310653602341
 20
-39.27892443930857
 30
0.0
 10
40.46310653602341
 20
-39.27892443930857
 30
0.0
 10
40.46310653602341
 20
-39.27892443930857
 30
0.0
 10
40.76310651906046
 20
-39.27892443930857
 30
0.0
 10
40.76310651906046
 20
-39.27892443930857
 30
0.0
 10
40.76310651906046
 20
-39.27892443930857
 30
0.0
 10
40.76310651906046
 20
-41.72032444774818
 30
0.0
 10
40.76310651906046
 20
-41.72032444774818
 30
0.0
 10
40.76310651906046
 20
-41.72032444774818
 30
0.0
 10
42.80970674513597
 20
-41.72032444774818
 30
0.0
 10
42.80970674513597
 20
-41.72032444774818
 30
0.0
 10
42.80970674513597
 20
-41.72032444774818
 30
0.0
 10
42.80970674513597
 20
-42.0203244307852
 30
0.0
 10
42.80970674513597
 20
-42.0203244307852
 30
0.0
 10
42.80970674513597
 20
-42.0203244307852
 30
0.0
 10
45.58210649071896
 20
-42.0203244307852
 30
0.0
 10
45.58210649071896
 20
-42.0203244307852
 30
0.0
 10
45.58210649071896
 20
-42.0203244307852
 30
0.0
 10
45.58210649071896
 20
-41.72032444774818
 30
0.0
 10
45.58210649071896
 20
-41.72032444774818
 30
0.0
 10
45.58210649071896
 20
-41.72032444774818
 30
0.0
 10
48.3545062363024
 20
-41.72032444774818
 30
0.0
 10
48.3545062363024
 20
-41.72032444774818
 30
0.0
 10
48.3545062363024
 20
-41.72032444774818
 30
0.0
 10
48.3545062363024
 20
-42.0203244307852
 30
0.0
 10
48.3545062363024
 20
-42.0203244307852
 30
0.0
 10
48.3545062363024
 20
-42.0203244307852
 30
0.0
 10
51.12690598188539
 20
-42.0203244307852
 30
0.0
 10
51.12690598188539
 20
-42.0203244307852
 30
0.0
 10
51.12690598188539
 20
-42.0203244307852
 30
0.0
 10
51.12690598188539
 20
-41.72032444774818
 30
0.0
 10
51.12690598188539
 20
-41.72032444774818
 30
0.0
 10
51.12690598188539
 20
-41.72032444774818
 30
0.0
 10
53.89930572746837
 20
-41.72032444774818
 30
0.0
 10
53.89930572746837
 20
-41.72032444774818
 30
0.0
 10
53.89930572746837
 20
-41.72032444774818
 30
0.0
 10
53.89930572746837
 20
-42.0203244307852
 30
0.0
 10
53.89930572746837
 20
-42.0203244307852
 30
0.0
 10
53.89930572746837
 20
-42.0203244307852
 30
0.0
 10
56.67170547305174
 20
-42.0203244307852
 30
0.0
 10
56.67170547305174
 20
-42.0203244307852
 30
0.0
 10
56.67170547305174
 20
-42.0203244307852
 30
0.0
 10
56.67170547305174
 20
-41.72032444774818
 30
0.0
 10
56.67170547305174
 20
-41.72032444774818
 30
0.0
 10
56.67170547305174
 20
-41.72032444774818
 30
0.0
 10
59.44410521863479
 20
-41.72032444774818
 30
0.0
 10
59.44410521863479
 20
-41.72032444774818
 30
0.0
 10
59.44410521863479
 20
-41.72032444774818
 30
0.0
 10
59.44410521863479
 20
-42.0203244307852
 30
0.0
 10
59.44410521863479
 20
-42.0203244307852
 30
0.0
 10
59.44410521863479
 20
-42.0203244307852
 30
0.0
 10
62.21650496421816
 20
-42.0203244307852
 30
0.0
 10
62.21650496421816
 20
-42.0203244307852
 30
0.0
 10
62.21650496421816
 20
-42.0203244307852
 30
0.0
 10
62.21650496421816
 20
-41.72032444774818
 30
0.0
 10
62.21650496421816
 20
-41.72032444774818
 30
0.0
 10
62.21650496421816
 20
-41.72032444774818
 30
0.0
 10
64.26310519029328
 20
-41.72032444774818
 30
0.0
 10
64.26310519029328
 20
-41.72032444774818
 30
0.0
 10
64.26310519029328
 20
-41.72032444774818
 30
0.0
 10
64.26310519029328
 20
-39.27892443930857
 30
0.0
 10
64.26310519029328
 20
-39.27892443930857
 30
0.0
 10
64.26310519029328
 20
-39.27892443930857
 30
0.0
 10
64.56310517333037
 20
-39.27892443930857
 30
0.0
 10
64.56310517333037
 20
-39.27892443930857
 30
0.0
 10
64.56310517333037
 20
-39.27892443930857
 30
0.0
 10
64.56310517333037
 20
-36.50652469372526
 30
0.0
 10
64.56310517333037
 20
-36.50652469372526
 30
0.0
 10
64.56310517333037
 20
-36.50652469372526
 30
0.0
 10
64.26310519029328
 20
-36.50652469372526
 30
0.0
 10
64.26310519029328
 20
-36.50652469372526
 30
0.0
 10
64.26310519029328
 20
-36.50652469372526
 30
0.0
 10
64.26310519029328
 20
-33.73412494814221
 30
0.0
 10
64.26310519029328
 20
-33.73412494814221
 30
0.0
 10
64.26310519029328
 20
-33.73412494814221
 30
0.0
 10
64.56310517333037
 20
-33.73412494814221
 30
0.0
 10
64.56310517333037
 20
-33.73412494814221
 30
0.0
 10
64.56310517333037
 20
-33.73412494814221
 30
0.0
 10
64.56310517333037
 20
-30.96172520255891
 30
0.0
 10
64.56310517333037
 20
-30.96172520255891
 30
0.0
 10
64.56310517333037
 20
-30.96172520255891
 30
0.0
 10
64.26310519029328
 20
-30.96172520255891
 30
0.0
 10
64.26310519029328
 20
-30.96172520255891
 30
0.0
 10
64.26310519029328
 20
-30.96172520255891
 30
0.0
 10
64.26310519029328
 20
-28.52032519411942
 30
0.0
 10
64.26310519029328
 20
-28.52032519411942
 30
0.0
 10
64.26310519029328
 20
-28.52032519411942
 30
0.0
 10
62.21650496421816
 20
-28.52032519411942
 30
0.0
 10
62.21650496421816
 20
-28.52032519411942
 30
0.0
 10
62.21650496421816
 20
-28.52032519411942
 30
0.0
 10
62.21650496421816
 20
-28.22032521108228
 30
0.0
 10
62.21650496421816
 20
-28.22032521108228
 30
0.0
 10
62.21650496421816
 20
-28.22032521108228
 30
0.0
 10
59.44410521863479
 20
-28.22032521108228
 30
0.0
 10
59.44410521863479
 20
-28.22032521108228
 30
0.0
 10
59.44410521863479
 20
-28.22032521108228
 30
0.0
 10
59.44410521863479
 20
-28.52032519411942
 30
0.0
 10
59.44410521863479
 20
-28.52032519411942
 30
0.0
 10
59.44410521863479
 20
-28.52032519411942
 30
0.0
 10
56.67170547305174
 20
-28.52032519411942
 30
0.0
 10
56.67170547305174
 20
-28.52032519411942
 30
0.0
 10
56.67170547305174
 20
-28.52032519411942
 30
0.0
 10
56.67170547305174
 20
-28.22032521108228
 30
0.0
 10
56.67170547305174
 20
-28.22032521108228
 30
0.0
 10
56.67170547305174
 20
-28.22032521108228
 30
0.0
 10
53.89930572746837
 20
-28.22032521108228
 30
0.0
 10
53.89930572746837
 20
-28.22032521108228
 30
0.0
 10
53.89930572746837
 20
-28.22032521108228
 30
0.0
 10
53.89930572746837
 20
-28.52032519411942
 30
0.0
 10
53.89930572746837
 20
-28.52032519411942
 30
0.0
 10
53.89930572746837
 20
-28.52032519411942
 30
0.0
 10
51.12690598188539
 20
-28.52032519411942
 30
0.0
 10
51.12690598188539
 20
-28.52032519411942
 30
0.0
 10
51.12690598188539
 20
-28.52032519411942
 30
0.0
 10
51.12690598188539
 20
-28.22032521108228
 30
0.0
 10
51.12690598188539
 20
-28.22032521108228
 30
0.0
 10
51.12690598188539
 20
-28.22032521108228
 30
0.0
 10
48.3545062363024
 20
-28.22032521108228
 30
0.0
 10
48.3545062363024
 20
-28.22032521108228
 30
0.0
 10
48.3545062363024
 20
-28.22032521108228
 30
0.0
 10
48.3545062363024
 20
-28.52032519411942
 30
0.0
 10
48.3545062363024
 20
-28.52032519411942
 30
0.0
 10
48.3545062363024
 20
-28.52032519411942
 30
0.0
 10
45.58210649071896
 20
-28.52032519411942
 30
0.0
 10
45.58210649071896
 20
-28.52032519411942
 30
0.0
 10
45.58210649071896
 20
-28.52032519411942
 30
0.0
 10
45.58210649071896
 20
-28.22032521108228
 30
0.0
 10
45.58210649071896
 20
-28.22032521108228
 30
0.0
 10
45.58210649071896
 20
-28.22032521108228
 30
0.0
 10
42.80970674513597
 20
-28.22032521108228
 30
0.0
 10
42.80970674513597
 20
-28.22032521108228
 30
0.0
 10
42.80970674513597
 20
-28.22032521108228
 30
0.0
 10
42.80970674513597
 20
-28.52032519411942
 30
0.0
 10
42.80970674513597
 20
-28.52032519411942
 30
0.0
 10
42.80970674513597
 20
-28.52032519411942
 30
0.0
 10
40.76310651906046
 20
-28.52032519411942
 30
0.0
 10
40.76310651906046
 20
-28.52032519411942
 30
0.0
  0
SPLINE
  5
7C
330
70
100
AcDbEntity
  8
box
 62
     1
370
     9
100
AcDbSpline
210
0.0
220
0.0
230
1.0
 70
    11
 71
     3
 72
   209
 73
   205
 74
     0
 42
0.0000000001
 43
0.0000000001
 40
0.0
 40
0.0
 40
0.0
 40
0.0
 40
1.0
 40
1.0
 40
1.0
 40
2.0
 40
2.0
 40
2.0
 40
3.0
 40
3.0
 40
3.0
 40
4.0
 40
4.0
 40
4.0
 40
5.0
 40
5.0
 40
5.0
 40
6.0
 40
6.0
 40
6.0
 40
7.0
 40
7.0
 40
7.0
 40
8.0
 40
8.0
 40
8.0
 40
9.0
 40
9.0
 40
9.0
 40
10.0
 40
10.0
 40
10.0
 40
11.0
 40
11.0
 40
11.0
 40
12.0
 40
12.0
 40
12.0
 40
13.0
 40
13.0
 40
13.0
 40
14.0
 40
14.0
 40
14.0
 40
15.0
 40
15.0
 40
15.0
 40
16.0
 40
16.0
 40
16.0
 40
17.0
 40
17.0
 40
17.0
 40
18.0
 40
18.0
 40
18.0
 40
19.0
 40
19.0
 40
19.0
 40
20.0
 40
20.0
 40
20.0
 40
21.0
 40
21.0
 40
21.0
 40
22.0
 40
22.0
 40
22.0
 40
23.0
 40
23.0
 40
23.0
 40
24.0
 40
24.0
 40
24.0
 40
25.0
 40
25.0
 40
25.0
 40
26.0
 40
26.0
 40
26.0
 40
27.0
 40
27.0
 40
27.0
 40
28.0
 40
28.0
 40
28.0
 40
29.0
 40
29.0
 40
29.0
 40
30.0
 40
30.0
 40
30.0
 40
31.0
 40
31.0
 40
31.0
 40
32.0
 40
32.0
 40
32.0
 40
33.0
 40
33.0
 40
33.0
 40
34.0
 40
34.0
 40
34.0
 40
35.0
 40
35.0
 40
35.0
 40
36.0
 40
36.0
 40
36.0
 40
37.0
 40
37.0
 40
37.0
 40
38.0
 40
38.0
 40
38.0
 40
39.0
 40
39.0
 40
39.0
 40
40.0
 40
40.0
 40
40.0
 40
41.0
 40
41.0
 40
41.0
 40
42.0
 40
42.0
 40
42.0
 40
43.0
 40
43.0
 40
43.0
 40
44.0
 40
44.0
 40
44.0
 40
45.0
 40
45.0
 40
45.0
 40
46.0
 40
46.0
 40
46.0
 40
47.0
 40
47.0
 40
47.0
 40
48.0
 40
48.0
 40
48.0
 40
49.0
 40
49.0
 40
49.0
 40
50.0
 40
50.0
 40
50.0
 40
51.0
 40
51.0
 40
51.0
 40
52.0
 40
52.0
 40
52.0
 40
53.0
 40
53.0
 40
53.0
 40
54.0
 40
54.0
 40
54.0
 40
55.0
 40
55.0
 40
55.0
 40
56.0
 40
56.0
 40
56.0
 40
57.0
 40
57.0
 40
57.0
 40
58.0
 40
58.0
 40
58.0
 40
59.0
 40
59.0
 40
59.0
 40
60.0
 40
60.0
 40
60.0
 40
61.0
 40
61.0
 40
61.0
 40
62.0
 40
62.0
 40
62.0
 40
63.0
 40
63.0
 40
63.0
 40
64.0
 40
64.0
 40
64.0
 40
65.0
 40
65.0
 40
65.0
 40
66.0
 40
66.0
 40
66.0
 40
67.0
 40
67.0
 40
67.0
 40
68.0
 40
68.0
 40
68.0
 40
68.0
 10
40.5759905303138
 20
-2.204644125484798
 30
0.0
 10
40.5759905303138
 20
-2.204644125484798
 30
0.0
 10
40.5759905303138
 20
-5.301243910720041
 30
0.0
 10
40.5759905303138
 20
-5.301243910720041
 30
0.0
 10
40.5759905303138
 20
-5.301243910720041
 30
0.0
 10
40.87599051335081
 20
-5.301243910720041
 30
0.0
 10
40.87599051335081
 20
-5.301243910720041
 30
0.0
 10
40.87599051335081
 20
-5.301243910720041
 30
0.0
 10
40.87599051335081
 20
-8.073643656303186
 30
0.0
 10
40.87599051335081
 20
-8.073643656303186
 30
0.0
 10
40.87599051335081
 20
-8.073643656303186
 30
0.0
 10
40.5759905303138
 20
-8.073643656303186
 30
0.0
 10
40.5759905303138
 20
-8.073643656303186
 30
0.0
 10
40.5759905303138
 20
-8.073643656303186
 30
0.0
 10
40.5759905303138
 20
-10.8460437833561
 30
0.0
 10
40.5759905303138
 20
-10.8460437833561
 30
0.0
 10
40.5759905303138
 20
-10.8460437833561
 30
0.0
 10
40.87599051335081
 20
-10.8460437833561
 30
0.0
 10
40.87599051335081
 20
-10.8460437833561
 30
0.0
 10
40.87599051335081
 20
-10.8460437833561
 30
0.0
 10
40.87599051335081
 20
-13.61844352893928
 30
0.0
 10
40.87599051335081
 20
-13.61844352893928
 30
0.0
 10
40.87599051335081
 20
-13.61844352893928
 30
0.0
 10
40.5759905303138
 20
-13.61844352893928
 30
0.0
 10
40.5759905303138
 20
-13.61844352893928
 30
0.0
 10
40.5759905303138
 20
-13.61844352893928
 30
0.0
 10
40.5759905303138
 20
-16.39084327452249
 30
0.0
 10
40.5759905303138
 20
-16.39084327452249
 30
0.0
 10
40.5759905303138
 20
-16.39084327452249
 30
0.0
 10
40.87599051335081
 20
-16.39084327452249
 30
0.0
 10
40.87599051335081
 20
-16.39084327452249
 30
0.0
 10
40.87599051335081
 20
-16.39084327452249
 30
0.0
 10
40.87599051335081
 20
-19.16324302010567
 30
0.0
 10
40.87599051335081
 20
-19.16324302010567
 30
0.0
 10
40.87599051335081
 20
-19.16324302010567
 30
0.0
 10
40.5759905303138
 20
-19.16324302010567
 30
0.0
 10
40.5759905303138
 20
-19.16324302010567
 30
0.0
 10
40.5759905303138
 20
-19.16324302010567
 30
0.0
 10
40.5759905303138
 20
-21.93564276568885
 30
0.0
 10
40.5759905303138
 20
-21.93564276568885
 30
0.0
 10
40.5759905303138
 20
-21.93564276568885
 30
0.0
 10
40.87599051335081
 20
-21.93564276568885
 30
0.0
 10
40.87599051335081
 20
-21.93564276568885
 30
0.0
 10
40.87599051335081
 20
-21.93564276568885
 30
0.0
 10
40.87599051335081
 20
-24.70804251127202
 30
0.0
 10
40.87599051335081
 20
-24.70804251127202
 30
0.0
 10
40.87599051335081
 20
-24.70804251127202
 30
0.0
 10
40.5759905303138
 20
-24.70804251127202
 30
0.0
 10
40.5759905303138
 20
-24.70804251127202
 30
0.0
 10
40.5759905303138
 20
-24.70804251127202
 30
0.0
 10
40.5759905303138
 20
-27.80464267797694
 30
0.0
 10
40.5759905303138
 20
-27.80464267797694
 30
0.0
 10
40.5759905303138
 20
-27.80464267797694
 30
0.0
 10
42.92259035795647
 20
-27.80464267797694
 30
0.0
 10
42.92259035795647
 20
-27.80464267797694
 30
0.0
 10
42.92259035795647
 20
-27.80464267797694
 30
0.0
 10
42.92259035795647
 20
-27.50464269493996
 30
0.0
 10
42.92259035795647
 20
-27.50464269493996
 30
0.0
 10
42.92259035795647
 20
-27.50464269493996
 30
0.0
 10
45.69499010353965
 20
-27.50464269493996
 30
0.0
 10
45.69499010353965
 20
-27.50464269493996
 30
0.0
 10
45.69499010353965
 20
-27.50464269493996
 30
0.0
 10
45.69499010353965
 20
-27.80464267797694
 30
0.0
 10
45.69499010353965
 20
-27.80464267797694
 30
0.0
 10
45.69499010353965
 20
-27.80464267797694
 30
0.0
 10
48.46739023059257
 20
-27.80464267797694
 30
0.0
 10
48.46739023059257
 20
-27.80464267797694
 30
0.0
 10
48.46739023059257
 20
-27.80464267797694
 30
0.0
 10
48.46739023059257
 20
-27.50464269493996
 30
0.0
 10
48.46739023059257
 20
-27.50464269493996
 30
0.0
 10
48.46739023059257
 20
-27.50464269493996
 30
0.0
 10
51.23978997617574
 20
-27.50464269493996
 30
0.0
 10
51.23978997617574
 20
-27.50464269493996
 30
0.0
 10
51.23978997617574
 20
-27.50464269493996
 30
0.0
 10
51.23978997617574
 20
-27.80464267797694
 30
0.0
 10
51.23978997617574
 20
-27.80464267797694
 30
0.0
 10
51.23978997617574
 20
-27.80464267797694
 30
0.0
 10
54.01218972175892
 20
-27.80464267797694
 30
0.0
 10
54.01218972175892
 20
-27.80464267797694
 30
0.0
 10
54.01218972175892
 20
-27.80464267797694
 30
0.0
 10
54.01218972175892
 20
-27.50464269493996
 30
0.0
 10
54.01218972175892
 20
-27.50464269493996
 30
0.0
 10
54.01218972175892
 20
-27.50464269493996
 30
0.0
 10
56.7845894673421
 20
-27.50464269493996
 30
0.0
 10
56.7845894673421
 20
-27.50464269493996
 30
0.0
 10
56.7845894673421
 20
-27.50464269493996
 30
0.0
 10
56.7845894673421
 20
-27.80464267797694
 30
0.0
 10
56.7845894673421
 20
-27.80464267797694
 30
0.0
 10
56.7845894673421
 20
-27.80464267797694
 30
0.0
 10
59.55698921292528
 20
-27.80464267797694
 30
0.0
 10
59.55698921292528
 20
-27.80464267797694
 30
0.0
 10
59.55698921292528
 20
-27.80464267797694
 30
0.0
 10
59.55698921292528
 20
-27.50464269493996
 30
0.0
 10
59.55698921292528
 20
-27.50464269493996
 30
0.0
 10
59.55698921292528
 20
-27.50464269493996
 30
0.0
 10
62.32938895850845
 20
-27.50464269493996
 30
0.0
 10
62.32938895850845
 20
-27.50464269493996
 30
0.0
 10
62.32938895850845
 20
-27.50464269493996
 30
0.0
 10
62.32938895850845
 20
-27.80464267797694
 30
0.0
 10
62.32938895850845
 20
-27.80464267797694
 30
0.0
 10
62.32938895850845
 20
-27.80464267797694
 30
0.0
 10
64.67598916762085
 20
-27.80464267797694
 30
0.0
 10
64.67598916762085
 20
-27.80464267797694
 30
0.0
 10
64.67598916762085
 20
-27.80464267797694
 30
0.0
 10
64.67598916762085
 20
-24.70804251127202
 30
0.0
 10
64.67598916762085
 20
-24.70804251127202
 30
0.0
 10
64.67598916762085
 20
-24.70804251127202
 30
0.0
 10
64.37598918458384
 20
-24.70804251127202
 30
0.0
 10
64.37598918458384
 20
-24.70804251127202
 30
0.0
 10
64.37598918458384
 20
-24.70804251127202
 30
0.0
 10
64.37598918458384
 20
-21.93564276568885
 30
0.0
 10
64.37598918458384
 20
-21.93564276568885
 30
0.0
 10
64.37598918458384
 20
-21.93564276568885
 30
0.0
 10
64.67598916762085
 20
-21.93564276568885
 30
0.0
 10
64.67598916762085
 20
-21.93564276568885
 30
0.0
 10
64.67598916762085
 20
-21.93564276568885
 30
0.0
 10
64.67598916762085
 20
-19.16324302010567
 30
0.0
 10
64.67598916762085
 20
-19.16324302010567
 30
0.0
 10
64.67598916762085
 20
-19.16324302010567
 30
0.0
 10
64.37598918458384
 20
-19.16324302010567
 30
0.0
 10
64.37598918458384
 20
-19.16324302010567
 30
0.0
 10
64.37598918458384
 20
-19.16324302010567
 30
0.0
 10
64.37598918458384
 20
-16.39084327452249
 30
0.0
 10
64.37598918458384
 20
-16.39084327452249
 30
0.0
 10
64.37598918458384
 20
-16.39084327452249
 30
0.0
 10
64.67598916762085
 20
-16.39084327452249
 30
0.0
 10
64.67598916762085
 20
-16.39084327452249
 30
0.0
 10
64.67598916762085
 20
-16.39084327452249
 30
0.0
 10
64.67598916762085
 20
-13.61844352893928
 30
0.0
 10
64.67598916762085
 20
-13.61844352893928
 30
0.0
 10
64.67598916762085
 20
-13.61844352893928
 30
0.0
 10
64.37598918458384
 20
-13.61844352893928
 30
0.0
 10
64.37598918458384
 20
-13.61844352893928
 30
0.0
 10
64.37598918458384
 20
-13.61844352893928
 30
0.0
 10
64.37598918458384
 20
-10.8460437833561
 30
0.0
 10
64.37598918458384
 20
-10.8460437833561
 30
0.0
 10
64.37598918458384
 20
-10.8460437833561
 30
0.0
 10
64.67598916762085
 20
-10.8460437833561
 30
0.0
 10
64.67598916762085
 20
-10.8460437833561
 30
0.0
 10
64.67598916762085
 20
-10.8460437833561
 30
0.0
 10
64.67598916762085
 20
-8.073643656303186
 30
0.0
 10
64.67598916762085
 20
-8.073643656303186
 30
0.0
 10
64.67598916762085
 20
-8.073643656303186
 30
0.0
 10
64.37598918458384
 20
-8.073643656303186
 30
0.0
 10
64.37598918458384
 20
-8.073643656303186
 30
0.0
 10
64.37598918458384
 20
-8.073643656303186
 30
0.0
 10
64.37598918458384
 20
-5.301243910720041
 30
0.0
 10
64.37598918458384
 20
-5.301243910720041
 30
0.0
 10
64.37598918458384
 20
-5.301243910720041
 30
0.0
 10
64.67598916762085
 20
-5.301243910720041
 30
0.0
 10
64.67598916762085
 20
-5.301243910720041
 30
0.0
 10
64.67598916762085
 20
-5.301243910720041
 30
0.0
 10
64.67598916762085
 20
-2.204644125484798
 30
0.0
 10
64.67598916762085
 20
-2.204644125484798
 30
0.0
 10
64.67598916762085
 20
-2.204644125484798
 30
0.0
 10
62.32938895850845
 20
-2.204644125484798
 30
0.0
 10
62.32938895850845
 20
-2.204644125484798
 30
0.0
 10
62.32938895850845
 20
-2.204644125484798
 30
0.0
 10
62.32938895850845
 20
-2.504644108521815
 30
0.0
 10
62.32938895850845
 20
-2.504644108521815
 30
0.0
 10
62.32938895850845
 20
-2.504644108521815
 30
0.0
 10
59.55698921292528
 20
-2.504644108521815
 30
0.0
 10
59.55698921292528
 20
-2.504644108521815
 30
0.0
 10
59.55698921292528
 20
-2.504644108521815
 30
0.0
 10
59.55698921292528
 20
-2.204644125484798
 30
0.0
 10
59.55698921292528
 20
-2.204644125484798
 30
0.0
 10
59.55698921292528
 20
-2.204644125484798
 30
0.0
 10
56.7845894673421
 20
-2.204644125484798
 30
0.0
 10
56.7845894673421
 20
-2.204644125484798
 30
0.0
 10
56.7845894673421
 20
-2.204644125484798
 30
0.0
 10
56.7845894673421
 20
-2.504644108521815
 30
0.0
 10
56.7845894673421
 20
-2.504644108521815
 30
0.0
 10
56.7845894673421
 20
-2.504644108521815
 30
0.0
 10
54.01218972175892
 20
-2.504644108521815
 30
0.0
 10
54.01218972175892
 20
-2.504644108521815
 30
0.0
 10
54.01218972175892
 20
-2.504644108521815
 30
0.0
 10
54.01218972175892
 20
-2.204644125484798
 30
0.0
 10
54.01218972175892
 20
-2.204644125484798
 30
0.0
 10
54.01218972175892
 20
-2.204644125484798
 30
0.0
 10
51.23978997617574
 20
-2.204644125484798
 30
0.0
 10
51.23978997617574
 20
-2.204644125484798
 30
0.0
 10
51.23978997617574
 20
-2.204644125484798
 30
0.0
 10
51.23978997617574
 20
-2.504644108521815
 30
0.0
 10
51.23978997617574
 20
-2.504644108521815
 30
0.0
 10
51.23978997617574
 20
-2.504644108521815
 30
0.0
 10
48.46739023059257
 20
-2.504644108521815
 30
0.0
 10
48.46739023059257
 20
-2.504644108521815
 30
0.0
 10
48.46739023059257
 20
-2.504644108521815
 30
0.0
 10
48.46739023059257
 20
-2.204644125484798
 30
0.0
 10
48.46739023059257
 20
-2.204644125484798
 30
0.0
 10
48.46739023059257
 20
-2.204644125484798
 30
0.0
 10
45.69499010353965
 20
-2.204644125484798
 30
0.0
 10
45.69499010353965
 20
-2.204644125484798
 30
0.0
 10
45.69499010353965
 20
-2.204644125484798
 30
0.0
 10
45.69499010353965
 20
-2.504644108521815
 30
0.0
 10
45.69499010353965
 20
-2.504644108521815
 30
0.0
 10
45.69499010353965
 20
-2.504644108521815
 30
0.0
 10
42.92259035795647
 20
-2.504644108521815
 30
0.0
 10
42.92259035795647
 20
-2.504644108521815
 30
0.0
 10
42.92259035795647
 20
-2.504644108521815
 30
0.0
 10
42.92259035795647
 20
-2.204644125484798
 30
0.0
 10
42.92259035795647
 20
-2.204644125484798
 30
0.0
 10
42.92259035795647
 20
-2.204644125484798
 30
0.0
 10
40.5759905303138
 20
-2.204644125484798
 30
0.0
 10
40.5759905303138
 20
-2.204644125484798
 30
0.0
  0
SPLINE
  5
7D
330
70
100
AcDbEntity
  8
box
 62
     1
370
     9
100
AcDbSpline
210
0.0
220
0.0
230
1.0
 70
    11
 71
     3
 72
   161
 73
   157
 74
     0
 42
0.0000000001
 43
0.0000000001
 40
0.0
 40
0.0
 40
0.0
 40
0.0
 40
1.0
 40
1.0
 40
1.0
 40
2.0
 40
2.0
 40
2.0
 40
3.0
 40
3.0
 40
3.0
 40
4.0
 40
4.0
 40
4.0
 40
5.0
 40
5.0
 40
5.0
 40
6.0
 40
6.0
 40
6.0
 40
7.0
 40
7.0
 40
7.0
 40
8.0
 40
8.0
 40
8.0
 40
9.0
 40
9.0
 40
9.0
 40
10.0
 40
10.0
 40
10.0
 40
11.0
 40
11.0
 40
11.0
 40
12.0
 40
12.0
 40
12.0
 40
13.0
 40
13.0
 40
13.0
 40
14.0
 40
14.0
 40
14.0
 40
15.0
 40
15.0
 40
15.0
 40
16.0
 40
16.0
 40
16.0
 40
17.0
 40
17.0
 40
17.0
 40
18.0
 40
18.0
 40
18.0
 40
19.0
 40
19.0
 40
19.0
 40
20.0
 40
20.0
 40
20.0
 40
21.0
 40
21.0
 40
21.0
 40
22.0
 40
22.0
 40
22.0
 40
23.0
 40
23.0
 40
23.0
 40
24.0
 40
24.0
 40
24.0
 40
25.0
 40
25.0
 40
25.0
 40
26.0
 40
26.0
 40
26.0
 40
27.0
 40
27.0
 40
27.0
 40
28.0
 40
28.0
 40
28.0
 40
29.0
 40
29.0
 40
29.0
 40
30.0
 40
30.0
 40
30.0
 40
31.0
 40
31.0
 40
31.0
 40
32.0
 40
32.0
 40
32.0
 40
33.0
 40
33.0
 40
33.0
 40
34.0
 40
34.0
 40
34.0
 40
35.0
 40
35.0
 40
35.0
 40
36.0
 40
36.0
 40
36.0
 40
37.0
 40
37.0
 40
37.0
 40
38.0
 40
38.0
 40
38.0
 40
39.0
 40
39.0
 40
39.0
 40
40.0
 40
40.0
 40
40.0
 40
41.0
 40
41.0
 40
41.0
 40
42.0
 40
42.0
 40
42.0
 40
43.0
 40
43.0
 40
43.0
 40
44.0
 40
44.0
 40
44.0
 40
45.0
 40
45.0
 40
45.0
 40
46.0
 40
46.0
 40
46.0
 40
47.0
 40
47.0
 40
47.0
 40
48.0
 40
48.0
 40
48.0
 40
49.0
 40
49.0
 40
49.0
 40
50.0
 40
50.0
 40
50.0
 40
51.0
 40
51.0
 40
51.0
 40
52.0
 40
52.0
 40
52.0
 40
52.0
 10
2.108180002270667
 20
-15.60011055186726
 30
0.0
 10
2.108180002270667
 20
-15.60011055186726
 30
0.0
 10
5.204779787505943
 20
-15.60011055186726
 30
0.0
 10
5.204779787505943
 20
-15.60011055186726
 30
0.0
 10
5.204779787505943
 20
-15.60011055186726
 30
0.0
 10
5.204779787505943
 20
-15.90011053490428
 30
0.0
 10
5.204779787505943
 20
-15.90011053490428
 30
0.0
 10
5.204779787505943
 20
-15.90011053490428
 30
0.0
 10
7.977179533089056
 20
-15.90011053490428
 30
0.0
 10
7.977179533089056
 20
-15.90011053490428
 30
0.0
 10
7.977179533089056
 20
-15.90011053490428
 30
0.0
 10
7.977179533089056
 20
-15.60011055186726
 30
0.0
 10
7.977179533089056
 20
-15.60011055186726
 30
0.0
 10
7.977179533089056
 20
-15.60011055186726
 30
0.0
 10
10.74957966014197
 20
-15.60011055186726
 30
0.0
 10
10.74957966014197
 20
-15.60011055186726
 30
0.0
 10
10.74957966014197
 20
-15.60011055186726
 30
0.0
 10
10.74957966014197
 20
-15.90011053490428
 30
0.0
 10
10.74957966014197
 20
-15.90011053490428
 30
0.0
 10
10.74957966014197
 20
-15.90011053490428
 30
0.0
 10
13.52197940572515
 20
-15.90011053490428
 30
0.0
 10
13.52197940572515
 20
-15.90011053490428
 30
0.0
 10
13.52197940572515
 20
-15.90011053490428
 30
0.0
 10
13.52197940572515
 20
-15.60011055186726
 30
0.0
 10
13.52197940572515
 20
-15.60011055186726
 30
0.0
 10
13.52197940572515
 20
-15.60011055186726
 30
0.0
 10
16.29437915130832
 20
-15.60011055186726
 30
0.0
 10
16.29437915130832
 20
-15.60011055186726
 30
0.0
 10
16.29437915130832
 20
-15.60011055186726
 30
0.0
 10
16.29437915130832
 20
-15.90011053490428
 30
0.0
 10
16.29437915130832
 20
-15.90011053490428
 30
0.0
 10
16.29437915130832
 20
-15.90011053490428
 30
0.0
 10
19.0667788968915
 20
-15.90011053490428
 30
0.0
 10
19.0667788968915
 20
-15.90011053490428
 30
0.0
 10
19.0667788968915
 20
-15.90011053490428
 30
0.0
 10
19.0667788968915
 20
-15.60011055186726
 30
0.0
 10
19.0667788968915
 20
-15.60011055186726
 30
0.0
 10
19.0667788968915
 20
-15.60011055186726
 30
0.0
 10
21.83917864247469
 20
-15.60011055186726
 30
0.0
 10
21.83917864247469
 20
-15.60011055186726
 30
0.0
 10
21.83917864247469
 20
-15.60011055186726
 30
0.0
 10
21.83917864247469
 20
-15.90011053490428
 30
0.0
 10
21.83917864247469
 20
-15.90011053490428
 30
0.0
 10
21.83917864247469
 20
-15.90011053490428
 30
0.0
 10
24.61157838805793
 20
-15.90011053490428
 30
0.0
 10
24.61157838805793
 20
-15.90011053490428
 30
0.0
 10
24.61157838805793
 20
-15.90011053490428
 30
0.0
 10
24.61157838805793
 20
-15.60011055186726
 30
0.0
 10
24.61157838805793
 20
-15.60011055186726
 30
0.0
 10
24.61157838805793
 20
-15.60011055186726
 30
0.0
 10
27.70817855476288
 20
-15.60011055186726
 30
0.0
 10
27.70817855476288
 20
-15.60011055186726
 30
0.0
 10
27.70817855476288
 20
-15.60011055186726
 30
0.0
 10
27.70817855476288
 20
-13.15871054342765
 30
0.0
 10
27.70817855476288
 20
-13.15871054342765
 30
0.0
 10
27.70817855476288
 20
-13.15871054342765
 30
0.0
 10
27.40817857172586
 20
-13.15871054342765
 30
0.0
 10
27.40817857172586
 20
-13.15871054342765
 30
0.0
 10
27.40817857172586
 20
-13.15871054342765
 30
0.0
 10
27.40817857172586
 20
-10.38631079784447
 30
0.0
 10
27.40817857172586
 20
-10.38631079784447
 30
0.0
 10
27.40817857172586
 20
-10.38631079784447
 30
0.0
 10
27.70817855476288
 20
-10.38631079784447
 30
0.0
 10
27.70817855476288
 20
-10.38631079784447
 30
0.0
 10
27.70817855476288
 20
-10.38631079784447
 30
0.0
 10
27.70817855476288
 20
-7.613911052261295
 30
0.0
 10
27.70817855476288
 20
-7.613911052261295
 30
0.0
 10
27.70817855476288
 20
-7.613911052261295
 30
0.0
 10
27.40817857172586
 20
-7.613911052261295
 30
0.0
 10
27.40817857172586
 20
-7.613911052261295
 30
0.0
 10
27.40817857172586
 20
-7.613911052261295
 30
0.0
 10
27.40817857172586
 20
-4.841511306678053
 30
0.0
 10
27.40817857172586
 20
-4.841511306678053
 30
0.0
 10
27.40817857172586
 20
-4.841511306678053
 30
0.0
 10
27.70817855476288
 20
-4.841511306678053
 30
0.0
 10
27.70817855476288
 20
-4.841511306678053
 30
0.0
 10
27.70817855476288
 20
-4.841511306678053
 30
0.0
 10
27.70817855476288
 20
-2.400111298238567
 30
0.0
 10
27.70817855476288
 20
-2.400111298238567
 30
0.0
 10
27.70817855476288
 20
-2.400111298238567
 30
0.0
 10
24.61157838805793
 20
-2.400111298238567
 30
0.0
 10
24.61157838805793
 20
-2.400111298238567
 30
0.0
 10
24.61157838805793
 20
-2.400111298238567
 30
0.0
 10
24.61157838805793
 20
-2.10011131520155
 30
0.0
 10
24.61157838805793
 20
-2.10011131520155
 30
0.0
 10
24.61157838805793
 20
-2.10011131520155
 30
0.0
 10
21.83917864247469
 20
-2.10011131520155
 30
0.0
 10
21.83917864247469
 20
-2.10011131520155
 30
0.0
 10
21.83917864247469
 20
-2.10011131520155
 30
0.0
 10
21.83917864247469
 20
-2.400111298238567
 30
0.0
 10
21.83917864247469
 20
-2.400111298238567
 30
0.0
 10
21.83917864247469
 20
-2.400111298238567
 30
0.0
 10
19.0667788968915
 20
-2.400111298238567
 30
0.0
 10
19.0667788968915
 20
-2.400111298238567
 30
0.0
 10
19.0667788968915
 20
-2.400111298238567
 30
0.0
 10
19.0667788968915
 20
-2.10011131520155
 30
0.0
 10
19.0667788968915
 20
-2.10011131520155
 30
0.0
 10
19.0667788968915
 20
-2.10011131520155
 30
0.0
 10
16.29437915130832
 20
-2.10011131520155
 30
0.0
 10
16.29437915130832
 20
-2.10011131520155
 30
0.0
 10
16.29437915130832
 20
-2.10011131520155
 30
0.0
 10
16.29437915130832
 20
-2.400111298238567
 30
0.0
 10
16.29437915130832
 20
-2.400111298238567
 30
0.0
 10
16.29437915130832
 20
-2.400111298238567
 30
0.0
 10
13.52197940572515
 20
-2.400111298238567
 30
0.0
 10
13.52197940572515
 20
-2.400111298238567
 30
0.0
 10
13.52197940572515
 20
-2.400111298238567
 30
0.0
 10
13.52197940572515
 20
-2.10011131520155
 30
0.0
 10
13.52197940572515
 20
-2.10011131520155
 30
0.0
 10
13.52197940572515
 20
-2.10011131520155
 30
0.0
 10
10.74957966014197
 20
-2.10011131520155
 30
0.0
 10
10.74957966014197
 20
-2.10011131520155
 30
0.0
 10
10.74957966014197
 20
-2.10011131520155
 30
0.0
 10
10.74957966014197
 20
-2.400111298238567
 30
0.0
 10
10.74957966014197
 20
-2.400111298238567
 30
0.0
 10
10.74957966014197
 20
-2.400111298238567
 30
0.0
 10
7.977179533089056
 20
-2.400111298238567
 30
0.0
 10
7.977179533089056
 20
-2.400111298238567
 30
0.0
 10
7.977179533089056
 20
-2.400111298238567
 30
0.0
 10
7.977179533089056
 20
-2.10011131520155
 30
0.0
 10
7.977179533089056
 20
-2.10011131520155
 30
0.0
 10
7.977179533089056
 20
-2.10011131520155
 30
0.0
 10
5.204779787505943
 20
-2.10011131520155
 30
0.0
 10
5.204779787505943
 20
-2.10011131520155
 30
0.0
 10
5.204779787505943
 20
-2.10011131520155
 30
0.0
 10
5.204779787505943
 20
-2.400111298238567
 30
0.0
 10
5.204779787505943
 20
-2.400111298238567
 30
0.0
 10
5.204779787505943
 20
-2.400111298238567
 30
0.0
 10
2.1081800022707
 20
-2.400111298238567
 30
0.0
 10
2.1081800022707
 20
-2.400111298238567
 30
0.0
 10
2.1081800022707
 20
-2.400111298238567
 30
0.0
 10
2.1081800022707
 20
-4.841511306678053
 30
0.0
 10
2.1081800022707
 20
-4.841511306678053
 30
0.0
 10
2.1081800022707
 20
-4.841511306678053
 30
0.0
 10
2.408179985307717
 20
-4.841511306678053
 30
0.0
 10
2.408179985307717
 20
-4.841511306678053
 30
0.0
 10
2.408179985307717
 20
-4.841511306678053
 30
0.0
 10
2.408179985307684
 20
-7.613911052261295
 30
0.0
 10
2.408179985307684
 20
-7.613911052261295
 30
0.0
 10
2.408179985307684
 20
-7.613911052261295
 30
0.0
 10
2.108180002270667
 20
-7.613911052261295
 30
0.0
 10
2.108180002270667
 20
-7.613911052261295
 30
0.0
 10
2.108180002270667
 20
-7.613911052261295
 30
0.0
 10
2.108180002270667
 20
-10.38631079784447
 30
0.0
 10
2.108180002270667
 20
-10.38631079784447
 30
0.0
 10
2.108180002270667
 20
-10.38631079784447
 30
0.0
 10
2.408179985307684
 20
-10.38631079784447
 30
0.0
 10
2.408179985307684
 20
-10.38631079784447
 30
0.0
 10
2.408179985307684
 20
-10.38631079784447
 30
0.0
 10
2.408179985307684
 20
-13.15871054342765
 30
0.0
 10
2.408179985307684
 20
-13.15871054342765
 30
0.0
 10
2.408179985307684
 20
-13.15871054342765
 30
0.0
 10
2.108180002270667
 20
-13.15871054342765
 30
0.0
 10
2.108180002270667
 20
-13.15871054342765
 30
0.0
 10
2.108180002270667
 20
-13.15871054342765
 30
0.0
 10
2.108180002270667
 20
-15.60011055186726
 30
0.0
 10
2.108180002270667
 20
-15.60011055186726
 30
0.0
  0
SPLINE
  5
7E
330
70
100
AcDbEntity
  8
box
 62
     1
370
     9
100
AcDbSpline
210
0.0
220
0.0
230
1.0
 70
    11
 71
     3
 72
   161
 73
   157
 74
     0
 42
0.0000000001
 43
0.0000000001
 40
0.0
 40
0.0
 40
0.0
 40
0.0
 40
1.0
 40
1.0
 40
1.0
 40
2.0
 40
2.0
 40
2.0
 40
3.0
 40
3.0
 40
3.0
 40
4.0
 40
4.0
 40
4.0
 40
5.0
 40
5.0
 40
5.0
 40
6.0
 40
6.0
 40
6.0
 40
7.0
 40
7.0
 40
7.0
 40
8.0
 40
8.0
 40
8.0
 40
9.0
 40
9.0
 40
9.0
 40
10.0
 40
10.0
 40
10.0
 40
11.0
 40
11.0
 40
11.0
 40
12.0
 40
12.0
 40
12.0
 40
13.0
 40
13.0
 40
13.0
 40
14.0
 40
14.0
 40
14.0
 40
15.0
 40
15.0
 40
15.0
 40
16.0
 40
16.0
 40
16.0
 40
17.0
 40
17.0
 40
17.0
 40
18.0
 40
18.0
 40
18.0
 40
19.0
 40
19.0
 40
19.0
 40
20.0
 40
20.0
 40
20.0
 40
21.0
 40
21.0
 40
21.0
 40
22.0
 40
22.0
 40
22.0
 40
23.0
 40
23.0
 40
23.0
 40
24.0
 40
24.0
 40
24.0
 40
25.0
 40
25.0
 40
25.0
 40
26.0
 40
26.0
 40
26.0
 40
27.0
 40
27.0
 40
27.0
 40
28.0
 40
28.0
 40
28.0
 40
29.0
 40
29.0
 40
29.0
 40
30.0
 40
30.0
 40
30.0
 40
31.0
 40
31.0
 40
31.0
 40
32.0
 40
32.0
 40
32.0
 40
33.0
 40
33.0
 40
33.0
 40
34.0
 40
34.0
 40
34.0
 40
35.0
 40
35.0
 40
35.0
 40
36.0
 40
36.0
 40
36.0
 40
37.0
 40
37.0
 40
37.0
 40
38.0
 40
38.0
 40
38.0
 40
39.0
 40
39.0
 40
39.0
 40
40.0
 40
40.0
 40
40.0
 40
41.0
 40
41.0
 40
41.0
 40
42.0
 40
42.0
 40
42.0
 40
43.0
 40
43.0
 40
43.0
 40
44.0
 40
44.0
 40
44.0
 40
45.0
 40
45.0
 40
45.0
 40
46.0
 40
46.0
 40
46.0
 40
47.0
 40
47.0
 40
47.0
 40
48.0
 40
48.0
 40
48.0
 40
49.0
 40
49.0
 40
49.0
 40
50.0
 40
50.0
 40
50.0
 40
51.0
 40
51.0
 40
51.0
 40
52.0
 40
52.0
 40
52.0
 40
52.0
 10
65.38887312798525
 20
-41.81588465239816
 30
0.0
 10
65.38887312798525
 20
-41.81588465239816
 30
0.0
 10
67.83027313642486
 20
-41.81588465239816
 30
0.0
 10
67.83027313642486
 20
-41.81588465239816
 30
0.0
 10
67.83027313642486
 20
-41.81588465239816
 30
0.0
 10
67.83027313642486
 20
-42.1158846354353
 30
0.0
 10
67.83027313642486
 20
-42.1158846354353
 30
0.0
 10
67.83027313642486
 20
-42.1158846354353
 30
0.0
 10
70.60267288200805
 20
-42.1158846354353
 30
0.0
 10
70.60267288200805
 20
-42.1158846354353
 30
0.0
 10
70.60267288200805
 20
-42.1158846354353
 30
0.0
 10
70.60267288200805
 20
-41.81588465239816
 30
0.0
 10
70.60267288200805
 20
-41.81588465239816
 30
0.0
 10
70.60267288200805
 20
-41.81588465239816
 30
0.0
 10
73.37507262759122
 20
-41.81588465239816
 30
0.0
 10
73.37507262759122
 20
-41.81588465239816
 30
0.0
 10
73.37507262759122
 20
-41.81588465239816
 30
0.0
 10
73.37507262759122
 20
-42.1158846354353
 30
0.0
 10
73.37507262759122
 20
-42.1158846354353
 30
0.0
 10
73.37507262759122
 20
-42.1158846354353
 30
0.0
 10
76.14747237317446
 20
-42.1158846354353
 30
0.0
 10
76.14747237317446
 20
-42.1158846354353
 30
0.0
 10
76.14747237317446
 20
-42.1158846354353
 30
0.0
 10
76.14747237317446
 20
-41.81588465239816
 30
0.0
 10
76.14747237317446
 20
-41.81588465239816
 30
0.0
 10
76.14747237317446
 20
-41.81588465239816
 30
0.0
 10
78.58887238161395
 20
-41.81588465239816
 30
0.0
 10
78.58887238161395
 20
-41.81588465239816
 30
0.0
 10
78.58887238161395
 20
-41.81588465239816
 30
0.0
 10
78.58887238161395
 20
-39.76928442632264
 30
0.0
 10
78.58887238161395
 20
-39.76928442632264
 30
0.0
 10
78.58887238161395
 20
-39.76928442632264
 30
0.0
 10
78.88887236465096
 20
-39.76928442632264
 30
0.0
 10
78.88887236465096
 20
-39.76928442632264
 30
0.0
 10
78.88887236465096
 20
-39.76928442632264
 30
0.0
 10
78.88887236465096
 20
-36.99688468073972
 30
0.0
 10
78.88887236465096
 20
-36.99688468073972
 30
0.0
 10
78.88887236465096
 20
-36.99688468073972
 30
0.0
 10
78.58887238161395
 20
-36.99688468073972
 30
0.0
 10
78.58887238161395
 20
-36.99688468073972
 30
0.0
 10
78.58887238161395
 20
-36.99688468073972
 30
0.0
 10
78.58887238161395
 20
-34.22448493515628
 30
0.0
 10
78.58887238161395
 20
-34.22448493515628
 30
0.0
 10
78.58887238161395
 20
-34.22448493515628
 30
0.0
 10
78.88887236465096
 20
-34.22448493515628
 30
0.0
 10
78.88887236465096
 20
-34.22448493515628
 30
0.0
 10
78.88887236465096
 20
-34.22448493515628
 30
0.0
 10
78.88887236465096
 20
-31.45208518957324
 30
0.0
 10
78.88887236465096
 20
-31.45208518957324
 30
0.0
 10
78.88887236465096
 20
-31.45208518957324
 30
0.0
 10
78.58887238161395
 20
-31.45208518957324
 30
0.0
 10
78.58887238161395
 20
-31.45208518957324
 30
0.0
 10
78.58887238161395
 20
-31.45208518957324
 30
0.0
 10
78.58887238161395
 20
-28.67968544399032
 30
0.0
 10
78.58887238161395
 20
-28.67968544399032
 30
0.0
 10
78.58887238161395
 20
-28.67968544399032
 30
0.0
 10
78.88887236465096
 20
-28.67968544399032
 30
0.0
 10
78.88887236465096
 20
-28.67968544399032
 30
0.0
 10
78.88887236465096
 20
-28.67968544399032
 30
0.0
 10
78.88887236465096
 20
-25.90728569840691
 30
0.0
 10
78.88887236465096
 20
-25.90728569840691
 30
0.0
 10
78.88887236465096
 20
-25.90728569840691
 30
0.0
 10
78.58887238161395
 20
-25.90728569840691
 30
0.0
 10
78.58887238161395
 20
-25.90728569840691
 30
0.0
 10
78.58887238161395
 20
-25.90728569840691
 30
0.0
 10
78.58887238161395
 20
-23.13488595282386
 30
0.0
 10
78.58887238161395
 20
-23.13488595282386
 30
0.0
 10
78.58887238161395
 20
-23.13488595282386
 30
0.0
 10
78.88887236465096
 20
-23.13488595282386
 30
0.0
 10
78.88887236465096
 20
-23.13488595282386
 30
0.0
 10
78.88887236465096
 20
-23.13488595282386
 30
0.0
 10
78.88887236465096
 20
-20.36248620724049
 30
0.0
 10
78.88887236465096
 20
-20.36248620724049
 30
0.0
 10
78.88887236465096
 20
-20.36248620724049
 30
0.0
 10
78.58887238161395
 20
-20.36248620724049
 30
0.0
 10
78.58887238161395
 20
-20.36248620724049
 30
0.0
 10
78.58887238161395
 20
-20.36248620724049
 30
0.0
 10
78.58887238161395
 20
-18.31588598116536
 30
0.0
 10
78.58887238161395
 20
-18.31588598116536
 30
0.0
 10
78.58887238161395
 20
-18.31588598116536
 30
0.0
 10
76.14747237317446
 20
-18.31588598116536
 30
0.0
 10
76.14747237317446
 20
-18.31588598116536
 30
0.0
 10
76.14747237317446
 20
-18.31588598116536
 30
0.0
 10
76.14747237317446
 20
-18.01588599812828
 30
0.0
 10
76.14747237317446
 20
-18.01588599812828
 30
0.0
 10
76.14747237317446
 20
-18.01588599812828
 30
0.0
 10
73.37507262759122
 20
-18.01588599812828
 30
0.0
 10
73.37507262759122
 20
-18.01588599812828
 30
0.0
 10
73.37507262759122
 20
-18.01588599812828
 30
0.0
 10
73.37507262759122
 20
-18.31588598116536
 30
0.0
 10
73.37507262759122
 20
-18.31588598116536
 30
0.0
 10
73.37507262759122
 20
-18.31588598116536
 30
0.0
 10
70.60267288200805
 20
-18.31588598116536
 30
0.0
 10
70.60267288200805
 20
-18.31588598116536
 30
0.0
 10
70.60267288200805
 20
-18.31588598116536
 30
0.0
 10
70.60267288200805
 20
-18.01588599812828
 30
0.0
 10
70.60267288200805
 20
-18.01588599812828
 30
0.0
 10
70.60267288200805
 20
-18.01588599812828
 30
0.0
 10
67.83027313642486
 20
-18.01588599812828
 30
0.0
 10
67.83027313642486
 20
-18.01588599812828
 30
0.0
 10
67.83027313642486
 20
-18.01588599812828
 30
0.0
 10
67.83027313642486
 20
-18.31588598116536
 30
0.0
 10
67.83027313642486
 20
-18.31588598116536
 30
0.0
 10
67.83027313642486
 20
-18.31588598116536
 30
0.0
 10
65.38887312798525
 20
-18.31588598116536
 30
0.0
 10
65.38887312798525
 20
-18.31588598116536
 30
0.0
 10
65.38887312798525
 20
-18.31588598116536
 30
0.0
 10
65.38887312798525
 20
-20.36248620724049
 30
0.0
 10
65.38887312798525
 20
-20.36248620724049
 30
0.0
 10
65.38887312798525
 20
-20.36248620724049
 30
0.0
 10
65.08887314494824
 20
-20.36248620724049
 30
0.0
 10
65.08887314494824
 20
-20.36248620724049
 30
0.0
 10
65.08887314494824
 20
-20.36248620724049
 30
0.0
 10
65.08887314494824
 20
-23.13488595282386
 30
0.0
 10
65.08887314494824
 20
-23.13488595282386
 30
0.0
 10
65.08887314494824
 20
-23.13488595282386
 30
0.0
 10
65.38887312798525
 20
-23.13488595282386
 30
0.0
 10
65.38887312798525
 20
-23.13488595282386
 30
0.0
 10
65.38887312798525
 20
-23.13488595282386
 30
0.0
 10
65.38887312798525
 20
-25.90728569840691
 30
0.0
 10
65.38887312798525
 20
-25.90728569840691
 30
0.0
 10
65.38887312798525
 20
-25.90728569840691
 30
0.0
 10
65.08887314494824
 20
-25.90728569840691
 30
0.0
 10
65.08887314494824
 20
-25.90728569840691
 30
0.0
 10
65.08887314494824
 20
-25.90728569840691
 30
0.0
 10
65.08887314494824
 20
-28.67968544399032
 30
0.0
 10
65.08887314494824
 20
-28.67968544399032
 30
0.0
 10
65.08887314494824
 20
-28.67968544399032
 30
0.0
 10
65.38887312798525
 20
-28.67968544399032
 30
0.0
 10
65.38887312798525
 20
-28.67968544399032
 30
0.0
 10
65.38887312798525
 20
-28.67968544399032
 30
0.0
 10
65.38887312798525
 20
-31.45208518957324
 30
0.0
 10
65.38887312798525
 20
-31.45208518957324
 30
0.0
 10
65.38887312798525
 20
-31.45208518957324
 30
0.0
 10
65.08887314494824
 20
-31.45208518957324
 30
0.0
 10
65.08887314494824
 20
-31.45208518957324
 30
0.0
 10
65.08887314494824
 20
-31.45208518957324
 30
0.0
 10
65.08887314494824
 20
-34.22448493515628
 30
0.0
 10
65.08887314494824
 20
-34.22448493515628
 30
0.0
 10
65.08887314494824
 20
-34.22448493515628
 30
0.0
 10
65.38887312798525
 20
-34.22448493515628
 30
0.0
 10
65.38887312798525
 20
-34.22448493515628
 30
0.0
 10
65.38887312798525
 20
-34.22448493515628
 30
0.0
 10
65.38887312798525
 20
-36.99688468073972
 30
0.0
 10
65.38887312798525
 20
-36.99688468073972
 30
0.0
 10
65.38887312798525
 20
-36.99688468073972
 30
0.0
 10
65.08887314494824
 20
-36.99688468073972
 30
0.0
 10
65.08887314494824
 20
-36.99688468073972
 30
0.0
 10
65.08887314494824
 20
-36.99688468073972
 30
0.0
 10
65.08887314494824
 20
-39.76928442632264
 30
0.0
 10
65.08887314494824
 20
-39.76928442632264
 30
0.0
 10
65.08887314494824
 20
-39.76928442632264
 30
0.0
 10
65.38887312798525
 20
-39.76928442632264
 30
0.0
 10
65.38887312798525
 20
-39.76928442632264
 30
0.0
 10
65.38887312798525
 20
-39.76928442632264
 30
0.0
 10
65.38887312798525
 20
-41.81588465239816
 30
0.0
 10
65.38887312798525
 20
-41.81588465239816
 30
0.0
  0
LWPOLYLINE
  5
80
330
70
100
AcDbEntity
  8
windows
 62
     1
370
     9
100
AcDbPolyline
 90
        4
 70
     1
 43
0.0
 10
23.86314364145787
 20
-30.53604599432253
 10
4.36314364633288
 20
-30.53604599432253
 10
4.36314364633288
 20
-18.93604599722262
 10
23.86314364145787
 20
-18.93604599722262
  0
LWPOLYLINE
  5
81
330
70
100
AcDbEntity
  8
windows
 62
     1
370
     9
100
AcDbPolyline
 90
        4
 70
     1
 43
0.0
 10
25.70817866784943
 20
-8.250110925240393
 10
25.70817866784943
 20
-9.750110924865374
 10
24.4081786681744
 20
-9.750110924865374
 10
24.4081786681744
 20
-8.250110925240393
  0
LWPOLYLINE
  5
82
330
70
100
AcDbEntity
  8
windows
 62
     1
370
     9
100
AcDbPolyline
 90
        4
 70
     1
 43
0.0
 10
20.70817855651286
 20
-9.350110924965401
 10
20.70817855651286
 20
-9.650110924890396
 10
19.4081785568379
 20
-9.650110924890396
 10
19.4081785568379
 20
-9.350110924965401
  0
LWPOLYLINE
  5
83
330
70
100
AcDbEntity
  8
windows
 62
     1
370
     9
100
AcDbPolyline
 90
        4
 70
     1
 43
0.0
 10
20.70817855651286
 20
-8.350110925215307
 10
20.70817855651286
 20
-8.650110925140367
 10
19.4081785568379
 20
-8.650110925140367
 10
19.4081785568379
 20
-8.350110925215307
  0
CIRCLE
  5
84
330
70
100
AcDbEntity
  8
windows
 62
     1
370
     9
100
AcDbCircle
 10
45.9760254629571
 20
-7.96020363301169
 30
0.0
 40
0.4999999998749865
  0
CIRCLE
  5
85
330
70
100
AcDbEntity
  8
windows
 62
     1
370
     9
100
AcDbCircle
 10
59.97602545945713
 20
-7.96020363301169
 30
0.0
 40
0.4999999998749865
  0
CIRCLE
  5
86
330
70
100
AcDbEntity
  8
windows
 62
     1
370
     9
100
AcDbCircle
 10
45.9760254629571
 20
-19.36567172735841
 30
0.0
 40
0.4999999998750066
  0
CIRCLE
  5
87
330
70
100
AcDbEntity
  8
windows
 62
     1
370
     9
100
AcDbCircle
 10
59.97602545945713
 20
-19.36567172735841
 30
0.0
 40
0.4999999998750066
  0
SPLINE
  5
89
330
70
100
AcDbEntity
  8
logo text
 62
     5
370
     9
100
AcDbSpline
210
0.0
220
0.0
230
1.0
 70
    11
 71
     3
 72
    68
 73
    64
 74
     0
 42
0.0000000001
 43
0.0000000001
 40
0.0
 40
0.0
 40
0.0
 40
0.0
 40
1.0
 40
1.0
 40
1.0
 40
2.0
 40
2.0
 40
2.0
 40
3.0
 40
3.0
 40
3.0
 40
4.0
 40
4.0
 40
4.0
 40
5.0
 40
5.0
 40
5.0
 40
6.0
 40
6.0
 40
6.0
 40
7.0
 40
7.0
 40
7.0
 40
8.0
 40
8.0
 40
8.0
 40
9.0
 40
9.0
 40
9.0
 40
10.0
 40
10.0
 40
10.0
 40
11.0
 40
11.0
 40
11.0
 40
12.0
 40
12.0
 40
12.0
 40
13.0
 40
13.0
 40
13.0
 40
14.0
 40
14.0
 40
14.0
 40
15.0
 40
15.0
 40
15.0
 40
16.0
 40
16.0
 40
16.0
 40
17.0
 40
17.0
 40
17.0
 40
18.0
 40
18.0
 40
18.0
 40
19.0
 40
19.0
 40
19.0
 40
20.0
 40
20.0
 40
20.0
 40
21.0
 40
21.0
 40
21.0
 40
21.0
 10
4.019091545467645
 20
-33.20554002329974
 30
0.0
 10
4.019091545467645
 20
-33.20554002329974
 30
0.0
 10
5.078952921901268
 20
-33.20554002329974
 30
0.0
 10
5.078952921901268
 20
-33.20554002329974
 30
0.0
 10
5.078952921901268
 20
-33.20554002329974
 30
0.0
 10
6.899884967582441
 20
-35.16177352129135
 30
0.0
 10
6.899884967582441
 20
-35.16177352129135
 30
0.0
 10
6.899884967582441
 20
-35.16177352129135
 30
0.0
 10
6.899884967582441
 20
-33.20554002329974
 30
0.0
 10
6.899884967582441
 20
-33.20554002329974
 30
0.0
 10
6.899884967582441
 20
-33.20554002329974
 30
0.0
 10
8.546052637362343
 20
-33.20554002329974
 30
0.0
 10
8.546052637362343
 20
-33.20554002329974
 30
0.0
 10
8.546052637362343
 20
-33.20554002329974
 30
0.0
 10
8.546052637362343
 20
-33.25627806791608
 30
0.0
 10
8.546052637362343
 20
-33.25627806791608
 30
0.0
 10
8.546052637362343
 20
-33.25627806791608
 30
0.0
 10
8.021759509658464
 20
-33.82567167972368
 30
0.0
 10
8.021759509658464
 20
-33.82567167972368
 30
0.0
 10
8.021759509658464
 20
-33.82567167972368
 30
0.0
 10
7.689143439394702
 20
-33.84258436126246
 30
0.0
 10
7.689143439394702
 20
-34.06244922126738
 30
0.0
 10
7.689143439394702
 20
-34.28231408127218
 30
0.0
 10
7.69478099990765
 20
-37.10673189825746
 30
0.0
 10
7.69478099990765
 20
-37.10673189825746
 30
0.0
 10
7.69478099990765
 20
-37.10673189825746
 30
0.0
 10
7.627130273752333
 20
-37.10673189825746
 30
0.0
 10
7.627130273752333
 20
-37.10673189825746
 30
0.0
 10
7.627130273752333
 20
-37.10673189825746
 30
0.0
 10
5.699084578325205
 20
-35.03774719000675
 30
0.0
 10
5.699084578325205
 20
-35.03774719000675
 30
0.0
 10
5.699084578325205
 20
-35.03774719000675
 30
0.0
 10
5.637071412682805
 20
-35.0321096294936
 30
0.0
 10
5.637071412682805
 20
-35.0321096294936
 30
0.0
 10
5.637071412682805
 20
-35.0321096294936
 30
0.0
 10
5.642708973195754
 20
-36.40203683413923
 30
0.0
 10
5.642708973195754
 20
-36.40203683413923
 30
0.0
 10
5.642708973195754
 20
-36.40203683413923
 30
0.0
 10
6.121901616796045
 20
-36.9601553249208
 30
0.0
 10
6.121901616796045
 20
-36.9601553249208
 30
0.0
 10
6.121901616796045
 20
-36.9601553249208
 30
0.0
 10
6.121901616796045
 20
-37.01089336953727
 30
0.0
 10
6.121901616796045
 20
-37.03344361158919
 30
0.0
 10
6.121901616796045
 20
-37.05599385364112
 30
0.0
 10
5.118415845491842
 20
-38.2511566823854
 30
0.0
 10
3.432785252121334
 20
-38.2511566823854
 30
0.0
 10
3.432785252121334
 20
-38.2511566823854
 30
0.0
 10
3.432785252121334
 20
-38.1835059562299
 30
0.0
 10
3.432785252121334
 20
-38.1835059562299
 30
0.0
 10
3.432785252121334
 20
-38.1835059562299
 30
0.0
 10
4.87600074343519
 20
-37.46753577108577
 30
0.0
 10
4.87600074343519
 20
-37.25330847159399
 30
0.0
 10
4.87600074343519
 20
-37.03908117210195
 30
0.0
 10
4.87600074343519
 20
-34.03989897921546
 30
0.0
 10
4.87600074343519
 20
-34.03989897921546
 30
0.0
 10
4.87600074343519
 20
-34.03989897921546
 30
0.0
 10
4.69559880702097
 20
-33.85385948228849
 30
0.0
 10
4.69559880702097
 20
-33.85385948228849
 30
0.0
 10
4.69559880702097
 20
-33.85385948228849
 30
0.0
 10
4.656135883430331
 20
-33.83694680074932
 30
0.0
 10
4.565934915223222
 20
-33.83694680074932
 30
0.0
 10
4.475733947016111
 20
-33.83694680074932
 30
0.0
 10
4.019091545467645
 20
-33.20554002329974
 30
0.0
 10
4.019091545467645
 20
-33.20554002329974
 30
0.0
  0
LWPOLYLINE
  5
8A
330
70
100
AcDbEntity
  8
logo text
 62
     5
370
     9
100
AcDbPolyline
 90
        5
 70
     1
 43
0.0
 10
8.157060961969097
 20
-34.33305212588852
 10
8.844843344548351
 20
-33.57198145664094
 10
8.889943828651874
 20
-33.57198145664094
 10
8.889943828651874
 20
-37.01653093005041
 10
8.157060961969097
 20
-37.01653093005041
  0
LWPOLYLINE
  5
8B
330
70
100
AcDbEntity
  8
logo text
 62
     5
370
     9
100
AcDbPolyline
 90
       15
 70
     1
 43
0.0
 10
9.386049153791107
 20
-33.08715125252789
 10
9.386049153791107
 20
-37.01653093005041
 10
10.13584470201276
 20
-37.01653093005041
 10
10.13584470201276
 20
-35.07721011359745
 10
10.18094518611631
 20
-35.07721011359745
 10
12.06389039743989
 20
-37.08418165620592
 10
12.12026600256934
 20
-37.08418165620592
 10
12.12026600256934
 20
-33.83694680074932
 10
12.50925767796252
 20
-33.83694680074932
 10
12.50925767796252
 20
-33.76365851408105
 10
11.95959552795041
 20
-33.21399636406913
 10
11.38174557537355
 20
-33.21399636406913
 10
11.38174557537355
 20
-35.17868620283014
 10
11.33664509127
 20
-35.17304864231738
 10
9.442424758920527
 20
-33.08715125252789
  0
SPLINE
  5
8C
330
70
100
AcDbEntity
  8
logo text
 62
     5
370
     9
100
AcDbSpline
210
0.0
220
0.0
230
1.0
 70
     9
 71
     3
 72
    53
 73
    49
 74
     0
 42
0.0000000001
 43
0.0000000001
 40
0.0
 40
0.0
 40
0.0
 40
0.0
 40
1.0
 40
1.0
 40
1.0
 40
2.0
 40
2.0
 40
2.0
 40
3.0
 40
3.0
 40
3.0
 40
4.0
 40
4.0
 40
4.0
 40
5.0
 40
5.0
 40
5.0
 40
6.0
 40
6.0
 40
6.0
 40
7.0
 40
7.0
 40
7.0
 40
8.0
 40
8.0
 40
8.0
 40
9.0
 40
9.0
 40
9.0
 40
10.0
 40
10.0
 40
10.0
 40
11.0
 40
11.0
 40
11.0
 40
12.0
 40
12.0
 40
12.0
 40
13.0
 40
13.0
 40
13.0
 40
14.0
 40
14.0
 40
14.0
 40
15.0
 40
15.0
 40
15.0
 40
16.0
 40
16.0
 40
16.0
 40
16.0
 10
12.45988857271316
 20
-37.32140022729448
 30
0.0
 10
12.16064111931033
 20
-37.61064613786645
 30
0.0
 10
11.86139474249983
 20
-37.89989635480802
 30
0.0
 10
11.562147289097
 20
-38.18914226538037
 30
0.0
 10
11.562147289097
 20
-38.18914226538037
 30
0.0
 10
11.59033570631271
 20
-38.25115829048409
 30
0.0
 10
11.59033570631271
 20
-38.25115829048409
 30
0.0
 10
11.87123049011022
 20
-38.12730280142014
 30
0.0
 10
12.22995536388121
 20
-37.93437745424614
 30
0.0
 10
12.59822853510805
 20
-37.63385746869845
 30
0.0
 10
12.86612131322576
 20
-37.41524893468191
 30
0.0
 10
13.07382289025445
 20
-37.19294553575732
 30
0.0
 10
13.23086541476488
 20
-36.99961969623331
 30
0.0
 10
13.3973528838666
 20
-36.75706774859429
 30
0.0
 10
13.57049584680888
 20
-36.46019525789173
 30
0.0
 10
13.71967601746658
 20
-36.10760696045383
 30
0.0
 10
13.78088998127777
 20
-35.96292586918115
 30
0.0
 10
13.83203027057162
 20
-35.82314111986714
 30
0.0
 10
13.8749001775162
 20
-35.69007000038013
 30
0.0
 10
14.14787124169763
 20
-34.44520627863176
 30
0.0
 10
14.08777478073447
 20
-33.20554034469689
 30
0.0
 10
14.08777478073447
 20
-33.20554034469689
 30
0.0
 10
14.08777478073447
 20
-33.20554034469689
 30
0.0
 10
12.53744520823251
 20
-33.20554034469689
 30
0.0
 10
12.53744520823251
 20
-33.20554034469689
 30
0.0
 10
12.53744520823251
 20
-33.20554034469689
 30
0.0
 10
12.53744520823251
 20
-33.27318910091938
 30
0.0
 10
12.53744520823251
 20
-33.27318910091938
 30
0.0
 10
12.53744520823251
 20
-33.27318910091938
 30
0.0
 10
13.0617381412476
 20
-33.84258586998264
 30
0.0
 10
13.0617381412476
 20
-33.84258586998264
 30
0.0
 10
13.0617381412476
 20
-33.84258586998264
 30
0.0
 10
13.2816030585239
 20
-33.84258586998264
 30
0.0
 10
13.2816030585239
 20
-33.84258586998264
 30
0.0
 10
13.2816030585239
 20
-33.84258586998264
 30
0.0
 10
13.29176178383603
 20
-34.6258197158156
 30
0.0
 10
13.16761776802505
 20
-35.52732799602616
 30
0.0
 10
13.16300672303652
 20
-35.56080571140421
 30
0.0
 10
13.15821158075798
 20
-35.59444276244845
 30
0.0
 10
13.15322372845075
 20
-35.62821331094248
 30
0.0
 10
13.10477169022773
 20
-35.78160188105387
 30
0.0
 10
13.05280134824039
 20
-35.93772499570655
 30
0.0
 10
12.99703171188823
 20
-36.09631135363144
 30
0.0
 10
12.87424743220159
 20
-36.44546316832267
 30
0.0
 10
12.74420261377978
 20
-36.77484013492883
 30
0.0
 10
12.61073423171951
 20
-37.08417956491877
 30
0.0
 10
12.56045198651994
 20
-37.16325311904409
 30
0.0
 10
12.51017081791272
 20
-37.24232667316915
 30
0.0
 10
12.45988857271316
 20
-37.32140022729448
 30
0.0
  0
SPLINE
  5
8D
330
70
100
AcDbEntity
  8
logo text
 62
     5
370
     9
100
AcDbSpline
210
0.0
220
0.0
230
1.0
 70
     9
 71
     3
 72
    50
 73
    46
 74
     0
 42
0.0000000001
 43
0.0000000001
 40
0.0
 40
0.0
 40
0.0
 40
0.0
 40
1.0
 40
1.0
 40
1.0
 40
2.0
 40
2.0
 40
2.0
 40
3.0
 40
3.0
 40
3.0
 40
4.0
 40
4.0
 40
4.0
 40
5.0
 40
5.0
 40
5.0
 40
6.0
 40
6.0
 40
6.0
 40
7.0
 40
7.0
 40
7.0
 40
8.0
 40
8.0
 40
8.0
 40
9.0
 40
9.0
 40
9.0
 40
10.0
 40
10.0
 40
10.0
 40
11.0
 40
11.0
 40
11.0
 40
12.0
 40
12.0
 40
12.0
 40
13.0
 40
13.0
 40
13.0
 40
14.0
 40
14.0
 40
14.0
 40
15.0
 40
15.0
 40
15.0
 40
15.0
 10
14.38092764490543
 20
-35.39855032678752
 30
0.0
 10
14.42557500580193
 20
-35.16008943003737
 30
0.0
 10
14.46863008662884
 20
-34.87550731747831
 30
0.0
 10
14.51622838712692
 20
-34.30204533574221
 30
0.0
 10
14.54078330519804
 20
-34.00621068005457
 30
0.0
 10
14.56634376051392
 20
-33.63595334914658
 30
0.0
 10
14.58388037312618
 20
-33.20554034469689
 30
0.0
 10
14.58388037312618
 20
-33.20554034469689
 30
0.0
 10
16.6697769536187
 20
-33.20554034469689
 30
0.0
 10
16.6697769536187
 20
-33.20554034469689
 30
0.0
 10
16.72991109531374
 20
-33.93466465956477
 30
0.0
 10
16.79004523700877
 20
-34.66378897443228
 30
0.0
 10
16.85017937870381
 20
-35.39291328929991
 30
0.0
 10
16.90102898806609
 20
-35.62438925495385
 30
0.0
 10
16.97286138211823
 20
-35.88526480420504
 30
0.0
 10
17.07568133346785
 20
-36.16526063339949
 30
0.0
 10
17.18996806982166
 20
-36.47648194679812
 30
0.0
 10
17.3184679782368
 20
-36.74577214177189
 30
0.0
 10
17.44212322112581
 20
-36.97143020242537
 30
0.0
 10
17.44212322112581
 20
-36.98834131488834
 30
0.0
 10
17.44212322112581
 20
-37.00525673372091
 30
0.0
 10
17.44212322112581
 20
-37.02216784618427
 30
0.0
 10
17.44212322112581
 20
-37.02216784618427
 30
0.0
 10
16.56266355202059
 20
-37.02216784618427
 30
0.0
 10
16.56266355202059
 20
-37.02216784618427
 30
0.0
 10
16.56266355202059
 20
-37.02216784618427
 30
0.0
 10
15.17582421554818
 20
-35.52732368965693
 30
0.0
 10
15.17582421554818
 20
-35.52732368965693
 30
0.0
 10
15.17582421554818
 20
-35.52732368965693
 30
0.0
 10
15.13636064676464
 20
-35.52732368965693
 30
0.0
 10
15.13636064676464
 20
-35.52732368965693
 30
0.0
 10
15.13636064676464
 20
-35.52732368965693
 30
0.0
 10
14.80374529040248
 20
-37.02216784618427
 30
0.0
 10
14.65716832002083
 20
-37.02216784618427
 30
0.0
 10
14.51059134963918
 20
-37.02216784618427
 30
0.0
 10
13.80589706813133
 20
-37.02216784618427
 30
0.0
 10
13.80589706813133
 20
-37.02216784618427
 30
0.0
 10
13.80589706813133
 20
-37.02216784618427
 30
0.0
 10
13.80589706813133
 20
-36.96015612744977
 30
0.0
 10
13.80589706813133
 20
-36.96015612744977
 30
0.0
 10
14.11839199026729
 20
-36.41460372551367
 30
0.0
 10
14.25674164199323
 20
-35.96955337162103
 30
0.0
 10
14.32455188706633
 20
-35.67479100190305
 30
0.0
 10
14.34956005051223
 20
-35.566081013866
 30
0.0
 10
14.37095086369861
 20
-35.45183303483653
 30
0.0
 10
14.38092764490543
 20
-35.39855032678752
 30
0.0
  0
LWPOLYLINE
  5
8E
330
70
100
AcDbEntity
  8
logo text
 62
     5
370
     9
100
AcDbPolyline
 90
        1
 70
     0
 43
0.0
 10
13.54093154458374
 20
-37.41116219016266
  0
LWPOLYLINE
  5
8F
330
70
100
AcDbEntity
  8
logo text
 62
     5
370
     9
100
AcDbPolyline
 90
        1
 70
     0
 43
0.0
 10
13.38871753671435
 20
-37.62538684017408
  0
SPLINE
  5
90
330
70
100
AcDbEntity
  8
logo text
 62
     5
370
     9
100
AcDbSpline
210
0.0
220
0.0
230
1.0
 70
    11
 71
     3
 72
    26
 73
    22
 74
     0
 42
0.0000000001
 43
0.0000000001
 40
0.0
 40
0.0
 40
0.0
 40
0.0
 40
1.0
 40
1.0
 40
1.0
 40
2.0
 40
2.0
 40
2.0
 40
3.0
 40
3.0
 40
3.0
 40
4.0
 40
4.0
 40
4.0
 40
5.0
 40
5.0
 40
5.0
 40
6.0
 40
6.0
 40
6.0
 40
7.0
 40
7.0
 40
7.0
 40
7.0
 10
15.29985013187018
 20
-33.85385948228874
 30
0.0
 10
15.29985013187018
 20
-33.85385948228874
 30
0.0
 10
15.33931305546078
 20
-33.80312143767214
 30
0.0
 10
15.33931305546078
 20
-33.80312143767214
 30
0.0
 10
15.33931305546078
 20
-33.80312143767214
 30
0.0
 10
15.93689446983299
 20
-33.80312143767214
 30
0.0
 10
15.93689446983299
 20
-33.80312143767214
 30
0.0
 10
15.93689446983299
 20
-33.80312143767214
 30
0.0
 10
15.98199495393651
 20
-34.71076868025638
 30
0.0
 10
15.98199495393651
 20
-34.71076868025638
 30
0.0
 10
15.98199495393651
 20
-34.71076868025638
 30
0.0
 10
16.06329449642345
 20
-35.49587311696009
 30
0.0
 10
16.09474616419539
 20
-35.52732478473175
 30
0.0
 10
16.09474616419539
 20
-35.52732478473175
 30
0.0
 10
16.06092080111773
 20
-35.556402757198
 30
0.0
 10
16.06092080111773
 20
-35.556402757198
 30
0.0
 10
16.06092080111773
 20
-35.556402757198
 30
0.0
 10
15.25474964776662
 20
-34.71640624076914
 30
0.0
 10
15.25474964776662
 20
-34.71640624076914
 30
0.0
 10
15.25474964776662
 20
-34.71640624076914
 30
0.0
 10
15.29985013187018
 20
-33.85385948228874
 30
0.0
 10
15.29985013187018
 20
-33.85385948228874
 30
0.0
  0
SPLINE
  5
91
330
70
100
AcDbEntity
  8
logo text
 62
     5
370
     9
100
AcDbSpline
210
0.0
220
0.0
230
1.0
 70
     9
 71
     3
 72
    47
 73
    43
 74
     0
 42
0.0000000001
 43
0.0000000001
 40
0.0
 40
0.0
 40
0.0
 40
0.0
 40
1.0
 40
1.0
 40
1.0
 40
2.0
 40
2.0
 40
2.0
 40
3.0
 40
3.0
 40
3.0
 40
4.0
 40
4.0
 40
4.0
 40
5.0
 40
5.0
 40
5.0
 40
6.0
 40
6.0
 40
6.0
 40
7.0
 40
7.0
 40
7.0
 40
8.0
 40
8.0
 40
8.0
 40
9.0
 40
9.0
 40
9.0
 40
10.0
 40
10.0
 40
10.0
 40
11.0
 40
11.0
 40
11.0
 40
12.0
 40
12.0
 40
12.0
 40
13.0
 40
13.0
 40
13.0
 40
14.0
 40
14.0
 40
14.0
 40
14.0
 10
17.1264197380643
 20
-33.67345754587427
 30
0.0
 10
17.1264197380643
 20
-33.67345754587427
 30
0.0
 10
17.27299631140086
 20
-33.20554034469689
 30
0.0
 10
17.62252506320344
 20
-33.20554034469689
 30
0.0
 10
17.97205381500601
 20
-33.20554034469689
 30
0.0
 10
19.75916049760953
 20
-33.20554034469689
 30
0.0
 10
19.75916049760953
 20
-33.20554034469689
 30
0.0
 10
19.75916049760953
 20
-33.20554034469689
 30
0.0
 10
19.75916049760953
 20
-33.2675531889425
 30
0.0
 10
19.75916049760953
 20
-33.2675531889425
 30
0.0
 10
19.75916049760953
 20
-33.2675531889425
 30
0.0
 10
19.22359224887978
 20
-33.83130924023682
 30
0.0
 10
19.22359224887978
 20
-33.83130924023682
 30
0.0
 10
19.22359224887978
 20
-33.83130924023682
 30
0.0
 10
18.07916746475197
 20
-33.83130924023682
 30
0.0
 10
18.07916746475197
 20
-33.83130924023682
 30
0.0
 10
18.07916746475197
 20
-33.83130924023682
 30
0.0
 10
17.92695333090246
 20
-33.86513460331438
 30
0.0
 10
17.92695333090246
 20
-34.00607361613815
 30
0.0
 10
17.92695333090246
 20
-34.14701262896167
 30
0.0
 10
18.19191867501087
 20
-36.37384903157481
 30
0.0
 10
18.5978230319429
 20
-36.37384903157481
 30
0.0
 10
19.00372738887492
 20
-36.37384903157481
 30
0.0
 10
19.07701567554322
 20
-36.37384903157481
 30
0.0
 10
19.07701567554322
 20
-36.37384903157481
 30
0.0
 10
19.07701567554322
 20
-36.37384903157481
 30
0.0
 10
19.07701567554322
 20
-34.73331892230792
 30
0.0
 10
19.07701567554322
 20
-34.73331892230792
 30
0.0
 10
19.07701567554322
 20
-34.73331892230792
 30
0.0
 10
19.15594152272444
 20
-34.73331892230792
 30
0.0
 10
19.15594152272444
 20
-34.73331892230792
 30
0.0
 10
19.15594152272444
 20
-34.73331892230792
 30
0.0
 10
19.75916049760953
 20
-35.42110130488737
 30
0.0
 10
19.75916049760953
 20
-35.42110130488737
 30
0.0
 10
19.75916049760953
 20
-35.42110130488737
 30
0.0
 10
19.75916049760953
 20
-36.98834312748599
 30
0.0
 10
19.75916049760953
 20
-36.98834312748599
 30
0.0
 10
19.75916049760953
 20
-36.98834312748599
 30
0.0
 10
18.27084452219212
 20
-36.98834312748599
 30
0.0
 10
18.27084452219212
 20
-36.98834312748599
 30
0.0
 10
18.27084452219212
 20
-36.98834312748599
 30
0.0
 10
17.1264197380643
 20
-37.06726897466675
 30
0.0
 10
17.1264197380643
 20
-33.67345754587427
 30
0.0
  0
SPLINE
  5
92
330
70
100
AcDbEntity
  8
logo text
 62
     5
370
     9
100
AcDbSpline
210
0.0
220
0.0
230
1.0
 70
     9
 71
     3
 72
    41
 73
    37
 74
     0
 42
0.0000000001
 43
0.0000000001
 40
0.0
 40
0.0
 40
0.0
 40
0.0
 40
1.0
 40
1.0
 40
1.0
 40
2.0
 40
2.0
 40
2.0
 40
3.0
 40
3.0
 40
3.0
 40
4.0
 40
4.0
 40
4.0
 40
5.0
 40
5.0
 40
5.0
 40
6.0
 40
6.0
 40
6.0
 40
7.0
 40
7.0
 40
7.0
 40
8.0
 40
8.0
 40
8.0
 40
9.0
 40
9.0
 40
9.0
 40
10.0
 40
10.0
 40
10.0
 40
11.0
 40
11.0
 40
11.0
 40
12.0
 40
12.0
 40
12.0
 40
12.0
 10
24.79350203566945
 20
-38.19478107725656
 30
0.0
 10
24.79350203566945
 20
-38.19478107725656
 30
0.0
 10
24.76531423310471
 20
-38.25115668238618
 30
0.0
 10
24.76531423310471
 20
-38.25115668238618
 30
0.0
 10
23.12478412383766
 20
-38.25115668238618
 30
0.0
 10
22.19458663920185
 20
-36.98849903039395
 30
0.0
 10
22.19458663920185
 20
-36.98849903039395
 30
0.0
 10
22.19458663920185
 20
-36.98849903039395
 30
0.0
 10
21.04452429456112
 20
-36.98849903039395
 30
0.0
 10
20.63298237711614
 20
-36.98849903039395
 30
0.0
 10
20.22144045967117
 20
-36.98849903039395
 30
0.0
 10
20.15378973351582
 20
-36.54297584696377
 30
0.0
 10
20.15378973351582
 20
-36.54297584696377
 30
0.0
 10
20.15378973351582
 20
-36.54297584696377
 30
0.0
 10
20.17633997556761
 20
-34.02862385819047
 30
0.0
 10
20.17633997556761
 20
-33.65654486433587
 30
0.0
 10
20.17633997556761
 20
-33.28446587048154
 30
0.0
 10
20.70627066378441
 20
-33.20554034469689
 30
0.0
 10
20.70627066378441
 20
-33.20554034469689
 30
0.0
 10
20.70627066378441
 20
-33.20554034469689
 30
0.0
 10
23.71672797769702
 20
-33.20554034469689
 30
0.0
 10
23.71672797769702
 20
-33.20554034469689
 30
0.0
 10
23.71672797769702
 20
-33.20554034469689
 30
0.0
 10
23.71672797769702
 20
-33.27882830996877
 30
0.0
 10
23.71672797769702
 20
-33.27882830996877
 30
0.0
 10
23.71672797769702
 20
-33.27882830996877
 30
0.0
 10
23.22062265255785
 20
-33.83694680075035
 30
0.0
 10
23.22062265255785
 20
-33.83694680075035
 30
0.0
 10
23.22062265255785
 20
-33.83694680075035
 30
0.0
 10
22.85418121921649
 20
-33.85385948228913
 30
0.0
 10
22.85418121921649
 20
-34.05681166075527
 30
0.0
 10
22.85418121921649
 20
-34.25976383922128
 30
0.0
 10
22.85418121921649
 20
-36.66136461773562
 30
0.0
 10
22.85418121921649
 20
-36.66136461773562
 30
0.0
 10
22.85418121921649
 20
-36.66136461773562
 30
0.0
 10
24.27484646847852
 20
-38.19478107725656
 30
0.0
 10
24.79350203566945
 20
-38.19478107725656
 30
0.0
  0
SPLINE
  5
93
330
70
100
AcDbEntity
  8
logo text
 62
     5
370
     9
100
AcDbSpline
210
0.0
220
0.0
230
1.0
 70
    11
 71
     3
 72
    29
 73
    25
 74
     0
 42
0.0000000001
 43
0.0000000001
 40
0.0
 40
0.0
 40
0.0
 40
0.0
 40
1.0
 40
1.0
 40
1.0
 40
2.0
 40
2.0
 40
2.0
 40
3.0
 40
3.0
 40
3.0
 40
4.0
 40
4.0
 40
4.0
 40
5.0
 40
5.0
 40
5.0
 40
6.0
 40
6.0
 40
6.0
 40
7.0
 40
7.0
 40
7.0
 40
8.0
 40
8.0
 40
8.0
 40
8.0
 10
20.9261355237893
 20
-33.94969801100944
 30
0.0
 10
20.9261355237893
 20
-33.94969801100944
 30
0.0
 10
20.92613552378927
 20
-33.84822192177637
 30
0.0
 10
21.02761161302231
 20
-33.84822192177637
 30
0.0
 10
21.12908770225534
 20
-33.84822192177637
 30
0.0
 10
21.9690842186841
 20
-33.84822192177637
 30
0.0
 10
21.9690842186841
 20
-33.84822192177637
 30
0.0
 10
21.9690842186841
 20
-33.84822192177637
 30
0.0
 10
22.07619786843006
 20
-33.87077216382791
 30
0.0
 10
22.07619786843006
 20
-33.9553355715222
 30
0.0
 10
22.07619786843006
 20
-34.03989897921649
 30
0.0
 10
22.07619786843006
 20
-36.2441851397777
 30
0.0
 10
22.07619786843006
 20
-36.2441851397777
 30
0.0
 10
22.07619786843006
 20
-36.2441851397777
 30
0.0
 10
22.03109738432651
 20
-36.38512415260148
 30
0.0
 10
21.9690842186841
 20
-36.38512415260148
 30
0.0
 10
21.90707105304171
 20
-36.38512415260148
 30
0.0
 10
21.02197405250939
 20
-36.38512415260148
 30
0.0
 10
21.02197405250939
 20
-36.38512415260148
 30
0.0
 10
21.02197405250939
 20
-36.38512415260148
 30
0.0
 10
20.9261355237893
 20
-36.3963992736275
 30
0.0
 10
20.9261355237893
 20
-36.27801050285526
 30
0.0
 10
20.9261355237893
 20
-36.15962173208354
 30
0.0
 10
20.9261355237893
 20
-33.94969801100944
 30
0.0
 10
20.9261355237893
 20
-33.94969801100944
 30
0.0
  0
LWPOLYLINE
  5
94
330
70
100
AcDbEntity
  8
logo text
 62
     5
370
     9
100
AcDbPolyline
 90
       13
 70
     1
 43
0.0
 10
13.46200540465025
 20
-37.38297236339289
 10
13.64804490157742
 20
-37.38297236339289
 10
13.75515855132338
 20
-37.62538684017408
 10
13.85099708004344
 20
-37.38297236339289
 10
14.0483116979965
 20
-37.38297236339289
 10
14.0483116979965
 20
-37.94109085417446
 10
13.90173512465994
 20
-37.94109085417446
 10
13.86227220106933
 20
-37.87344012801908
 10
13.82844683799167
 20
-37.94109085417446
 10
13.69878294619393
 20
-37.94109085417446
 10
13.65932002260332
 20
-37.87344012801908
 10
13.61985709901274
 20
-37.94109085417446
 10
13.46200540465025
 20
-37.94109085417446
  0
SPLINE
  5
95
330
70
100
AcDbEntity
  8
logo text
 62
     5
370
     9
100
AcDbSpline
210
0.0
220
0.0
230
1.0
 70
     9
 71
     3
 72
    41
 73
    37
 74
     0
 42
0.0000000001
 43
0.0000000001
 40
0.0
 40
0.0
 40
0.0
 40
0.0
 40
1.0
 40
1.0
 40
1.0
 40
2.0
 40
2.0
 40
2.0
 40
3.0
 40
3.0
 40
3.0
 40
4.0
 40
4.0
 40
4.0
 40
5.0
 40
5.0
 40
5.0
 40
6.0
 40
6.0
 40
6.0
 40
7.0
 40
7.0
 40
7.0
 40
8.0
 40
8.0
 40
8.0
 40
9.0
 40
9.0
 40
9.0
 40
10.0
 40
10.0
 40
10.0
 40
11.0
 40
11.0
 40
11.0
 40
12.0
 40
12.0
 40
12.0
 40
12.0
 10
14.34768788195618
 20
-37.62538684017408
 30
0.0
 10
14.40717469309125
 20
-37.68487365130908
 30
0.0
 10
14.34768788195618
 20
-37.69867575211762
 30
0.0
 10
14.34768788195618
 20
-37.69867575211762
 30
0.0
 10
14.34768788195618
 20
-37.69867575211762
 30
0.0
 10
14.1836131503072
 20
-37.69303819160486
 30
0.0
 10
14.12723754517775
 20
-37.69303819160486
 30
0.0
 10
14.07086194004829
 20
-37.69303819160486
 30
0.0
 10
14.09339119617565
 20
-37.72711341886031
 30
0.0
 10
14.09339119617565
 20
-37.72711341886031
 30
0.0
 10
14.09339119617565
 20
-37.72711341886031
 30
0.0
 10
14.09339119617565
 20
-37.78323915981191
 30
0.0
 10
14.09339119617565
 20
-37.8678025675062
 30
0.0
 10
14.09339119617565
 20
-37.9523659752001
 30
0.0
 10
14.17797558979425
 20
-37.94109085417446
 30
0.0
 10
14.17797558979425
 20
-37.94109085417446
 30
0.0
 10
14.17797558979425
 20
-37.94109085417446
 30
0.0
 10
14.52750434159679
 20
-37.94109085417446
 30
0.0
 10
14.55005458364859
 20
-37.94109085417446
 30
0.0
 10
14.57260482570035
 20
-37.94109085417446
 30
0.0
 10
14.60643018877807
 20
-37.91854061212254
 30
0.0
 10
14.60643018877807
 20
-37.91854061212254
 30
0.0
 10
14.60643018877807
 20
-37.91854061212254
 30
0.0
 10
14.60643018877807
 20
-37.67612551006608
 30
0.0
 10
14.60643018877807
 20
-37.62538684017408
 30
0.0
 10
14.60643018877807
 20
-37.57464817028234
 30
0.0
 10
14.54441702313564
 20
-37.51263625519077
 30
0.0
 10
14.54441702313564
 20
-37.51263625519077
 30
0.0
 10
14.54441702313564
 20
-37.51263625519077
 30
0.0
 10
14.13851266620361
 20
-37.51263625519077
 30
0.0
 10
14.13851266620361
 20
-37.51263625519077
 30
0.0
 10
14.13851266620361
 20
-37.51263625519077
 30
0.0
 10
14.07649950056121
 20
-37.62538684017408
 30
0.0
 10
14.13851266620361
 20
-37.62538684017408
 30
0.0
 10
14.20052583184604
 20
-37.62538684017408
 30
0.0
 10
14.34768788195618
 20
-37.62538684017408
 30
0.0
 10
14.34768788195618
 20
-37.62538684017408
 30
0.0
  0
SPLINE
  5
96
330
70
100
AcDbEntity
  8
logo text
 62
     5
370
     9
100
AcDbSpline
210
0.0
220
0.0
230
1.0
 70
    11
 71
     3
 72
    17
 73
    13
 74
     0
 42
0.0000000001
 43
0.0000000001
 40
0.0
 40
0.0
 40
0.0
 40
0.0
 40
1.0
 40
1.0
 40
1.0
 40
2.0
 40
2.0
 40
2.0
 40
3.0
 40
3.0
 40
3.0
 40
4.0
 40
4.0
 40
4.0
 40
4.0
 10
14.39220288928613
 20
-37.76632647827312
 30
0.0
 10
14.39220288928613
 20
-37.76632647827312
 30
0.0
 10
14.34768788195621
 20
-37.76632647827312
 30
0.0
 10
14.34768788195621
 20
-37.76632647827312
 30
0.0
 10
14.34768788195621
 20
-37.76632647827312
 30
0.0
 10
14.26817655800136
 20
-37.81706452288947
 30
0.0
 10
14.31327704210491
 20
-37.81706452288947
 30
0.0
 10
14.35837752620847
 20
-37.81706452288947
 30
0.0
 10
14.39220288928613
 20
-37.81706452288947
 30
0.0
 10
14.39220288928613
 20
-37.81706452288947
 30
0.0
 10
14.39220288928613
 20
-37.81706452288947
 30
0.0
 10
14.39220288928613
 20
-37.76632647827312
 30
0.0
 10
14.39220288928613
 20
-37.76632647827312
 30
0.0
  0
SPLINE
  5
97
330
70
100
AcDbEntity
  8
logo text
 62
     5
370
     9
100
AcDbSpline
210
0.0
220
0.0
230
1.0
 70
     9
 71
     3
 72
    38
 73
    34
 74
     0
 42
0.0000000001
 43
0.0000000001
 40
0.0
 40
0.0
 40
0.0
 40
0.0
 40
1.0
 40
1.0
 40
1.0
 40
2.0
 40
2.0
 40
2.0
 40
3.0
 40
3.0
 40
3.0
 40
4.0
 40
4.0
 40
4.0
 40
5.0
 40
5.0
 40
5.0
 40
6.0
 40
6.0
 40
6.0
 40
7.0
 40
7.0
 40
7.0
 40
8.0
 40
8.0
 40
8.0
 40
9.0
 40
9.0
 40
9.0
 40
10.0
 40
10.0
 40
10.0
 40
11.0
 40
11.0
 40
11.0
 40
11.0
 10
14.65208249781073
 20
-37.83961579655499
 30
0.0
 10
14.70591642113712
 20
-37.78578187322873
 30
0.0
 10
14.89958354043278
 20
-37.76632569647566
 30
0.0
 10
14.75864468413121
 20
-37.76632569647566
 30
0.0
 10
14.61770582782963
 20
-37.76632569647566
 30
0.0
 10
14.65716832002083
 20
-37.65357633398227
 30
0.0
 10
14.65716832002083
 20
-37.58592327139055
 30
0.0
 10
14.65716832002083
 20
-37.51827451516831
 30
0.0
 10
14.72481922942775
 20
-37.5126374776807
 30
0.0
 10
14.72481922942775
 20
-37.5126374776807
 30
0.0
 10
14.72481922942775
 20
-37.5126374776807
 30
0.0
 10
15.113810343629
 20
-37.5126374776807
 30
0.0
 10
15.113810343629
 20
-37.5126374776807
 30
0.0
 10
15.113810343629
 20
-37.5126374776807
 30
0.0
 10
15.18005199366398
 20
-37.59578916358643
 30
0.0
 10
15.113810343629
 20
-37.66202973702895
 30
0.0
 10
15.113810343629
 20
-37.66202973702895
 30
0.0
 10
14.82065747945804
 20
-37.66202973702895
 30
0.0
 10
14.82065747945804
 20
-37.66202973702895
 30
0.0
 10
14.82065747945804
 20
-37.66202973702895
 30
0.0
 10
14.7417314184833
 20
-37.72711189711492
 30
0.0
 10
14.82065747945804
 20
-37.72711189711492
 30
0.0
 10
14.89958354043278
 20
-37.72711189711492
 30
0.0
 10
15.14325083773514
 20
-37.72711189711492
 30
0.0
 10
15.14325083773514
 20
-37.72711189711492
 30
0.0
 10
15.14325083773514
 20
-37.72711189711492
 30
0.0
 10
15.22537222477244
 20
-37.85946815928861
 30
0.0
 10
15.14325083773514
 20
-37.94159062291838
 30
0.0
 10
15.14325083773514
 20
-37.94159062291838
 30
0.0
 10
14.67408050907639
 20
-37.94159062291838
 30
0.0
 10
14.67408050907639
 20
-37.94159062291838
 30
0.0
 10
14.67408050907639
 20
-37.94159062291838
 30
0.0
 10
14.60725857577061
 20
-37.88444079518745
 30
0.0
 10
14.65208249781073
 20
-37.83961579655499
 30
0.0
  0
SPLINE
  5
98
330
70
100
AcDbEntity
  8
logo text
 62
     5
370
     9
100
AcDbSpline
210
0.0
220
0.0
230
1.0
 70
    11
 71
     3
 72
    35
 73
    31
 74
     0
 42
0.0000000001
 43
0.0000000001
 40
0.0
 40
0.0
 40
0.0
 40
0.0
 40
1.0
 40
1.0
 40
1.0
 40
2.0
 40
2.0
 40
2.0
 40
3.0
 40
3.0
 40
3.0
 40
4.0
 40
4.0
 40
4.0
 40
5.0
 40
5.0
 40
5.0
 40
6.0
 40
6.0
 40
6.0
 40
7.0
 40
7.0
 40
7.0
 40
8.0
 40
8.0
 40
8.0
 40
9.0
 40
9.0
 40
9.0
 40
10.0
 40
10.0
 40
10.0
 40
10.0
 10
15.21528672417608
 20
-37.41116219016266
 30
0.0
 10
15.21528672417608
 20
-37.41116219016266
 30
0.0
 10
15.36750085802559
 20
-37.41116219016266
 30
0.0
 10
15.36750085802559
 20
-37.41116219016266
 30
0.0
 10
15.36750085802559
 20
-37.41116219016266
 30
0.0
 10
15.36750085802559
 20
-37.54082405775506
 30
0.0
 10
15.36750085802559
 20
-37.54082405775506
 30
0.0
 10
15.36750085802559
 20
-37.54082405775506
 30
0.0
 10
15.44642670520683
 20
-37.54082405775506
 30
0.0
 10
15.44642670520683
 20
-37.54082405775506
 30
0.0
 10
15.44642670520683
 20
-37.54082405775506
 30
0.0
 10
15.44642670520683
 20
-37.66203160878355
 30
0.0
 10
15.44642670520683
 20
-37.66203160878355
 30
0.0
 10
15.44642670520683
 20
-37.66203160878355
 30
0.0
 10
15.37313841853854
 20
-37.66203160878355
 30
0.0
 10
15.37313841853854
 20
-37.66203160878355
 30
0.0
 10
15.37313841853854
 20
-37.66203160878355
 30
0.0
 10
15.34495061597386
 20
-37.81706452288947
 30
0.0
 10
15.44642670520683
 20
-37.81706452288947
 30
0.0
 10
15.44642670520683
 20
-37.81706452288947
 30
0.0
 10
15.44642670520683
 20
-37.94109085417446
 30
0.0
 10
15.44642670520683
 20
-37.94109085417446
 30
0.0
 10
15.44642670520683
 20
-37.94109085417446
 30
0.0
 10
15.25474964776662
 20
-37.94159062291838
 30
0.0
 10
15.25474964776662
 20
-37.94159062291838
 30
0.0
 10
15.25474964776662
 20
-37.94159062291838
 30
0.0
 10
15.21528672417608
 20
-37.92417817263542
 30
0.0
 10
15.21528672417608
 20
-37.7916955005813
 30
0.0
 10
15.21528672417608
 20
-37.6592128285273
 30
0.0
 10
15.21528672417608
 20
-37.41116219016266
 30
0.0
 10
15.21528672417608
 20
-37.41116219016266
 30
0.0
  0
SPLINE
  5
99
330
70
100
AcDbEntity
  8
logo text
 62
     5
370
     9
100
AcDbSpline
210
0.0
220
0.0
230
1.0
 70
     9
 71
     3
 72
    29
 73
    25
 74
     0
 42
0.0000000001
 43
0.0000000001
 40
0.0
 40
0.0
 40
0.0
 40
0.0
 40
1.0
 40
1.0
 40
1.0
 40
2.0
 40
2.0
 40
2.0
 40
3.0
 40
3.0
 40
3.0
 40
4.0
 40
4.0
 40
4.0
 40
5.0
 40
5.0
 40
5.0
 40
6.0
 40
6.0
 40
6.0
 40
7.0
 40
7.0
 40
7.0
 40
8.0
 40
8.0
 40
8.0
 40
8.0
 10
15.59300327854343
 20
-37.5126374776807
 30
0.0
 10
15.59300327854343
 20
-37.5126374776807
 30
0.0
 10
15.95944471188482
 20
-37.5126374776807
 30
0.0
 10
15.95944471188482
 20
-37.5126374776807
 30
0.0
 10
15.95944471188482
 20
-37.5126374776807
 30
0.0
 10
16.03273299855308
 20
-37.49622330200737
 30
0.0
 10
16.03273299855308
 20
-37.72711341886031
 30
0.0
 10
16.03273299855308
 20
-37.72711341886031
 30
0.0
 10
16.06092080111779
 20
-37.76632647827312
 30
0.0
 10
15.96508227239773
 20
-37.76632647827312
 30
0.0
 10
15.86924374367767
 20
-37.76632647827312
 30
0.0
 10
15.72830473085406
 20
-37.76632647827312
 30
0.0
 10
15.72830473085406
 20
-37.76632647827312
 30
0.0
 10
15.72830473085406
 20
-37.76632647827312
 30
0.0
 10
15.66065400469875
 20
-37.85088988596741
 30
0.0
 10
15.99327007496247
 20
-37.85088988596741
 30
0.0
 10
15.99327007496247
 20
-37.85088988596741
 30
0.0
 10
15.98763251444952
 20
-37.94159062291838
 30
0.0
 10
15.98763251444952
 20
-37.94159062291838
 30
0.0
 10
15.98763251444952
 20
-37.94159062291838
 30
0.0
 10
15.59300327854343
 20
-37.94159062291838
 30
0.0
 10
15.59300327854343
 20
-37.94159062291838
 30
0.0
 10
15.59300327854343
 20
-37.94159062291838
 30
0.0
 10
15.41823829139709
 20
-37.68740246482707
 30
0.0
 10
15.59300327854343
 20
-37.5126374776807
 30
0.0
  0
SPLINE
  5
9A
330
70
100
AcDbEntity
  8
logo text
 62
     5
370
     9
100
AcDbSpline
210
0.0
220
0.0
230
1.0
 70
     9
 71
     3
 72
    14
 73
    10
 74
     0
 42
0.0000000001
 43
0.0000000001
 40
0.0
 40
0.0
 40
0.0
 40
0.0
 40
1.0
 40
1.0
 40
1.0
 40
2.0
 40
2.0
 40
2.0
 40
3.0
 40
3.0
 40
3.0
 40
3.0
 10
15.71139204931522
 20
-37.62538684017408
 30
0.0
 10
15.71139204931522
 20
-37.62538684017408
 30
0.0
 10
15.80159301752236
 20
-37.62538684017408
 30
0.0
 10
15.80159301752236
 20
-37.62538684017408
 30
0.0
 10
15.80159301752236
 20
-37.62538684017408
 30
0.0
 10
15.80159301752236
 20
-37.69867575211762
 30
0.0
 10
15.80159301752236
 20
-37.69867575211762
 30
0.0
 10
15.80159301752236
 20
-37.69867575211762
 30
0.0
 10
15.63810407528461
 20
-37.69867481420465
 30
0.0
 10
15.71139204931522
 20
-37.62538684017408
 30
0.0
  0
SPLINE
  5
9B
330
70
100
AcDbEntity
  8
logo text
 62
     5
370
     9
100
AcDbSpline
210
0.0
220
0.0
230
1.0
 70
     9
 71
     3
 72
    29
 73
    25
 74
     0
 42
0.0000000001
 43
0.0000000001
 40
0.0
 40
0.0
 40
0.0
 40
0.0
 40
1.0
 40
1.0
 40
1.0
 40
2.0
 40
2.0
 40
2.0
 40
3.0
 40
3.0
 40
3.0
 40
4.0
 40
4.0
 40
4.0
 40
5.0
 40
5.0
 40
5.0
 40
6.0
 40
6.0
 40
6.0
 40
7.0
 40
7.0
 40
7.0
 40
8.0
 40
8.0
 40
8.0
 40
8.0
 10
16.09474616419539
 20
-37.5126374776807
 30
0.0
 10
16.09474616419539
 20
-37.5126374776807
 30
0.0
 10
16.43299979497216
 20
-37.5126374776807
 30
0.0
 10
16.43299979497216
 20
-37.5126374776807
 30
0.0
 10
16.43299979497216
 20
-37.5126374776807
 30
0.0
 10
16.43299979497216
 20
-37.67637640654059
 30
0.0
 10
16.43299979497216
 20
-37.67637640654059
 30
0.0
 10
16.43299979497216
 20
-37.67637640654059
 30
0.0
 10
16.26387297958374
 20
-37.67637640654059
 30
0.0
 10
16.26387297958374
 20
-37.67637640654059
 30
0.0
 10
16.26387297958374
 20
-37.67637640654059
 30
0.0
 10
16.22159147616545
 20
-37.6540766601056
 30
0.0
 10
16.22159147616545
 20
-37.71865790995888
 30
0.0
 10
16.22159147616545
 20
-37.78323915981191
 30
0.0
 10
16.22159147616545
 20
-37.94109085417446
 30
0.0
 10
16.22159147616545
 20
-37.94109085417446
 30
0.0
 10
16.22159147616545
 20
-37.94109085417446
 30
0.0
 10
16.06092080111782
 20
-37.94159062291838
 30
0.0
 10
16.06092080111782
 20
-37.94159062291838
 30
0.0
 10
16.06092080111782
 20
-37.94159062291838
 30
0.0
 10
16.06092080111782
 20
-37.55209917878108
 30
0.0
 10
16.06092080111782
 20
-37.55209917878108
 30
0.0
 10
16.06092080111782
 20
-37.55209917878108
 30
0.0
 10
16.03273299855289
 20
-37.5126374776807
 30
0.0
 10
16.09474616419539
 20
-37.5126374776807
 30
0.0
  0
SPLINE
  5
9C
330
70
100
AcDbEntity
  8
logo text
 62
     5
370
     9
100
AcDbSpline
210
0.0
220
0.0
230
1.0
 70
     9
 71
     3
 72
    38
 73
    34
 74
     0
 42
0.0000000001
 43
0.0000000001
 40
0.0
 40
0.0
 40
0.0
 40
0.0
 40
1.0
 40
1.0
 40
1.0
 40
2.0
 40
2.0
 40
2.0
 40
3.0
 40
3.0
 40
3.0
 40
4.0
 40
4.0
 40
4.0
 40
5.0
 40
5.0
 40
5.0
 40
6.0
 40
6.0
 40
6.0
 40
7.0
 40
7.0
 40
7.0
 40
8.0
 40
8.0
 40
8.0
 40
9.0
 40
9.0
 40
9.0
 40
10.0
 40
10.0
 40
10.0
 40
11.0
 40
11.0
 40
11.0
 40
11.0
 10
16.50132613022247
 20
-37.83831947027481
 30
0.0
 10
16.55516005354885
 20
-37.78448554694817
 30
0.0
 10
16.74882717284451
 20
-37.76502937019548
 30
0.0
 10
16.60788831654294
 20
-37.76502937019548
 30
0.0
 10
16.46694946024137
 20
-37.76502937019548
 30
0.0
 10
16.50641195243257
 20
-37.65228000770171
 30
0.0
 10
16.50641195243257
 20
-37.58462694511037
 30
0.0
 10
16.50641195243257
 20
-37.51697818888813
 30
0.0
 10
16.57406286183948
 20
-37.51134115140014
 30
0.0
 10
16.57406286183948
 20
-37.51134115140014
 30
0.0
 10
16.57406286183948
 20
-37.51134115140014
 30
0.0
 10
16.96305397604074
 20
-37.51134115140014
 30
0.0
 10
16.96305397604074
 20
-37.51134115140014
 30
0.0
 10
16.96305397604074
 20
-37.51134115140014
 30
0.0
 10
17.02929562607572
 20
-37.59449283730626
 30
0.0
 10
16.96305397604074
 20
-37.66073341074877
 30
0.0
 10
16.96305397604074
 20
-37.66073341074877
 30
0.0
 10
16.66990111186981
 20
-37.66073341074877
 30
0.0
 10
16.66990111186981
 20
-37.66073341074877
 30
0.0
 10
16.66990111186981
 20
-37.66073341074877
 30
0.0
 10
16.59097505089504
 20
-37.72581557083436
 30
0.0
 10
16.66990111186981
 20
-37.72581557083436
 30
0.0
 10
16.74882717284451
 20
-37.72581557083436
 30
0.0
 10
16.99249447014687
 20
-37.72581557083436
 30
0.0
 10
16.99249447014687
 20
-37.72581557083436
 30
0.0
 10
16.99249447014687
 20
-37.72581557083436
 30
0.0
 10
17.07461585718418
 20
-37.85817183300844
 30
0.0
 10
16.99249447014687
 20
-37.94029429663821
 30
0.0
 10
16.99249447014687
 20
-37.94029429663821
 30
0.0
 10
16.52332414148813
 20
-37.94029429663821
 30
0.0
 10
16.52332414148813
 20
-37.94029429663821
 30
0.0
 10
16.52332414148813
 20
-37.94029429663821
 30
0.0
 10
16.45650220818235
 20
-37.88314446890727
 30
0.0
 10
16.50132613022247
 20
-37.83831947027481
 30
0.0
  0
SPLINE
  5
9D
330
70
100
AcDbEntity
  8
logo text
 62
     5
370
     9
100
AcDbSpline
210
0.0
220
0.0
230
1.0
 70
    11
 71
     3
 72
    35
 73
    31
 74
     0
 42
0.0000000001
 43
0.0000000001
 40
0.0
 40
0.0
 40
0.0
 40
0.0
 40
1.0
 40
1.0
 40
1.0
 40
2.0
 40
2.0
 40
2.0
 40
3.0
 40
3.0
 40
3.0
 40
4.0
 40
4.0
 40
4.0
 40
5.0
 40
5.0
 40
5.0
 40
6.0
 40
6.0
 40
6.0
 40
7.0
 40
7.0
 40
7.0
 40
8.0
 40
8.0
 40
8.0
 40
9.0
 40
9.0
 40
9.0
 40
10.0
 40
10.0
 40
10.0
 40
10.0
 10
20.89434063528038
 20
-37.39552106612545
 30
0.0
 10
20.89434063528038
 20
-37.39552106612545
 30
0.0
 10
21.04655476912989
 20
-37.39552106612545
 30
0.0
 10
21.04655476912989
 20
-37.39552106612545
 30
0.0
 10
21.04655476912989
 20
-37.39552106612545
 30
0.0
 10
21.04655476912989
 20
-37.52518293371823
 30
0.0
 10
21.04655476912989
 20
-37.52518293371823
 30
0.0
 10
21.04655476912989
 20
-37.52518293371823
 30
0.0
 10
21.12548061631114
 20
-37.52518293371823
 30
0.0
 10
21.12548061631114
 20
-37.52518293371823
 30
0.0
 10
21.12548061631114
 20
-37.52518293371823
 30
0.0
 10
21.12548061631114
 20
-37.64639048474633
 30
0.0
 10
21.12548061631114
 20
-37.64639048474633
 30
0.0
 10
21.12548061631114
 20
-37.64639048474633
 30
0.0
 10
21.05219232964284
 20
-37.64639048474633
 30
0.0
 10
21.05219232964284
 20
-37.64639048474633
 30
0.0
 10
21.05219232964284
 20
-37.64639048474633
 30
0.0
 10
21.02400452707813
 20
-37.80142339885225
 30
0.0
 10
21.12548061631114
 20
-37.80142339885225
 30
0.0
 10
21.12548061631114
 20
-37.80142339885225
 30
0.0
 10
21.12548061631114
 20
-37.92544973013724
 30
0.0
 10
21.12548061631114
 20
-37.92544973013724
 30
0.0
 10
21.12548061631114
 20
-37.92544973013724
 30
0.0
 10
20.93380355887096
 20
-37.9259494988813
 30
0.0
 10
20.93380355887096
 20
-37.9259494988813
 30
0.0
 10
20.93380355887096
 20
-37.9259494988813
 30
0.0
 10
20.89434063528038
 20
-37.90853704859846
 30
0.0
 10
20.89434063528038
 20
-37.77605437654408
 30
0.0
 10
20.89434063528038
 20
-37.64357170449008
 30
0.0
 10
20.89434063528038
 20
-37.39552106612545
 30
0.0
 10
20.89434063528038
 20
-37.39552106612545
 30
0.0
  0
SPLINE
  5
9E
330
70
100
AcDbEntity
  8
logo text
 62
     5
370
     9
100
AcDbSpline
210
0.0
220
0.0
230
1.0
 70
     9
 71
     3
 72
    29
 73
    25
 74
     0
 42
0.0000000001
 43
0.0000000001
 40
0.0
 40
0.0
 40
0.0
 40
0.0
 40
1.0
 40
1.0
 40
1.0
 40
2.0
 40
2.0
 40
2.0
 40
3.0
 40
3.0
 40
3.0
 40
4.0
 40
4.0
 40
4.0
 40
5.0
 40
5.0
 40
5.0
 40
6.0
 40
6.0
 40
6.0
 40
7.0
 40
7.0
 40
7.0
 40
8.0
 40
8.0
 40
8.0
 40
8.0
 10
17.40241244460936
 20
-37.51134115140014
 30
0.0
 10
17.40241244460936
 20
-37.51134115140014
 30
0.0
 10
17.78012899897668
 20
-37.51134115140014
 30
0.0
 10
17.78012899897668
 20
-37.51134115140014
 30
0.0
 10
17.78012899897668
 20
-37.51134115140014
 30
0.0
 10
17.84214216461908
 20
-37.52261379938544
 30
0.0
 10
17.84214216461908
 20
-37.6240905138939
 30
0.0
 10
17.84214216461908
 20
-37.72556722840224
 30
0.0
 10
17.84214216461908
 20
-37.8721438017389
 30
0.0
 10
17.84214216461908
 20
-37.8721438017389
 30
0.0
 10
17.84214216461908
 20
-37.8721438017389
 30
0.0
 10
17.84777972513206
 20
-37.94029429663821
 30
0.0
 10
17.76885387795082
 20
-37.94029429663821
 30
0.0
 10
17.68992803076957
 20
-37.94029429663821
 30
0.0
 10
17.40241244460936
 20
-37.93979452789403
 30
0.0
 10
17.40241244460936
 20
-37.93979452789403
 30
0.0
 10
17.40241244460936
 20
-37.93979452789403
 30
0.0
 10
17.34603683947995
 20
-37.95670720943306
 30
0.0
 10
17.34603683947995
 20
-37.87778136225166
 30
0.0
 10
17.34603683947995
 20
-37.79885551507051
 30
0.0
 10
17.34603683947995
 20
-37.56771553403968
 30
0.0
 10
17.34603683947995
 20
-37.56771553403968
 30
0.0
 10
17.34603683947995
 20
-37.56771553403968
 30
0.0
 10
17.35167439999289
 20
-37.51134115140014
 30
0.0
 10
17.40241244460936
 20
-37.51134115140014
 30
0.0
  0
SPLINE
  5
9F
330
70
100
AcDbEntity
  8
logo text
 62
     5
370
     9
100
AcDbSpline
210
0.0
220
0.0
230
1.0
 70
     9
 71
     3
 72
    23
 73
    19
 74
     0
 42
0.0000000001
 43
0.0000000001
 40
0.0
 40
0.0
 40
0.0
 40
0.0
 40
1.0
 40
1.0
 40
1.0
 40
2.0
 40
2.0
 40
2.0
 40
3.0
 40
3.0
 40
3.0
 40
4.0
 40
4.0
 40
4.0
 40
5.0
 40
5.0
 40
5.0
 40
6.0
 40
6.0
 40
6.0
 40
6.0
 10
17.53771420505018
 20
-37.67507792707561
 30
0.0
 10
17.53771420505018
 20
-37.67507792707561
 30
0.0
 10
17.59413302658284
 20
-37.67507792707561
 30
0.0
 10
17.59413302658284
 20
-37.67507792707561
 30
0.0
 10
17.59413302658284
 20
-37.67507792707561
 30
0.0
 10
17.64482760664829
 20
-37.66355408267744
 30
0.0
 10
17.64482760664829
 20
-37.69738061397324
 30
0.0
 10
17.64482760664829
 20
-37.73120283889955
 30
0.0
 10
17.64482760664829
 20
-37.76502937019548
 30
0.0
 10
17.64482760664829
 20
-37.76502937019548
 30
0.0
 10
17.64482760664829
 20
-37.76502937019548
 30
0.0
 10
17.6449158872201
 20
-37.79039819207499
 30
0.0
 10
17.59413302658284
 20
-37.79039819207499
 30
0.0
 10
17.54335124253791
 20
-37.79039819207499
 30
0.0
 10
17.50388875034672
 20
-37.81012997646663
 30
0.0
 10
17.50388875034672
 20
-37.76502937019548
 30
0.0
 10
17.50388875034672
 20
-37.7199287639242
 30
0.0
 10
17.48129430692517
 20
-37.67507792707561
 30
0.0
 10
17.53771420505018
 20
-37.67507792707561
 30
0.0
  0
SPLINE
  5
A0
330
70
100
AcDbEntity
  8
logo text
 62
     5
370
     9
100
AcDbSpline
210
0.0
220
0.0
230
1.0
 70
    11
 71
     3
 72
    38
 73
    34
 74
     0
 42
0.0000000001
 43
0.0000000001
 40
0.0
 40
0.0
 40
0.0
 40
0.0
 40
1.0
 40
1.0
 40
1.0
 40
2.0
 40
2.0
 40
2.0
 40
3.0
 40
3.0
 40
3.0
 40
4.0
 40
4.0
 40
4.0
 40
5.0
 40
5.0
 40
5.0
 40
6.0
 40
6.0
 40
6.0
 40
7.0
 40
7.0
 40
7.0
 40
8.0
 40
8.0
 40
8.0
 40
9.0
 40
9.0
 40
9.0
 40
10.0
 40
10.0
 40
10.0
 40
11.0
 40
11.0
 40
11.0
 40
11.0
 10
18.17475823488284
 20
-37.4098658638821
 30
0.0
 10
18.17475823488284
 20
-37.4098658638821
 30
0.0
 10
17.94925581436504
 20
-37.4098658638821
 30
0.0
 10
17.94925581436504
 20
-37.4098658638821
 30
0.0
 10
17.94925581436504
 20
-37.4098658638821
 30
0.0
 10
17.90415533026148
 20
-37.40986383967752
 30
0.0
 10
17.90415533026148
 20
-37.46060188429386
 30
0.0
 10
17.90415533026148
 20
-37.5113399289102
 30
0.0
 10
17.90415533026148
 20
-37.93979452789403
 30
0.0
 10
17.90415533026148
 20
-37.93979452789403
 30
0.0
 10
17.90415533026148
 20
-37.93979452789403
 30
0.0
 10
18.07328214564984
 20
-37.93979452789403
 30
0.0
 10
18.07328214564984
 20
-37.93979452789403
 30
0.0
 10
18.07328214564984
 20
-37.93979452789403
 30
0.0
 10
18.07891970616275
 20
-37.67483019588813
 30
0.0
 10
18.07891970616275
 20
-37.67483019588813
 30
0.0
 10
18.07891970616275
 20
-37.67483019588813
 30
0.0
 10
18.17475823488284
 20
-37.67318678488705
 30
0.0
 10
18.17475823488284
 20
-37.67318678488705
 30
0.0
 10
18.17475823488284
 20
-37.67318678488705
 30
0.0
 10
18.17475823488284
 20
-37.55080285250091
 30
0.0
 10
18.17475823488284
 20
-37.55080285250091
 30
0.0
 10
18.17475823488284
 20
-37.55080285250091
 30
0.0
 10
18.11838262975339
 20
-37.55080285250091
 30
0.0
 10
18.11838262975339
 20
-37.55080285250091
 30
0.0
 10
18.11838262975339
 20
-37.55080285250091
 30
0.0
 10
18.11838262975339
 20
-37.51108679882816
 30
0.0
 10
18.11838262975339
 20
-37.51108679882816
 30
0.0
 10
18.11838262975339
 20
-37.51108679882816
 30
0.0
 10
18.17475823488284
 20
-37.51108679882816
 30
0.0
 10
18.17475823488284
 20
-37.51108679882816
 30
0.0
 10
18.17475823488284
 20
-37.51108679882816
 30
0.0
 10
18.17475823488284
 20
-37.4098658638821
 30
0.0
 10
18.17475823488284
 20
-37.4098658638821
 30
0.0
  0
SPLINE
  5
A1
330
70
100
AcDbEntity
  8
logo text
 62
     5
370
     9
100
AcDbSpline
210
0.0
220
0.0
230
1.0
 70
     9
 71
     3
 72
    47
 73
    43
 74
     0
 42
0.0000000001
 43
0.0000000001
 40
0.0
 40
0.0
 40
0.0
 40
0.0
 40
1.0
 40
1.0
 40
1.0
 40
2.0
 40
2.0
 40
2.0
 40
3.0
 40
3.0
 40
3.0
 40
4.0
 40
4.0
 40
4.0
 40
5.0
 40
5.0
 40
5.0
 40
6.0
 40
6.0
 40
6.0
 40
7.0
 40
7.0
 40
7.0
 40
8.0
 40
8.0
 40
8.0
 40
9.0
 40
9.0
 40
9.0
 40
10.0
 40
10.0
 40
10.0
 40
11.0
 40
11.0
 40
11.0
 40
12.0
 40
12.0
 40
12.0
 40
13.0
 40
13.0
 40
13.0
 40
14.0
 40
14.0
 40
14.0
 40
14.0
 10
18.75730608507875
 20
-37.51108679882816
 30
0.0
 10
18.69354026290226
 20
-37.5748526210048
 30
0.0
 10
18.75730608507875
 20
-37.6240905138939
 30
0.0
 10
18.75730608507875
 20
-37.6240905138939
 30
0.0
 10
18.75730608507875
 20
-37.6240905138939
 30
0.0
 10
18.9640167066951
 20
-37.6240905138939
 30
0.0
 10
18.9640167066951
 20
-37.6240905138939
 30
0.0
 10
19.09931784636814
 20
-37.75939165356684
 30
0.0
 10
18.9640167066951
 20
-37.93979452789403
 30
0.0
 10
18.9640167066951
 20
-37.93979452789403
 30
0.0
 10
18.9640167066951
 20
-37.93979452789403
 30
0.0
 10
18.60321283386663
 20
-37.93979452789403
 30
0.0
 10
18.54119966822423
 20
-37.93979452789403
 30
0.0
 10
18.47918650258183
 20
-37.93979452789403
 30
0.0
 10
18.54119966822423
 20
-37.81576819660929
 30
0.0
 10
18.54119966822423
 20
-37.81576819660929
 30
0.0
 10
18.54119966822423
 20
-37.81576819660929
 30
0.0
 10
18.74415184669025
 20
-37.81576819660929
 30
0.0
 10
18.84562793592325
 20
-37.81576819660929
 30
0.0
 10
18.94710402515626
 20
-37.81576819660929
 30
0.0
 10
18.84562793592325
 20
-37.73394151654529
 30
0.0
 10
18.84562793592325
 20
-37.73394151654529
 30
0.0
 10
18.84562793592325
 20
-37.73394151654529
 30
0.0
 10
18.60885039437958
 20
-37.73394151654529
 30
0.0
 10
18.55247478925013
 20
-37.73394151654529
 30
0.0
 10
18.49609918412068
 20
-37.73394151654529
 30
0.0
 10
18.49046162360773
 20
-37.67508008026041
 30
0.0
 10
18.49046162360773
 20
-37.67508008026041
 30
0.0
 10
18.49046162360773
 20
-37.67508008026041
 30
0.0
 10
18.49046162360773
 20
-37.53952773147489
 30
0.0
 10
18.49046162360773
 20
-37.47187700531976
 30
0.0
 10
18.49046162360773
 20
-37.40422627916438
 30
0.0
 10
18.59193771284073
 20
-37.38167603711233
 30
0.0
 10
18.59193771284073
 20
-37.38167603711233
 30
0.0
 10
18.59193771284073
 20
-37.38167603711233
 30
0.0
 10
18.9640167066951
 20
-37.38167603711233
 30
0.0
 10
18.9640167066951
 20
-37.38167603711233
 30
0.0
 10
18.9640167066951
 20
-37.38167603711233
 30
0.0
 10
19.02039170057953
 20
-37.45496615751607
 30
0.0
 10
18.9640167066951
 20
-37.51134115140014
 30
0.0
 10
18.9640167066951
 20
-37.51134115140014
 30
0.0
 10
18.75730608507875
 20
-37.51108679882816
 30
0.0
 10
18.75730608507875
 20
-37.51108679882816
 30
0.0
  0
SPLINE
  5
A2
330
70
100
AcDbEntity
  8
logo text
 62
     5
370
     9
100
AcDbSpline
210
0.0
220
0.0
230
1.0
 70
    11
 71
     3
 72
    23
 73
    19
 74
     0
 42
0.0000000001
 43
0.0000000001
 40
0.0
 40
0.0
 40
0.0
 40
0.0
 40
1.0
 40
1.0
 40
1.0
 40
2.0
 40
2.0
 40
2.0
 40
3.0
 40
3.0
 40
3.0
 40
4.0
 40
4.0
 40
4.0
 40
5.0
 40
5.0
 40
5.0
 40
6.0
 40
6.0
 40
6.0
 40
6.0
 10
19.08804303797991
 20
-37.51134115140014
 30
0.0
 10
19.08804303797991
 20
-37.51134115140014
 30
0.0
 10
19.49958495542485
 20
-37.51134115140014
 30
0.0
 10
19.49958495542485
 20
-37.51134115140014
 30
0.0
 10
19.49958495542485
 20
-37.51134115140014
 30
0.0
 10
19.66795070014392
 20
-37.77295092451339
 30
0.0
 10
19.49958495542485
 20
-37.94131666923278
 30
0.0
 10
19.49958495542485
 20
-37.94131666923278
 30
0.0
 10
19.24589473234233
 20
-37.93979452789403
 30
0.0
 10
19.24589473234233
 20
-37.93979452789403
 30
0.0
 10
19.24589473234233
 20
-37.93979452789403
 30
0.0
 10
19.24589473234233
 20
-38.07509598020491
 30
0.0
 10
19.24589473234233
 20
-38.07509598020491
 30
0.0
 10
19.24589473234233
 20
-38.07509598020491
 30
0.0
 10
19.08804303797991
 20
-38.07509598020491
 30
0.0
 10
19.08804303797991
 20
-38.07509598020491
 30
0.0
 10
19.08804303797991
 20
-38.07509598020491
 30
0.0
 10
19.08804303797991
 20
-37.51134115140014
 30
0.0
 10
19.08804303797991
 20
-37.51134115140014
 30
0.0
  0
SPLINE
  5
A3
330
70
100
AcDbEntity
  8
logo text
 62
     5
370
     9
100
AcDbSpline
210
0.0
220
0.0
230
1.0
 70
     9
 71
     3
 72
    20
 73
    16
 74
     0
 42
0.0000000001
 43
0.0000000001
 40
0.0
 40
0.0
 40
0.0
 40
0.0
 40
1.0
 40
1.0
 40
1.0
 40
2.0
 40
2.0
 40
2.0
 40
3.0
 40
3.0
 40
3.0
 40
4.0
 40
4.0
 40
4.0
 40
5.0
 40
5.0
 40
5.0
 40
5.0
 10
19.35864526199512
 20
-37.6861022326284
 30
0.0
 10
19.35864741517979
 20
-37.68610653899763
 30
0.0
 10
19.36878030227582
 20
-37.69959839419161
 30
0.0
 10
19.35864526199512
 20
-37.79469594869271
 30
0.0
 10
19.35864526199512
 20
-37.79469594869271
 30
0.0
 10
19.35864526199512
 20
-37.79469594869271
 30
0.0
 10
19.35864526199512
 20
-37.79469594869271
 30
0.0
 10
19.35864526199512
 20
-37.79469594869271
 30
0.0
 10
19.24589374631696
 20
-37.79469594869271
 30
0.0
 10
19.24589374631696
 20
-37.79469594869271
 30
0.0
 10
19.24589374631696
 20
-37.75474145380265
 30
0.0
 10
19.24589374631696
 20
-37.71478265254311
 30
0.0
 10
19.24589374631696
 20
-37.67482815765267
 30
0.0
 10
19.31666246713799
 20
-37.65964820567091
 30
0.0
 10
19.34641947939184
 20
-37.66981985009124
 30
0.0
 10
19.35864526199512
 20
-37.6861022326284
 30
0.0
  0
LWPOLYLINE
  5
A4
330
70
100
AcDbEntity
  8
logo text
 62
     5
370
     9
100
AcDbPolyline
 90
        4
 70
     1
 43
0.0
 10
19.61233616568378
 20
-37.38167603711233
 10
19.77582542055916
 20
-37.38167603711233
 10
19.77582542055916
 20
-37.51134115140014
 10
19.61233616568378
 20
-37.51134115140014
  0
LWPOLYLINE
  5
A5
330
70
100
AcDbEntity
  8
logo text
 62
     5
370
     9
100
AcDbPolyline
 90
        4
 70
     1
 43
0.0
 10
19.61233616568378
 20
-37.58462821557847
 10
19.77582542055916
 20
-37.58462821557847
 10
19.77582542055916
 20
-37.93979452789403
 10
19.61233616568378
 20
-37.94131666923278
  0
SPLINE
  5
A6
330
70
100
AcDbEntity
  8
logo text
 62
     5
370
     9
100
AcDbSpline
210
0.0
220
0.0
230
1.0
 70
    11
 71
     3
 72
    32
 73
    28
 74
     0
 42
0.0000000001
 43
0.0000000001
 40
0.0
 40
0.0
 40
0.0
 40
0.0
 40
1.0
 40
1.0
 40
1.0
 40
2.0
 40
2.0
 40
2.0
 40
3.0
 40
3.0
 40
3.0
 40
4.0
 40
4.0
 40
4.0
 40
5.0
 40
5.0
 40
5.0
 40
6.0
 40
6.0
 40
6.0
 40
7.0
 40
7.0
 40
7.0
 40
8.0
 40
8.0
 40
8.0
 40
9.0
 40
9.0
 40
9.0
 40
9.0
 10
19.84911370722745
 20
-37.51134115140014
 30
0.0
 10
19.84911370722745
 20
-37.51134115140014
 30
0.0
 10
19.84911370722745
 20
-37.93979452789403
 30
0.0
 10
19.84911370722745
 20
-37.93979452789403
 30
0.0
 10
19.84911370722745
 20
-37.93979452789403
 30
0.0
 10
20.00132784107697
 20
-37.93979452789403
 30
0.0
 10
20.00132784107697
 20
-37.93979452789403
 30
0.0
 10
20.00132784107697
 20
-37.93979452789403
 30
0.0
 10
20.00132784107697
 20
-37.67483019588813
 30
0.0
 10
20.00132784107697
 20
-37.67483019588813
 30
0.0
 10
20.00132784107697
 20
-37.67483019588813
 30
0.0
 10
20.17045465646545
 20
-37.62375671898252
 30
0.0
 10
20.17045465646545
 20
-37.7310375788218
 30
0.0
 10
20.17045465646545
 20
-37.83831843866134
 30
0.0
 10
20.17045465646545
 20
-37.93979452789403
 30
0.0
 10
20.17045465646545
 20
-37.93979452789403
 30
0.0
 10
20.17045465646545
 20
-37.93979452789403
 30
0.0
 10
20.34521903236663
 20
-37.94131666923278
 30
0.0
 10
20.34521903236663
 20
-37.94131666923278
 30
0.0
 10
20.34521903236663
 20
-37.94131666923278
 30
0.0
 10
20.34521903236663
 20
-37.58462821557847
 30
0.0
 10
20.34521903236663
 20
-37.58462821557847
 30
0.0
 10
20.34521903236663
 20
-37.58462821557847
 30
0.0
 10
20.32266879031477
 20
-37.51108679882816
 30
0.0
 10
20.2606556246724
 20
-37.51108679882816
 30
0.0
 10
20.19864245903003
 20
-37.51108679882816
 30
0.0
 10
19.84911370722745
 20
-37.51134115140014
 30
0.0
 10
19.84911370722745
 20
-37.51134115140014
 30
0.0
  0
SPLINE
  5
A7
330
70
100
AcDbEntity
  8
logo text
 62
     5
370
     9
100
AcDbSpline
210
0.0
220
0.0
230
1.0
 70
     9
 71
     3
 72
    29
 73
    25
 74
     0
 42
0.0000000001
 43
0.0000000001
 40
0.0
 40
0.0
 40
0.0
 40
0.0
 40
1.0
 40
1.0
 40
1.0
 40
2.0
 40
2.0
 40
2.0
 40
3.0
 40
3.0
 40
3.0
 40
4.0
 40
4.0
 40
4.0
 40
5.0
 40
5.0
 40
5.0
 40
6.0
 40
6.0
 40
6.0
 40
7.0
 40
7.0
 40
7.0
 40
8.0
 40
8.0
 40
8.0
 40
8.0
 10
20.43541919510893
 20
-37.58462705421422
 30
0.0
 10
20.43541919510893
 20
-37.58462705421422
 30
0.0
 10
20.60454754521856
 20
-37.58462705421422
 30
0.0
 10
20.60454754521856
 20
-37.58462705421422
 30
0.0
 10
20.60454754521856
 20
-37.58462705421422
 30
0.0
 10
20.60454754521856
 20
-37.97362139819237
 30
0.0
 10
20.60454754521856
 20
-37.97362139819237
 30
0.0
 10
20.60454754521856
 20
-37.97362139819237
 30
0.0
 10
20.60454754521856
 20
-38.14838247942051
 30
0.0
 10
20.51998337016375
 20
-38.14838247942051
 30
0.0
 10
20.43541919510893
 20
-38.14838247942051
 30
0.0
 10
20.37904451386217
 20
-38.14838247942051
 30
0.0
 10
20.37904451386217
 20
-38.14838247942051
 30
0.0
 10
20.33767322345368
 20
-38.10942706222092
 30
0.0
 10
20.33411616236516
 20
-38.08541044031949
 30
0.0
 10
20.33773566580935
 20
-38.07099702208295
 30
0.0
 10
20.34594360580296
 20
-38.03830306592793
 30
0.0
 10
20.39557235945266
 20
-38.03704991244543
 30
0.0
 10
20.42244841060696
 20
-37.9875998731239
 30
0.0
 10
20.43220664356894
 20
-37.96964661927652
 30
0.0
 10
20.43483998843047
 20
-37.95292929343421
 30
0.0
 10
20.43670249317719
 20
-37.93095819697716
 30
0.0
 10
20.4455240908041
 20
-37.82691631332261
 30
0.0
 10
20.43655822980374
 20
-37.61123611046855
 30
0.0
 10
20.43541919510893
 20
-37.58462705421422
 30
0.0
  0
LWPOLYLINE
  5
A8
330
70
100
AcDbEntity
  8
logo text
 62
     5
370
     9
100
AcDbPolyline
 90
        4
 70
     1
 43
0.0
 10
20.4466951215996
 20
-37.38167603711233
 10
20.60454681596206
 20
-37.38167603711233
 10
20.60454681596206
 20
-37.51134115140014
 10
20.4466951215996
 20
-37.51134115140014
  0
LWPOLYLINE
  5
A9
330
70
100
AcDbEntity
  8
logo text
 62
     5
370
     9
100
AcDbPolyline
 90
        4
 70
     1
 43
0.0
 10
20.6676990981835
 20
-37.38091465380557
 10
20.83118835305891
 20
-37.38091465380557
 10
20.83118835305891
 20
-37.51057976809338
 10
20.6676990981835
 20
-37.51057976809338
  0
LWPOLYLINE
  5
AA
330
70
100
AcDbEntity
  8
logo text
 62
     5
370
     9
100
AcDbPolyline
 90
        4
 70
     1
 43
0.0
 10
20.6676990981835
 20
-37.58386683227158
 10
20.83118835305891
 20
-37.58386683227158
 10
20.83118835305891
 20
-37.93903314458714
 10
20.6676990981835
 20
-37.9405552859259
  0
LWPOLYLINE
  5
AB
330
70
100
AcDbEntity
  8
logo text
 62
     5
370
     9
100
AcDbPolyline
 90
       11
 70
     1
 43
0.0
 10
21.21278963252269
 20
-37.5126374776807
 10
21.62140190400539
 20
-37.5126374776807
 10
21.62140190400539
 20
-37.66073528250337
 10
21.50116669610968
 20
-37.7932185658024
 10
21.62140190400539
 20
-37.7946953987542
 10
21.62140190400539
 20
-37.9259494988813
 10
21.21278963252269
 20
-37.93979452789403
 10
21.21278963252269
 20
-37.79469594869271
 10
21.30956622313701
 20
-37.72581772401917
 10
21.30956622313701
 20
-37.66073528250337
 10
21.21278963252269
 20
-37.66073528250337
  0
SPLINE
  5
AC
330
70
100
AcDbEntity
  8
logo text
 62
     5
370
     9
100
AcDbSpline
210
0.0
220
0.0
230
1.0
 70
     9
 71
     3
 72
    32
 73
    28
 74
     0
 42
0.0000000001
 43
0.0000000001
 40
0.0
 40
0.0
 40
0.0
 40
0.0
 40
1.0
 40
1.0
 40
1.0
 40
2.0
 40
2.0
 40
2.0
 40
3.0
 40
3.0
 40
3.0
 40
4.0
 40
4.0
 40
4.0
 40
5.0
 40
5.0
 40
5.0
 40
6.0
 40
6.0
 40
6.0
 40
7.0
 40
7.0
 40
7.0
 40
8.0
 40
8.0
 40
8.0
 40
9.0
 40
9.0
 40
9.0
 40
9.0
 10
21.74506147790326
 20
-37.93979486689682
 30
0.0
 10
21.74506147790326
 20
-37.93979486689682
 30
0.0
 10
22.07840245750201
 20
-37.93979486689682
 30
0.0
 10
22.16442649176869
 20
-37.93979486689682
 30
0.0
 10
22.25045052603539
 20
-37.93979486689682
 30
0.0
 10
22.1966855046187
 20
-37.5126374776807
 30
0.0
 10
22.1966855046187
 20
-37.5126374776807
 30
0.0
 10
22.1966855046187
 20
-37.5126374776807
 30
0.0
 10
22.03001393822699
 20
-37.5126374776807
 30
0.0
 10
22.03001393822699
 20
-37.5126374776807
 30
0.0
 10
22.06901026593534
 20
-37.63341391265472
 30
0.0
 10
22.05563683589854
 20
-37.7401515835266
 30
0.0
 10
21.99775492537698
 20
-37.77791844278353
 30
0.0
 10
21.98681244084196
 20
-37.78505840317683
 30
0.0
 10
21.97133534937448
 20
-37.79165576103108
 30
0.0
 10
21.94936640610197
 20
-37.79321897310726
 30
0.0
 10
21.91730548624237
 20
-37.8032011372759
 30
0.0
 10
21.89689760186162
 20
-37.79851580741596
 30
0.0
 10
21.88484838040196
 20
-37.79321897310726
 30
0.0
 10
21.82604060046874
 20
-37.76736353149046
 30
0.0
 10
21.80167731583399
 20
-37.65440746326796
 30
0.0
 10
21.83646201431162
 20
-37.5126374776807
 30
0.0
 10
21.83646201431162
 20
-37.5126374776807
 30
0.0
 10
21.69129645648658
 20
-37.5126374776807
 30
0.0
 10
21.69129645648658
 20
-37.5126374776807
 30
0.0
 10
21.69129645648658
 20
-37.5126374776807
 30
0.0
 10
21.65366094149491
 20
-37.93979486689682
 30
0.0
 10
21.74506147790326
 20
-37.93979486689682
 30
0.0
  0
LWPOLYLINE
  5
AD
330
70
100
AcDbEntity
  8
logo text
 62
     5
370
     9
100
AcDbPolyline
 90
        1
 70
     0
 43
0.0
 10
22.31496639855072
 20
-37.890822834574
  0
ENDSEC
  0
SECTION
  2
OBJECTS
  0
DICTIONARY
  5
C
330
0
100
AcDbDictionary
281
     1
  3
ACAD_COLOR
350
63
  3
ACAD_DETAILVIEWSTYLE
350
6A
  3
ACAD_GROUP
350
D
  3
ACAD_LAYOUT
350
62
  3
ACAD_MATERIAL
350
10
  3
ACAD_MLEADERSTYLE
350
66
  3
ACAD_MLINESTYLE
350
5F
  3
ACAD_PLOTSETTINGS
350
61
  3
ACAD_PLOTSTYLENAME
350
E
  3
ACAD_SCALELIST
350
42
  3
ACAD_SECTIONVIEWSTYLE
350
68
  3
ACAD_TABLESTYLE
350
64
  3
ACAD_VISUALSTYLE
350
29
  3
ACDB_RECOMPOSE_DATA
350
B8
  3
AcDbVariableDictionary
350
AF
  0
DICTIONARY
  5
63
102
{ACAD_REACTORS
330
C
102
}
330
C
100
AcDbDictionary
281
     1
  0
DICTIONARY
  5
6A
102
{ACAD_REACTORS
330
C
102
}
330
C
100
AcDbDictionary
281
     1
  3
Imperial24
350
6B
  0
DICTIONARY
  5
D
102
{ACAD_REACTORS
330
C
102
}
330
C
100
AcDbDictionary
281
     1
  0
DICTIONARY
  5
62
102
{ACAD_REACTORS
330
C
102
}
330
C
100
AcDbDictionary
281
     1
  3
Layout1
350
6F
  3
Layout2
350
77
  3
Model
350
73
  0
DICTIONARY
  5
10
102
{ACAD_REACTORS
330
C
102
}
330
C
100
AcDbDictionary
281
     1
  3
ByBlock
350
19
  3
ByLayer
350
11
  3
Global
350
21
  0
DICTIONARY
  5
66
102
{ACAD_REACTORS
330
C
102
}
330
C
100
AcDbDictionary
281
     1
  3
Standard
350
67
  0
DICTIONARY
  5
5F
102
{ACAD_REACTORS
330
C
102
}
330
C
100
AcDbDictionary
281
     1
  3
Standard
350
60
  0
DICTIONARY
  5
61
102
{ACAD_REACTORS
330
C
102
}
330
C
100
AcDbDictionary
281
     1
  0
ACDBDICTIONARYWDFLT
  5
E
102
{ACAD_REACTORS
330
C
102
}
330
C
100
AcDbDictionary
281
     1
  3
Normal
350
F
100
AcDbDictionaryWithDefault
340
F
  0
DICTIONARY
  5
42
102
{ACAD_REACTORS
330
C
102
}
330
C
100
AcDbDictionary
281
     1
  3
A0
350
43
  3
A1
350
44
  3
A2
350
45
  3
A3
350
46
  3
A4
350
47
  3
A5
350
48
  3
A6
350
49
  3
A7
350
4A
  3
A8
350
4B
  3
A9
350
4C
  3
B0
350
4D
  3
B1
350
4E
  3
B2
350
4F
  3
B3
350
50
  3
B4
350
51
  3
B5
350
52
  3
B6
350
53
  0
DICTIONARY
  5
68
102
{ACAD_REACTORS
330
C
102
}
330
C
100
AcDbDictionary
281
     1
  3
Imperial24
350
69
  0
DICTIONARY
  5
64
102
{ACAD_REACTORS
330
C
102
}
330
C
100
AcDbDictionary
281
     1
  3
Standard
350
65
  0
DICTIONARY
  5
29
102
{ACAD_REACTORS
330
C
102
}
330
C
100
AcDbDictionary
281
     1
  3
2dWireframe
350
2F
  3
Basic
350
2E
  3
Brighten
350
35
  3
ColorChange
350
39
  3
Conceptual
350
32
  3
Dim
350
34
  3
EdgeColorOff
350
41
  3
Facepattern
350
38
  3
Flat
350
2A
  3
FlatWithEdges
350
2B
  3
Gouraud
350
2C
  3
GouraudWithEdges
350
2D
  3
Hidden
350
31
  3
JitterOff
350
3F
  3
Linepattern
350
37
  3
OverhangOff
350
40
  3
Realistic
350
33
  3
Shaded
350
3E
  3
Shaded with edges
350
3D
  3
Shades of Gray
350
3A
  3
Sketchy
350
3B
  3
Thicken
350
36
  3
Wireframe
350
30
  3
X-Ray
350
3C
  0
XRECORD
  5
B8
102
{ACAD_REACTORS
330
C
102
}
330
C
100
AcDbXrecord
280
     1
 90
        1
330
65
  0
DICTIONARY
  5
AF
102
{ACAD_REACTORS
330
C
102
}
330
C
100
AcDbDictionary
281
     1
  3
CANNOSCALE
350
B4
  3
CMLEADERSTYLE
350
B1
  3
CTABLESTYLE
350
B0
  3
CVIEWDETAILSTYLE
350
B2
  3
CVIEWSECTIONSTYLE
350
B3
  3
XCLIPFRAME
350
B5
  0
ACDBDETAILVIEWSTYLE
  5
6B
102
{ACAD_XDICTIONARY
360
EE
102
}
102
{ACAD_REACTORS
330
6A
102
}
330
6A
100
AcDbModelDocViewStyle
 70
     0
  3
Imperial24
290
     0
100
AcDbDetailViewStyle
 70
     0
 71
     0
 90
        3
 71
     1
340
55
 62
   256
 40
0.24
340
0
 62
   256
 40
0.24
300

 40
0.36
280
     3
 71
     2
340
5D
 90
       25
 62
   256
 71
     3
340
55
 62
   256
 40
0.24
 90
        1
 40
0.75
 90
        1
300
%<\AcVar ViewType \f "%tc1">% %<\AcVar ViewDetailId>%\PSCALE %<\AcVar ViewScale \f "%sn">%
 71
     4
340
5D
 90
       25
 62
   256
340
5D
 90
       25
 62
   256
280
     0
  0
LAYOUT
  5
6F
102
{ACAD_REACTORS
330
62
102
}
330
62
100
AcDbPlotSettings
  1

  2

  4

  6

 40
0.0
 41
0.0
 42
0.0
 43
0.0
 44
0.0
 45
0.0
 46
0.0
 47
0.0
 48
0.0
 49
0.0
140
0.0
141
0.0
142
1.0
143
1.0
 70
   688
 72
     0
 73
     0
 74
     5
  7

 75
    16
147
1.0
 76
     0
 77
     2
 78
   300
148
0.0
149
0.0
100
AcDbLayout
  1
Layout1
 70
     1
 71
     1
 10
0.0
 20
0.0
 11
12.0
 21
9.0
 12
0.0
 22
0.0
 32
0.0
 14
0.0
 24
0.0
 34
0.0
 15
0.0
 25
0.0
 35
0.0
146
0.0
 13
0.0
 23
0.0
 33
0.0
 16
1.0
 26
0.0
 36
0.0
 17
0.0
 27
1.0
 37
0.0
 76
     0
330
6C
  0
LAYOUT
  5
77
102
{ACAD_REACTORS
330
62
102
}
330
62
100
AcDbPlotSettings
  1

  2

  4

  6

 40
0.0
 41
0.0
 42
0.0
 43
0.0
 44
0.0
 45
0.0
 46
0.0
 47
0.0
 48
0.0
 49
0.0
140
0.0
141
0.0
142
1.0
143
1.0
 70
   688
 72
     0
 73
     0
 74
     5
  7

 75
    16
147
1.0
 76
     0
 77
     2
 78
   300
148
0.0
149
0.0
100
AcDbLayout
  1
Layout2
 70
     1
 71
     2
 10
0.0
 20
0.0
 11
12.0
 21
9.0
 12
0.0
 22
0.0
 32
0.0
 14
0.0
 24
0.0
 34
0.0
 15
0.0
 25
0.0
 35
0.0
146
0.0
 13
0.0
 23
0.0
 33
0.0
 16
1.0
 26
0.0
 36
0.0
 17
0.0
 27
1.0
 37
0.0
 76
     0
330
74
  0
LAYOUT
  5
73
102
{ACAD_REACTORS
330
62
102
}
330
62
100
AcDbPlotSettings
  1

  2

  4

  6

 40
0.0
 41
0.0
 42
0.0
 43
0.0
 44
0.0
 45
0.0
 46
0.0
 47
0.0
 48
0.0
 49
0.0
140
0.0
141
0.0
142
1.0
143
1.0
 70
  1712
 72
     0
 73
     0
 74
     0
  7

 75
     0
147
1.0
 76
     0
 77
     2
 78
   300
148
0.0
149
0.0
100
AcDbLayout
  1
Model
 70
     1
 71
     0
 10
0.0
 20
0.0
 11
12.0
 21
9.0
 12
0.0
 22
0.0
 32
0.0
 14
0.0
 24
0.0
 34
0.0
 15
0.0
 25
0.0
 35
0.0
146
0.0
 13
0.0
 23
0.0
 33
0.0
 16
1.0
 26
0.0
 36
0.0
 17
0.0
 27
1.0
 37
0.0
 76
     0
330
70
  0
MATERIAL
  5
19
102
{ACAD_XDICTIONARY
360
1A
102
}
102
{ACAD_REACTORS
330
10
102
}
330
10
100
AcDbMaterial
  1
ByBlock
 72
     0
 43
0.0208333333333333
 43
0.0
 43
0.0
 43
0.0
 43
0.0
 43
0.0208333333333333
 43
0.0
 43
0.0
 43
0.0
 43
0.0
 43
1.0
 43
0.0
 43
0.0
 43
0.0
 43
0.0
 43
1.0
 77
     0
 47
0.0208333333333333
 47
0.0
 47
0.0
 47
0.0
 47
0.0
 47
0.0208333333333333
 47
0.0
 47
0.0
 47
0.0
 47
0.0
 47
1.0
 47
0.0
 47
0.0
 47
0.0
 47
0.0
 47
1.0
171
     0
 49
0.0208333333333333
 49
0.0
 49
0.0
 49
0.0
 49
0.0
 49
0.0208333333333333
 49
0.0
 49
0.0
 49
0.0
 49
0.0
 49
1.0
 49
0.0
 49
0.0
 49
0.0
 49
0.0
 49
1.0
175
     0
142
0.0208333333333333
142
0.0
142
0.0
142
0.0
142
0.0
142
0.0208333333333333
142
0.0
142
0.0
142
0.0
142
0.0
142
1.0
142
0.0
142
0.0
142
0.0
142
0.0
142
1.0
179
     0
144
0.0208333333333333
144
0.0
144
0.0
144
0.0
144
0.0
144
0.0208333333333333
144
0.0
144
0.0
144
0.0
144
0.0
144
1.0
144
0.0
144
0.0
144
0.0
144
0.0
144
1.0
147
0.0208333333333333
147
0.0
147
0.0
147
0.0
147
0.0
147
0.0208333333333333
147
0.0
147
0.0
147
0.0
147
0.0
147
1.0
147
0.0
147
0.0
147
0.0
147
0.0
147
1.0
  0
MATERIAL
  5
11
102
{ACAD_XDICTIONARY
360
12
102
}
102
{ACAD_REACTORS
330
10
102
}
330
10
100
AcDbMaterial
  1
ByLayer
 72
     0
 43
0.0208333333333333
 43
0.0
 43
0.0
 43
0.0
 43
0.0
 43
0.0208333333333333
 43
0.0
 43
0.0
 43
0.0
 43
0.0
 43
1.0
 43
0.0
 43
0.0
 43
0.0
 43
0.0
 43
1.0
 77
     0
 47
0.0208333333333333
 47
0.0
 47
0.0
 47
0.0
 47
0.0
 47
0.0208333333333333
 47
0.0
 47
0.0
 47
0.0
 47
0.0
 47
1.0
 47
0.0
 47
0.0
 47
0.0
 47
0.0
 47
1.0
171
     0
 49
0.0208333333333333
 49
0.0
 49
0.0
 49
0.0
 49
0.0
 49
0.0208333333333333
 49
0.0
 49
0.0
 49
0.0
 49
0.0
 49
1.0
 49
0.0
 49
0.0
 49
0.0
 49
0.0
 49
1.0
175
     0
142
0.0208333333333333
142
0.0
142
0.0
142
0.0
142
0.0
142
0.0208333333333333
142
0.0
142
0.0
142
0.0
142
0.0
142
1.0
142
0.0
142
0.0
142
0.0
142
0.0
142
1.0
179
     0
144
0.0208333333333333
144
0.0
144
0.0
144
0.0
144
0.0
144
0.0208333333333333
144
0.0
144
0.0
144
0.0
144
0.0
144
1.0
144
0.0
144
0.0
144
0.0
144
0.0
144
1.0
147
0.0208333333333333
147
0.0
147
0.0
147
0.0
147
0.0
147
0.0208333333333333
147
0.0
147
0.0
147
0.0
147
0.0
147
1.0
147
0.0
147
0.0
147
0.0
147
0.0
147
1.0
  0
MATERIAL
  5
21
102
{ACAD_XDICTIONARY
360
22
102
}
102
{ACAD_REACTORS
330
10
102
}
330
10
100
AcDbMaterial
  1
Global
 72
     0
 43
0.0208333333333333
 43
0.0
 43
0.0
 43
0.0
 43
0.0
 43
0.0208333333333333
 43
0.0
 43
0.0
 43
0.0
 43
0.0
 43
1.0
 43
0.0
 43
0.0
 43
0.0
 43
0.0
 43
1.0
 77
     0
 47
0.0208333333333333
 47
0.0
 47
0.0
 47
0.0
 47
0.0
 47
0.0208333333333333
 47
0.0
 47
0.0
 47
0.0
 47
0.0
 47
1.0
 47
0.0
 47
0.0
 47
0.0
 47
0.0
 47
1.0
171
     0
 49
0.0208333333333333
 49
0.0
 49
0.0
 49
0.0
 49
0.0
 49
0.0208333333333333
 49
0.0
 49
0.0
 49
0.0
 49
0.0
 49
1.0
 49
0.0
 49
0.0
 49
0.0
 49
0.0
 49
1.0
175
     0
142
0.0208333333333333
142
0.0
142
0.0
142
0.0
142
0.0
142
0.0208333333333333
142
0.0
142
0.0
142
0.0
142
0.0
142
1.0
142
0.0
142
0.0
142
0.0
142
0.0
142
1.0
179
     0
144
0.0208333333333333
144
0.0
144
0.0
144
0.0
144
0.0
144
0.0208333333333333
144
0.0
144
0.0
144
0.0
144
0.0
144
1.0
144
0.0
144
0.0
144
0.0
144
0.0
144
1.0
147
0.0208333333333333
147
0.0
147
0.0
147
0.0
147
0.0
147
0.0208333333333333
147
0.0
147
0.0
147
0.0
147
0.0
147
1.0
147
0.0
147
0.0
147
0.0
147
0.0
147
1.0
  0
MLEADERSTYLE
  5
67
102
{ACAD_XDICTIONARY
360
EA
102
}
102
{ACAD_REACTORS
330
66
102
}
330
66
100
AcDbMLeaderStyle
170
     2
171
     1
172
     0
 90
        2
 40
0.0
 41
0.0
173
     1
 91
-1056964608
340
5B
 92
       -2
290
     1
 42
0.09
291
     1
 43
0.36
  3
Standard
 44
0.18
300

342
55
174
     1
178
     6
175
     1
176
     0
 93
-1056964608
 45
0.18
292
     0
297
     0
 46
0.18
 94
-1056964608
 47
1.0
 49
1.0
140
1.0
293
     1
141
0.0
294
     1
177
     0
142
1.0
295
     0
296
     0
143
0.125
1001
ACAD_MLEADERVER
1070
     2
  0
MLINESTYLE
  5
60
102
{ACAD_REACTORS
330
5F
102
}
330
5F
100
AcDbMlineStyle
  2
STANDARD
 70
     0
  3

 62
   256
 51
90.0
 52
90.0
 71
     2
 49
0.5
 62
   256
  6
BYLAYER
 49
-0.5
 62
   256
  6
BYLAYER
  0
ACDBPLACEHOLDER
  5
F
102
{ACAD_REACTORS
330
E
102
}
330
E
  0
SCALE
  5
43
102
{ACAD_REACTORS
330
42
102
}
330
42
100
AcDbScale
 70
     0
300
1:1
140
1.0
141
1.0
290
     1
  0
SCALE
  5
44
102
{ACAD_REACTORS
330
42
102
}
330
42
100
AcDbScale
 70
     0
300
1/128" = 1'-0"
140
0.0078125
141
12.0
290
     0
  0
SCALE
  5
45
102
{ACAD_REACTORS
330
42
102
}
330
42
100
AcDbScale
 70
     0
300
1/64" = 1'-0"
140
0.015625
141
12.0
290
     0
  0
SCALE
  5
46
102
{ACAD_REACTORS
330
42
102
}
330
42
100
AcDbScale
 70
     0
300
1/32" = 1'-0"
140
0.03125
141
12.0
290
     0
  0
SCALE
  5
47
102
{ACAD_REACTORS
330
42
102
}
330
42
100
AcDbScale
 70
     0
300
1/16" = 1'-0"
140
0.0625
141
12.0
290
     0
  0
SCALE
  5
48
102
{ACAD_REACTORS
330
42
102
}
330
42
100
AcDbScale
 70
     0
300
3/32" = 1'-0"
140
0.09375
141
12.0
290
     0
  0
SCALE
  5
49
102
{ACAD_REACTORS
330
42
102
}
330
42
100
AcDbScale
 70
     0
300
1/8" = 1'-0"
140
0.125
141
12.0
290
     0
  0
SCALE
  5
4A
102
{ACAD_REACTORS
330
42
102
}
330
42
100
AcDbScale
 70
     0
300
3/16" = 1'-0"
140
0.1875
141
12.0
290
     0
  0
SCALE
  5
4B
102
{ACAD_REACTORS
330
42
102
}
330
42
100
AcDbScale
 70
     0
300
1/4" = 1'-0"
140
0.25
141
12.0
290
     0
  0
SCALE
  5
4C
102
{ACAD_REACTORS
330
42
102
}
330
42
100
AcDbScale
 70
     0
300
3/8" = 1'-0"
140
0.375
141
12.0
290
     0
  0
SCALE
  5
4D
102
{ACAD_REACTORS
330
42
102
}
330
42
100
AcDbScale
 70
     0
300
1/2" = 1'-0"
140
0.5
141
12.0
290
     0
  0
SCALE
  5
4E
102
{ACAD_REACTORS
330
42
102
}
330
42
100
AcDbScale
 70
     0
300
3/4" = 1'-0"
140
0.75
141
12.0
290
     0
  0
SCALE
  5
4F
102
{ACAD_REACTORS
330
42
102
}
330
42
100
AcDbScale
 70
     0
300
1" = 1'-0"
140
1.0
141
12.0
290
     0
  0
SCALE
  5
50
102
{ACAD_REACTORS
330
42
102
}
330
42
100
AcDbScale
 70
     0
300
1-1/2" = 1'-0"
140
1.5
141
12.0
290
     0
  0
SCALE
  5
51
102
{ACAD_REACTORS
330
42
102
}
330
42
100
AcDbScale
 70
     0
300
3" = 1'-0"
140
3.0
141
12.0
290
     0
  0
SCALE
  5
52
102
{ACAD_REACTORS
330
42
102
}
330
42
100
AcDbScale
 70
     0
300
6" = 1'-0"
140
6.0
141
12.0
290
     0
  0
SCALE
  5
53
102
{ACAD_REACTORS
330
42
102
}
330
42
100
AcDbScale
 70
     0
300
1'-0" = 1'-0"
140
12.0
141
12.0
290
     0
  0
ACDBSECTIONVIEWSTYLE
  5
69
102
{ACAD_XDICTIONARY
360
EC
102
}
102
{ACAD_REACTORS
330
68
102
}
330
68
100
AcDbModelDocViewStyle
 70
     0
  3
Imperial24
290
     0
100
AcDbSectionViewStyle
 70
     0
 71
     0
 90
       78
 71
     1
340
55
 62
   256
 40
0.24
340
0
340
0
 62
   256
 40
0.24
300
I, O, Q, S, X, Z
 40
0.48
 90
        3
 40
0.18
 90
        1
 71
     2
340
5D
 90
       25
 62
   256
340
5D
 90
       50
 62
   256
 40
0.24
 40
0.0
 40
0.24
 71
     3
340
55
 62
   256
 40
0.24
 90
        1
 40
0.75
 90
        1
300
%<\AcVar ViewType \f "%tc1">% %<\AcVar ViewSectionStartId>%-%<\AcVar ViewSectionEndId>%\PSCALE %<\AcVar ViewScale \f "%sn">%
 71
     4
 62
   256
 62
   257
300
ANSI31
 40
1.0
 90
        0
290
     0
290
     0
 90
        6
 40
0.0
 40
1.570796326794896
 40
0.2617993877991494
 40
1.308996938995747
 40
-0.2617993877991494
 40
1.832595714594046
  0
TABLESTYLE
  5
65
102
{ACAD_XDICTIONARY
360
B6
102
}
102
{ACAD_REACTORS
330
64
102
}
330
64
100
AcDbTableStyle
  3
Standard
 70
     0
 71
     0
 40
0.06
 41
0.06
280
     0
281
     0
  7
Standard
140
0.18
170
     2
 62
     0
 63
     7
283
     0
 90
      512
 91
        0
  1

274
    -2
284
     1
 64
     0
275
    -2
285
     1
 65
     0
276
    -2
286
     1
 66
     0
277
    -2
287
     1
 67
     0
278
    -2
288
     1
 68
     0
279
    -2
289
     1
 69
     0
  7
Standard
140
0.25
170
     5
 62
     0
 63
     7
283
     0
 90
      512
 91
        0
  1

274
    -2
284
     1
 64
     0
275
    -2
285
     1
 65
     0
276
    -2
286
     1
 66
     0
277
    -2
287
     1
 67
     0
278
    -2
288
     1
 68
     0
279
    -2
289
     1
 69
     0
  7
Standard
140
0.18
170
     5
 62
     0
 63
     7
283
     0
 90
      512
 91
        0
  1

274
    -2
284
     1
 64
     0
275
    -2
285
     1
 65
     0
276
    -2
286
     1
 66
     0
277
    -2
287
     1
 67
     0
278
    -2
288
     1
 68
     0
279
    -2
289
     1
 69
     0
  0
VISUALSTYLE
  5
2F
102
{ACAD_XDICTIONARY
360
C3
102
}
102
{ACAD_REACTORS
330
29
102
}
330
29
100
AcDbVisualStyle
  2
2dWireframe
 70
     4
 71
     0
 72
     2
 73
     0
 90
        0
 40
-0.6
 41
-30.0
 62
     5
 63
     7
421
 16777215
 74
     1
 91
        4
 64
     7
 65
   257
 75
     1
175
     1
 42
1.0
 92
        0
 66
   257
 43
1.0
 76
     1
 77
     6
 78
     2
 67
     7
 79
     5
170
     0
171
     0
290
     0
174
     0
 93
        1
 44
0.0
173
     0
291
     0
 45
0.0
1001
ACAD
1000
AcDbSavedByObjectVersion
1070
     0
  0
VISUALSTYLE
  5
2E
102
{ACAD_XDICTIONARY
360
C1
102
}
102
{ACAD_REACTORS
330
29
102
}
330
29
100
AcDbVisualStyle
  2
Basic
 70
     7
 71
     1
 72
     0
 73
     1
 90
        0
 40
-0.6
 41
-30.0
 62
     5
 63
     7
421
 16777215
 74
     0
 91
        4
 64
     7
 65
   257
 75
     1
175
     1
 42
1.0
 92
        8
 66
     7
 43
1.0
 76
     1
 77
     6
 78
     2
 67
     7
 79
     5
170
     0
171
     0
290
     0
174
     0
 93
        1
 44
0.0
173
     0
291
     1
 45
0.0
1001
ACAD
1000
AcDbSavedByObjectVersion
1070
     0
  0
VISUALSTYLE
  5
35
102
{ACAD_XDICTIONARY
360
CF
102
}
102
{ACAD_REACTORS
330
29
102
}
330
29
100
AcDbVisualStyle
  2
Brighten
 70
    12
 71
     2
 72
     2
 73
     0
 90
        0
 40
-0.6
 41
-30.0
 62
     5
 63
     7
421
 16777215
 74
     1
 91
        4
 64
     7
 65
   257
 75
     1
175
     1
 42
1.0
 92
        8
 66
     7
 43
1.0
 76
     1
 77
     6
 78
     2
 67
     7
 79
     5
170
     0
171
     0
290
     0
174
     0
 93
        1
 44
50.0
173
     0
291
     1
 45
0.0
1001
ACAD
1000
AcDbSavedByObjectVersion
1070
     0
  0
VISUALSTYLE
  5
39
102
{ACAD_XDICTIONARY
360
D7
102
}
102
{ACAD_REACTORS
330
29
102
}
330
29
100
AcDbVisualStyle
  2
ColorChange
 70
    16
 71
     2
 72
     2
 73
     3
 90
        0
 40
-0.6
 41
-30.0
 62
     5
 63
     8
421
  8421504
 74
     1
 91
        4
 64
     7
 65
   257
 75
     1
175
     1
 42
1.0
 92
        8
 66
     8
424
  8421504
 43
1.0
 76
     1
 77
     6
 78
     2
 67
     7
 79
     5
170
     0
171
     0
290
     0
174
     0
 93
        1
 44
0.0
173
     0
291
     1
 45
0.0
1001
ACAD
1000
AcDbSavedByObjectVersion
1070
     0
  0
VISUALSTYLE
  5
32
102
{ACAD_XDICTIONARY
360
C9
102
}
102
{ACAD_REACTORS
330
29
102
}
330
29
100
AcDbVisualStyle
  2
Conceptual
 70
     9
 71
     3
 72
     2
 73
     0
 90
        0
 40
-0.6
 41
-30.0
 62
     5
 63
     7
421
 16777215
 74
     2
 91
        2
 64
     7
 65
   257
 75
     1
175
     1
 42
179.0
 92
        8
 66
     7
 43
1.0
 76
     1
 77
     6
 78
     2
 67
     7
 79
     3
170
     0
171
     0
290
     0
174
     0
 93
        1
 44
0.0
173
     0
291
     0
 45
0.0
1001
ACAD
1000
AcDbSavedByObjectVersion
1070
     0
  0
VISUALSTYLE
  5
34
102
{ACAD_XDICTIONARY
360
CD
102
}
102
{ACAD_REACTORS
330
29
102
}
330
29
100
AcDbVisualStyle
  2
Dim
 70
    11
 71
     2
 72
     2
 73
     0
 90
        0
 40
-0.6
 41
-30.0
 62
     5
 63
     7
421
 16777215
 74
     1
 91
        4
 64
     7
 65
   257
 75
     1
175
     1
 42
1.0
 92
        8
 66
     7
 43
1.0
 76
     1
 77
     6
 78
     2
 67
     7
 79
     5
170
     0
171
     0
290
     0
174
     0
 93
        1
 44
-50.0
173
     0
291
     1
 45
0.0
1001
ACAD
1000
AcDbSavedByObjectVersion
1070
     0
  0
VISUALSTYLE
  5
41
102
{ACAD_XDICTIONARY
360
E7
102
}
102
{ACAD_REACTORS
330
29
102
}
330
29
100
AcDbVisualStyle
  2
EdgeColorOff
 70
    22
 71
     2
 72
     2
 73
     0
 90
        0
 40
-0.6
 41
-30.0
 62
     5
 63
     7
421
 16777215
 74
     1
 91
        4
 64
     7
 65
   257
 75
     1
175
     1
 42
1.0
 92
        8
 66
     7
 43
1.0
 76
     1
 77
     6
 78
     2
 67
     7
 79
     5
170
     0
171
     0
290
     0
174
     0
 93
        1
 44
0.0
173
     0
291
     1
 45
0.0
1001
ACAD
1000
AcDbSavedByObjectVersion
1070
     0
  0
VISUALSTYLE
  5
38
102
{ACAD_XDICTIONARY
360
D5
102
}
102
{ACAD_REACTORS
330
29
102
}
330
29
100
AcDbVisualStyle
  2
Facepattern
 70
    15
 71
     2
 72
     2
 73
     0
 90
        0
 40
-0.6
 41
-30.0
 62
     5
 63
     7
421
 16777215
 74
     1
 91
        4
 64
     7
 65
   257
 75
     1
175
     1
 42
1.0
 92
        8
 66
     7
 43
1.0
 76
     1
 77
     6
 78
     2
 67
     7
 79
     5
170
     0
171
     0
290
     0
174
     0
 93
        1
 44
0.0
173
     0
291
     1
 45
0.0
1001
ACAD
1000
AcDbSavedByObjectVersion
1070
     0
  0
VISUALSTYLE
  5
2A
102
{ACAD_XDICTIONARY
360
B9
102
}
102
{ACAD_REACTORS
330
29
102
}
330
29
100
AcDbVisualStyle
  2
Flat
 70
     0
 71
     2
 72
     1
 73
     1
 90
        2
 40
-0.6
 41
30.0
 62
     5
 63
     7
421
 16777215
 74
     0
 91
        0
 64
     7
 65
   257
 75
     1
175
     1
 42
1.0
 92
        8
 66
     7
 43
1.0
 76
     1
 77
     6
 78
     2
 67
     7
 79
     5
170
     0
171
     0
290
     0
174
     0
 93
       13
 44
0.0
173
     0
291
     1
 45
0.0
1001
ACAD
1000
AcDbSavedByObjectVersion
1070
     0
  0
VISUALSTYLE
  5
2B
102
{ACAD_XDICTIONARY
360
BB
102
}
102
{ACAD_REACTORS
330
29
102
}
330
29
100
AcDbVisualStyle
  2
FlatWithEdges
 70
     1
 71
     2
 72
     1
 73
     1
 90
        2
 40
-0.6
 41
30.0
 62
     5
 63
     7
421
 16777215
 74
     1
 91
        0
 64
     7
 65
   257
 75
     1
175
     1
 42
1.0
 92
        0
 66
   257
 43
1.0
 76
     1
 77
     6
 78
     2
 67
     7
 79
     5
170
     0
171
     0
290
     0
174
     0
 93
       13
 44
0.0
173
     0
291
     1
 45
0.0
1001
ACAD
1000
AcDbSavedByObjectVersion
1070
     0
  0
VISUALSTYLE
  5
2C
102
{ACAD_XDICTIONARY
360
BD
102
}
102
{ACAD_REACTORS
330
29
102
}
330
29
100
AcDbVisualStyle
  2
Gouraud
 70
     2
 71
     2
 72
     2
 73
     1
 90
        2
 40
-0.6
 41
30.0
 62
     5
 63
     7
421
 16777215
 74
     0
 91
        0
 64
     7
 65
   257
 75
     1
175
     1
 42
1.0
 92
        0
 66
     7
 43
1.0
 76
     1
 77
     6
 78
     2
 67
     7
 79
     5
170
     0
171
     0
290
     0
174
     0
 93
       13
 44
0.0
173
     0
291
     1
 45
0.0
1001
ACAD
1000
AcDbSavedByObjectVersion
1070
     0
  0
VISUALSTYLE
  5
2D
102
{ACAD_XDICTIONARY
360
BF
102
}
102
{ACAD_REACTORS
330
29
102
}
330
29
100
AcDbVisualStyle
  2
GouraudWithEdges
 70
     3
 71
     2
 72
     2
 73
     1
 90
        2
 40
-0.6
 41
30.0
 62
     5
 63
     7
421
 16777215
 74
     1
 91
        0
 64
     7
 65
   257
 75
     1
175
     1
 42
1.0
 92
        0
 66
   257
 43
1.0
 76
     1
 77
     6
 78
     2
 67
     7
 79
     5
170
     0
171
     0
290
     0
174
     0
 93
       13
 44
0.0
173
     0
291
     1
 45
0.0
1001
ACAD
1000
AcDbSavedByObjectVersion
1070
     0
  0
VISUALSTYLE
  5
31
102
{ACAD_XDICTIONARY
360
C7
102
}
102
{ACAD_REACTORS
330
29
102
}
330
29
100
AcDbVisualStyle
  2
Hidden
 70
     6
 71
     1
 72
     2
 73
     2
 90
        0
 40
-0.6
 41
-30.0
 62
     5
 63
     7
421
 16777215
 74
     2
 91
        2
 64
     7
 65
   257
 75
     2
175
     1
 42
40.0
 92
        0
 66
   257
 43
1.0
 76
     1
 77
     6
 78
     2
 67
     7
 79
     3
170
     0
171
     0
290
     0
174
     0
 93
        1
 44
0.0
173
     0
291
     0
 45
0.0
1001
ACAD
1000
AcDbSavedByObjectVersion
1070
     0
  0
VISUALSTYLE
  5
3F
102
{ACAD_XDICTIONARY
360
E3
102
}
102
{ACAD_REACTORS
330
29
102
}
330
29
100
AcDbVisualStyle
  2
JitterOff
 70
    20
 71
     2
 72
     2
 73
     0
 90
        0
 40
-0.6
 41
-30.0
 62
     5
 63
     7
421
 16777215
 74
     1
 91
        4
 64
     7
 65
   257
 75
     1
175
     1
 42
1.0
 92
       10
 66
     7
 43
1.0
 76
     1
 77
     6
 78
     2
 67
     7
 79
     5
170
     0
171
     0
290
     0
174
     0
 93
        1
 44
0.0
173
     0
291
     1
 45
0.0
1001
ACAD
1000
AcDbSavedByObjectVersion
1070
     0
  0
VISUALSTYLE
  5
37
102
{ACAD_XDICTIONARY
360
D3
102
}
102
{ACAD_REACTORS
330
29
102
}
330
29
100
AcDbVisualStyle
  2
Linepattern
 70
    14
 71
     2
 72
     2
 73
     0
 90
        0
 40
-0.6
 41
-30.0
 62
     5
 63
     7
421
 16777215
 74
     1
 91
        4
 64
     7
 65
   257
 75
     7
175
     7
 42
1.0
 92
        8
 66
     7
 43
1.0
 76
     1
 77
     6
 78
     2
 67
     7
 79
     5
170
     0
171
     0
290
     0
174
     0
 93
        1
 44
0.0
173
     0
291
     1
 45
0.0
1001
ACAD
1000
AcDbSavedByObjectVersion
1070
     0
  0
VISUALSTYLE
  5
40
102
{ACAD_XDICTIONARY
360
E5
102
}
102
{ACAD_REACTORS
330
29
102
}
330
29
100
AcDbVisualStyle
  2
OverhangOff
 70
    21
 71
     2
 72
     2
 73
     0
 90
        0
 40
-0.6
 41
-30.0
 62
     5
 63
     7
421
 16777215
 74
     1
 91
        4
 64
     7
 65
   257
 75
     1
175
     1
 42
1.0
 92
        9
 66
     7
 43
1.0
 76
     1
 77
     6
 78
     2
 67
     7
 79
     5
170
     0
171
     0
290
     0
174
     0
 93
        1
 44
0.0
173
     0
291
     1
 45
0.0
1001
ACAD
1000
AcDbSavedByObjectVersion
1070
     0
  0
VISUALSTYLE
  5
33
102
{ACAD_XDICTIONARY
360
CB
102
}
102
{ACAD_REACTORS
330
29
102
}
330
29
100
AcDbVisualStyle
  2
Realistic
 70
     8
 71
     2
 72
     3
 73
     0
 90
        2
 40
-0.6
 41
30.0
 62
     5
 63
     7
421
 16777215
 74
     0
 91
        0
 64
     7
 65
   257
 75
     1
175
     1
 42
1.0
 92
        8
 66
   257
 43
1.0
 76
     1
 77
     6
 78
     2
 67
     7
 79
     3
170
     0
171
     0
290
     0
174
     0
 93
       13
 44
0.0
173
     0
291
     0
 45
0.0
1001
ACAD
1000
AcDbSavedByObjectVersion
1070
     0
  0
VISUALSTYLE
  5
3E
102
{ACAD_XDICTIONARY
360
E1
102
}
102
{ACAD_REACTORS
330
29
102
}
330
29
100
AcDbVisualStyle
  2
Shaded
 70
    27
 71
     2
 72
     2
 73
     1
 90
        2
 40
-0.6
 41
30.0
 62
     5
 63
     7
421
 16777215
 74
     0
 91
        4
 64
     7
 65
   257
 75
     1
175
     1
 42
1.0
 92
        8
 66
   257
 43
1.0
 76
     1
 77
     6
 78
     2
 67
     8
425
  7895160
 79
     3
170
     0
171
     0
290
     0
174
     0
 93
        5
 44
0.0
173
     0
291
     0
 45
0.0
1001
ACAD
1000
AcDbSavedByObjectVersion
1070
     0
  0
VISUALSTYLE
  5
3D
102
{ACAD_XDICTIONARY
360
DF
102
}
102
{ACAD_REACTORS
330
29
102
}
330
29
100
AcDbVisualStyle
  2
Shaded with edges
 70
    26
 71
     2
 72
     2
 73
     1
 90
        2
 40
-0.6
 41
30.0
 62
     5
 63
     7
421
 16777215
 74
     1
 91
        2
 64
     7
 65
   257
 75
     2
175
     1
 42
1.0
 92
        8
 66
   257
 43
1.0
 76
     1
 77
     6
 78
     2
 67
     7
 79
     3
170
     0
171
     0
290
     0
174
     0
 93
        5
 44
0.0
173
     0
291
     0
 45
0.0
1001
ACAD
1000
AcDbSavedByObjectVersion
1070
     0
  0
VISUALSTYLE
  5
3A
102
{ACAD_XDICTIONARY
360
D9
102
}
102
{ACAD_REACTORS
330
29
102
}
330
29
100
AcDbVisualStyle
  2
Shades of Gray
 70
    23
 71
     2
 72
     2
 73
     3
 90
        0
 40
-0.6
 41
-30.0
 62
     5
 63
     7
421
 16777215
 74
     2
 91
        2
 64
     7
 65
     7
 75
     1
175
     1
 42
40.0
 92
        8
 66
     7
 43
1.0
 76
     1
 77
     6
 78
     2
 67
     7
 79
     3
170
     0
171
     0
290
     0
174
     0
 93
        1
 44
0.0
173
     0
291
     0
 45
0.0
1001
ACAD
1000
AcDbSavedByObjectVersion
1070
     0
  0
VISUALSTYLE
  5
3B
102
{ACAD_XDICTIONARY
360
DB
102
}
102
{ACAD_REACTORS
330
29
102
}
330
29
100
AcDbVisualStyle
  2
Sketchy
 70
    24
 71
     1
 72
     2
 73
     2
 90
        0
 40
-0.6
 41
-30.0
 62
     5
 63
     7
421
 16777215
 74
     2
 91
        2
 64
     7
 65
     7
 75
     1
175
     1
 42
40.0
 92
       11
 66
     7
 43
1.0
 76
     1
 77
     6
 78
     2
 67
     7
 79
     6
170
     0
171
     0
290
     0
174
     0
 93
        1
 44
0.0
173
     0
291
     0
 45
0.0
1001
ACAD
1000
AcDbSavedByObjectVersion
1070
     0
  0
VISUALSTYLE
  5
36
102
{ACAD_XDICTIONARY
360
D1
102
}
102
{ACAD_REACTORS
330
29
102
}
330
29
100
AcDbVisualStyle
  2
Thicken
 70
    13
 71
     2
 72
     2
 73
     0
 90
        0
 40
-0.6
 41
-30.0
 62
     5
 63
     7
421
 16777215
 74
     1
 91
        4
 64
     7
 65
   257
 75
     1
175
     1
 42
1.0
 92
       12
 66
     7
 43
1.0
 76
     1
 77
     6
 78
     2
 67
     7
 79
     5
170
     0
171
     0
290
     0
174
     0
 93
        1
 44
0.0
173
     0
291
     1
 45
0.0
1001
ACAD
1000
AcDbSavedByObjectVersion
1070
     0
  0
VISUALSTYLE
  5
30
102
{ACAD_XDICTIONARY
360
C5
102
}
102
{ACAD_REACTORS
330
29
102
}
330
29
100
AcDbVisualStyle
  2
Wireframe
 70
     5
 71
     0
 72
     2
 73
     0
 90
        0
 40
-0.6
 41
-30.0
 62
     5
 63
     7
421
 16777215
 74
     1
 91
        4
 64
     7
 65
   257
 75
     1
175
     1
 42
1.0
 92
        0
 66
   257
 43
1.0
 76
     1
 77
     6
 78
     2
 67
     7
 79
     3
170
     0
171
     0
290
     0
174
     0
 93
        1
 44
0.0
173
     0
291
     0
 45
0.0
1001
ACAD
1000
AcDbSavedByObjectVersion
1070
     0
  0
VISUALSTYLE
  5
3C
102
{ACAD_XDICTIONARY
360
DD
102
}
102
{ACAD_REACTORS
330
29
102
}
330
29
100
AcDbVisualStyle
  2
X-Ray
 70
    25
 71
     2
 72
     2
 73
     1
 90
        1
 40
0.5
 41
-30.0
 62
     5
 63
     7
421
 16777215
 74
     1
 91
        0
 64
     7
 65
   257
 75
     1
175
     1
 42
1.0
 92
        8
 66
     7
 43
1.0
 76
     1
 77
     6
 78
     2
 67
     7
 79
     3
170
     0
171
     0
290
     0
174
     0
 93
       13
 44
0.0
173
     0
291
     0
 45
0.0
1001
ACAD
1000
AcDbSavedByObjectVersion
1070
     0
  0
DICTIONARYVAR
  5
B4
102
{ACAD_REACTORS
330
AF
102
}
330
AF
100
DictionaryVariables
280
     0
  1
1:1
  0
DICTIONARYVAR
  5
B1
102
{ACAD_REACTORS
330
AF
102
}
330
AF
100
DictionaryVariables
280
     0
  1
STANDARD
  0
DICTIONARYVAR
  5
B0
102
{ACAD_REACTORS
330
AF
102
}
330
AF
100
DictionaryVariables
280
     0
  1
STANDARD
  0
DICTIONARYVAR
  5
B2
102
{ACAD_REACTORS
330
AF
102
}
330
AF
100
DictionaryVariables
280
     0
  1
Imperial24
  0
DICTIONARYVAR
  5
B3
102
{ACAD_REACTORS
330
AF
102
}
330
AF
100
DictionaryVariables
280
     0
  1
Imperial24
  0
DICTIONARYVAR
  5
B5
102
{ACAD_REACTORS
330
AF
102
}
330
AF
100
DictionaryVariables
280
     0
  1
2
  0
DICTIONARY
  5
EE
330
6B
100
AcDbDictionary
280
     1
281
     1
  3
ACAD_XREC_ROUNDTRIP
360
EF
  0
DICTIONARY
  5
1A
330
19
100
AcDbDictionary
280
     1
281
     1
  3
BUMPTILE
360
1C
  3
DIFFUSETILE
360
1B
  3
OPACITYTILE
360
1F
  3
REFLECTIONTILE
360
1E
  3
REFRACTIONTILE
360
20
  3
SPECULARTILE
360
1D
  0
DICTIONARY
  5
12
330
11
100
AcDbDictionary
280
     1
281
     1
  3
BUMPTILE
360
14
  3
DIFFUSETILE
360
13
  3
OPACITYTILE
360
17
  3
REFLECTIONTILE
360
16
  3
REFRACTIONTILE
360
18
  3
SPECULARTILE
360
15
  0
DICTIONARY
  5
22
330
21
100
AcDbDictionary
280
     1
281
     1
  3
BUMPTILE
360
24
  3
DIFFUSETILE
360
23
  3
OPACITYTILE
360
27
  3
REFLECTIONTILE
360
26
  3
REFRACTIONTILE
360
28
  3
SPECULARTILE
360
25
  0
DICTIONARY
  5
EA
330
67
100
AcDbDictionary
280
     1
281
     1
  3
ACAD_XREC_ROUNDTRIP
360
EB
  0
DICTIONARY
  5
EC
330
69
100
AcDbDictionary
280
     1
281
     1
  3
ACAD_XREC_ROUNDTRIP
360
ED
  0
DICTIONARY
  5
B6
330
65
100
AcDbDictionary
280
     1
281
     1
  3
ACAD_ROUNDTRIP_2008_TABLESTYLE_CELLSTYLEMAP
360
B7
  0
DICTIONARY
  5
C3
330
2F
100
AcDbDictionary
280
     1
281
     1
  3
ACAD_XREC_ROUNDTRIP
360
C4
  0
DICTIONARY
  5
C1
330
2E
100
AcDbDictionary
280
     1
281
     1
  3
ACAD_XREC_ROUNDTRIP
360
C2
  0
DICTIONARY
  5
CF
330
35
100
AcDbDictionary
280
     1
281
     1
  3
ACAD_XREC_ROUNDTRIP
360
D0
  0
DICTIONARY
  5
D7
330
39
100
AcDbDictionary
280
     1
281
     1
  3
ACAD_XREC_ROUNDTRIP
360
D8
  0
DICTIONARY
  5
C9
330
32
100
AcDbDictionary
280
     1
281
     1
  3
ACAD_XREC_ROUNDTRIP
360
CA
  0
DICTIONARY
  5
CD
330
34
100
AcDbDictionary
280
     1
281
     1
  3
ACAD_XREC_ROUNDTRIP
360
CE
  0
DICTIONARY
  5
E7
330
41
100
AcDbDictionary
280
     1
281
     1
  3
ACAD_XREC_ROUNDTRIP
360
E8
  0
DICTIONARY
  5
D5
330
38
100
AcDbDictionary
280
     1
281
     1
  3
ACAD_XREC_ROUNDTRIP
360
D6
  0
DICTIONARY
  5
B9
330
2A
100
AcDbDictionary
280
     1
281
     1
  3
ACAD_XREC_ROUNDTRIP
360
BA
  0
DICTIONARY
  5
BB
330
2B
100
AcDbDictionary
280
     1
281
     1
  3
ACAD_XREC_ROUNDTRIP
360
BC
  0
DICTIONARY
  5
BD
330
2C
100
AcDbDictionary
280
     1
281
     1
  3
ACAD_XREC_ROUNDTRIP
360
BE
  0
DICTIONARY
  5
BF
330
2D
100
AcDbDictionary
280
     1
281
     1
  3
ACAD_XREC_ROUNDTRIP
360
C0
  0
DICTIONARY
  5
C7
330
31
100
AcDbDictionary
280
     1
281
     1
  3
ACAD_XREC_ROUNDTRIP
360
C8
  0
DICTIONARY
  5
E3
330
3F
100
AcDbDictionary
280
     1
281
     1
  3
ACAD_XREC_ROUNDTRIP
360
E4
  0
DICTIONARY
  5
D3
330
37
100
AcDbDictionary
280
     1
281
     1
  3
ACAD_XREC_ROUNDTRIP
360
D4
  0
DICTIONARY
  5
E5
330
40
100
AcDbDictionary
280
     1
281
     1
  3
ACAD_XREC_ROUNDTRIP
360
E6
  0
DICTIONARY
  5
CB
330
33
100
AcDbDictionary
280
     1
281
     1
  3
ACAD_XREC_ROUNDTRIP
360
CC
  0
DICTIONARY
  5
E1
330
3E
100
AcDbDictionary
280
     1
281
     1
  3
ACAD_XREC_ROUNDTRIP
360
E2
  0
DICTIONARY
  5
DF
330
3D
100
AcDbDictionary
280
     1
281
     1
  3
ACAD_XREC_ROUNDTRIP
360
E0
  0
DICTIONARY
  5
D9
330
3A
100
AcDbDictionary
280
     1
281
     1
  3
ACAD_XREC_ROUNDTRIP
360
DA
  0
DICTIONARY
  5
DB
330
3B
100
AcDbDictionary
280
     1
281
     1
  3
ACAD_XREC_ROUNDTRIP
360
DC
  0
DICTIONARY
  5
D1
330
36
100
AcDbDictionary
280
     1
281
     1
  3
ACAD_XREC_ROUNDTRIP
360
D2
  0
DICTIONARY
  5
C5
330
30
100
AcDbDictionary
280
     1
281
     1
  3
ACAD_XREC_ROUNDTRIP
360
C6
  0
DICTIONARY
  5
DD
330
3C
100
AcDbDictionary
280
     1
281
     1
  3
ACAD_XREC_ROUNDTRIP
360
DE
  0
XRECORD
  5
EF
102
{ACAD_REACTORS
330
EE
102
}
330
EE
100
AcDbXrecord
280
     1
102
DISPLAYNAME
  1
Imperial24
102
FLAGS
 90
        0
  0
XRECORD
  5
1C
102
{ACAD_REACTORS
330
1A
102
}
330
1A
100
AcDbXrecord
280
     1
270
     1
271
     1
  0
XRECORD
  5
1B
102
{ACAD_REACTORS
330
1A
102
}
330
1A
100
AcDbXrecord
280
     1
270
     1
271
     1
  0
XRECORD
  5
1F
102
{ACAD_REACTORS
330
1A
102
}
330
1A
100
AcDbXrecord
280
     1
270
     1
271
     1
  0
XRECORD
  5
1E
102
{ACAD_REACTORS
330
1A
102
}
330
1A
100
AcDbXrecord
280
     1
270
     1
271
     1
  0
XRECORD
  5
20
102
{ACAD_REACTORS
330
1A
102
}
330
1A
100
AcDbXrecord
280
     1
270
     1
271
     1
  0
XRECORD
  5
1D
102
{ACAD_REACTORS
330
1A
102
}
330
1A
100
AcDbXrecord
280
     1
270
     1
271
     1
  0
XRECORD
  5
14
102
{ACAD_REACTORS
330
12
102
}
330
12
100
AcDbXrecord
280
     1
270
     1
271
     1
  0
XRECORD
  5
13
102
{ACAD_REACTORS
330
12
102
}
330
12
100
AcDbXrecord
280
     1
270
     1
271
     1
  0
XRECORD
  5
17
102
{ACAD_REACTORS
330
12
102
}
330
12
100
AcDbXrecord
280
     1
270
     1
271
     1
  0
XRECORD
  5
16
102
{ACAD_REACTORS
330
12
102
}
330
12
100
AcDbXrecord
280
     1
270
     1
271
     1
  0
XRECORD
  5
18
102
{ACAD_REACTORS
330
12
102
}
330
12
100
AcDbXrecord
280
     1
270
     1
271
     1
  0
XRECORD
  5
15
102
{ACAD_REACTORS
330
12
102
}
330
12
100
AcDbXrecord
280
     1
270
     1
271
     1
  0
XRECORD
  5
24
102
{ACAD_REACTORS
330
22
102
}
330
22
100
AcDbXrecord
280
     1
270
     1
271
     1
  0
XRECORD
  5
23
102
{ACAD_REACTORS
330
22
102
}
330
22
100
AcDbXrecord
280
     1
270
     1
271
     1
  0
XRECORD
  5
27
102
{ACAD_REACTORS
330
22
102
}
330
22
100
AcDbXrecord
280
     1
270
     1
271
     1
  0
XRECORD
  5
26
102
{ACAD_REACTORS
330
22
102
}
330
22
100
AcDbXrecord
280
     1
270
     1
271
     1
  0
XRECORD
  5
28
102
{ACAD_REACTORS
330
22
102
}
330
22
100
AcDbXrecord
280
     1
270
     1
271
     1
  0
XRECORD
  5
25
102
{ACAD_REACTORS
330
22
102
}
330
22
100
AcDbXrecord
280
     1
270
     1
271
     1
  0
XRECORD
  5
EB
102
{ACAD_REACTORS
330
EA
102
}
330
EA
100
AcDbXrecord
280
     1
102
ACAD_ROUNDTRIP_2012_MLEADER_STYLE
298
     1
  0
XRECORD
  5
ED
102
{ACAD_REACTORS
330
EC
102
}
330
EC
100
AcDbXrecord
280
     1
102
DISPLAYNAME
  1
Imperial24
102
FLAGS
 90
        0
  0
CELLSTYLEMAP
  5
B7
102
{ACAD_REACTORS
330
B6
102
}
330
B6
100
AcDbCellStyleMap
 90
        3
300
CELLSTYLE
  1
TABLEFORMAT_BEGIN
 90
        5
170
     1
 91
        0
 92
    32768
 62
   257
 93
        1
300
CONTENTFORMAT
  1
CONTENTFORMAT_BEGIN
 90
        0
 91
        0
 92
      512
 93
        0
300

 40
0.0
140
1.0
 94
        5
 62
     0
340
55
144
0.25
309
CONTENTFORMAT_END
171
     0
 94
        0
309
TABLEFORMAT_END
  1
CELLSTYLE_BEGIN
 90
        1
 91
        1
300
_TITLE
309
CELLSTYLE_END
300
CELLSTYLE
  1
TABLEFORMAT_BEGIN
 90
        5
170
     1
 91
        0
 92
        0
 62
   257
 93
        1
300
CONTENTFORMAT
  1
CONTENTFORMAT_BEGIN
 90
        0
 91
        0
 92
      512
 93
        0
300

 40
0.0
140
1.0
 94
        5
 62
     0
340
55
144
0.18
309
CONTENTFORMAT_END
171
     0
 94
        0
309
TABLEFORMAT_END
  1
CELLSTYLE_BEGIN
 90
        2
 91
        1
300
_HEADER
309
CELLSTYLE_END
300
CELLSTYLE
  1
TABLEFORMAT_BEGIN
 90
        5
170
     1
 91
        0
 92
        0
 62
   257
 93
        1
300
CONTENTFORMAT
  1
CONTENTFORMAT_BEGIN
 90
        0
 91
        0
 92
      512
 93
        0
300

 40
0.0
140
1.0
 94
        2
 62
     0
340
55
144
0.18
309
CONTENTFORMAT_END
171
     0
 94
        0
309
TABLEFORMAT_END
  1
CELLSTYLE_BEGIN
 90
        3
 91
        2
300
_DATA
309
CELLSTYLE_END
  0
XRECORD
  5
C4
102
{ACAD_REACTORS
330
C3
102
}
330
C3
100
AcDbXrecord
280
     1
102
RTVSPost2010Prop28
280
     1
102
RTVSPost2010PropOp28
 70
     1
102
RTVSPost2010Prop29
280
     1
102
RTVSPost2010PropOp29
 70
     1
102
RTVSPost2010Prop30
280
     0
102
RTVSPost2010PropOp30
 70
     1
102
RTVSPost2010Prop31
280
     0
102
RTVSPost2010PropOp31
 70
     1
102
RTVSPost2010Prop32
280
     0
102
RTVSPost2010PropOp32
 70
     1
102
RTVSPost2010Prop33
280
     0
102
RTVSPost2010PropOp33
 70
     1
102
RTVSPost2010Prop34
280
     0
102
RTVSPost2010PropOp34
 70
     1
102
RTVSPost2010Prop35
280
     0
102
RTVSPost2010PropOp35
 70
     1
102
RTVSPost2010Prop36
280
     0
102
RTVSPost2010PropOp36
 70
     1
102
RTVSPost2010Prop37
 90
       50
102
RTVSPost2010PropOp37
 70
     1
102
RTVSPost2010Prop38
140
0.0
102
RTVSPost2010PropOp38
 70
     1
102
RTVSPost2010Prop39
140
1.0
102
RTVSPost2010PropOp39
 70
     1
102
RTVSPost2010Prop40
 90
        0
102
RTVSPost2010PropOp40
 70
     1
102
RTVSPost2010Prop41ColorIndex
 90
       18
102
RTVSPost2010Prop41ColorRGB
 90
        0
102
RTVSPost2010PropOp41
 70
     1
102
RTVSPost2010Prop42
 90
       50
102
RTVSPost2010PropOp42
 70
     1
102
RTVSPost2010Prop43
 90
        3
102
RTVSPost2010PropOp43
 70
     1
102
RTVSPost2010Prop44ColorIndex
 90
        5
102
RTVSPost2010Prop44ColorRGB
 90
      255
102
RTVSPost2010PropOp44
 70
     1
102
RTVSPost2010Prop45
280
     0
102
RTVSPost2010PropOp45
 70
     1
102
RTVSPost2010Prop46
 90
       50
102
RTVSPost2010PropOp46
 70
     1
102
RTVSPost2010Prop47
 90
       50
102
RTVSPost2010PropOp47
 70
     1
102
RTVSPost2010Prop48
 90
       50
102
RTVSPost2010PropOp48
 70
     1
102
RTVSPost2010Prop49
280
     0
102
RTVSPost2010PropOp49
 70
     1
102
RTVSPost2010Prop50
 90
       50
102
RTVSPost2010PropOp50
 70
     1
102
RTVSPost2010Prop51ColorIndex
 90
      256
102
RTVSPost2010Prop51ColorRGB
 90
-16777216
102
RTVSPost2010PropOp51
 70
     0
102
RTVSPost2010Prop52
140
1.0
102
RTVSPost2010PropOp52
 70
     0
102
RTVSPost2010Prop53
 90
        2
102
RTVSPost2010PropOp53
 70
     1
102
RTVSPost2010Prop54
  1
strokes_ogs.tif
102
RTVSPost2010PropOp54
 70
     1
102
RTVSPost2010Prop55
280
     0
102
RTVSPost2010PropOp55
 70
     1
102
RTVSPost2010Prop56
140
1.0
102
RTVSPost2010PropOp56
 70
     1
102
RTVSPost2010Prop57
140
1.0
102
RTVSPost2010PropOp57
 70
     1
102
RTVSPropertyOp0
 70
     1
102
RTVSPropertyOp1
 70
     1
102
RTVSPropertyOp2
 70
     1
102
RTVSPropertyOp3
 70
     1
102
RTVSPropertyOp4
 70
     1
102
RTVSPropertyOp5
 70
     1
102
RTVSPropertyOp6
 70
     1
102
RTVSPropertyOp7
 70
     1
102
RTVSPropertyOp8
 70
     1
102
RTVSPropertyOp9
 70
     1
102
RTVSPropertyOp10
 70
     1
102
RTVSPropertyOp11
 70
     1
102
RTVSPropertyOp12
 70
     1
102
RTVSPropertyOp13
 70
     1
102
RTVSPropertyOp14
 70
     1
102
RTVSPropertyOp15
 70
     1
102
RTVSPropertyOp16
 70
     1
102
RTVSPropertyOp17
 70
     1
102
RTVSPropertyOp18
 70
     1
102
RTVSPropertyOp19
 70
     1
102
RTVSPropertyOp20
 70
     1
102
RTVSPropertyOp21
 70
     1
102
RTVSPropertyOp22
 70
     1
102
RTVSPropertyOp23
 70
     1
102
RTVSPropertyOp24
 70
     1
102
RTVSPropertyOp25
 70
     1
102
RTVSPropertyOp26
 70
     1
102
RTVSPropertyOp27
 70
     1
102
RTVSPropertyOp28
 70
     1
102
RTVSPropertyOp29
 70
     1
102
RTVSPropertyOp30
 70
     1
102
RTVSPropertyOp31
 70
     1
102
RTVSPropertyOp32
 70
     1
102
RTVSPropertyOp33
 70
     1
102
RTVSPropertyOp34
 70
     1
102
RTVSPropertyOp35
 70
     1
102
RTVSPropertyOp36
 70
     1
102
RTVSPropertyOp37
 70
     1
102
RTVSPropertyOp38
 70
     1
102
RTVSPropertyOp39
 70
     1
102
RTVSPropertyOp40
 70
     1
102
RTVSPropertyOp41
 70
     1
102
RTVSPropertyOp42
 70
     1
102
RTVSPropertyOp43
 70
     1
102
RTVSPropertyOp44
 70
     1
102
RTVSPropertyOp45
 70
     1
102
RTVSPropertyOp46
 70
     1
102
RTVSPropertyOp47
 70
     1
102
RTVSPropertyOp48
 70
     1
102
RTVSPropertyOp49
 70
     1
102
RTVSPropertyOp50
 70
     1
102
RTVSPropertyOp51
 70
     0
102
RTVSPropertyOp52
 70
     0
102
RTVSPropertyOp53
 70
     1
102
RTVSPropertyOp54
 70
     1
102
RTVSPropertyOp55
 70
     1
102
RTVSPropertyOp56
 70
     1
102
RTVSPropertyOp57
 70
     1
102
RTVSPropertyOp58
 70
     1
102
RTVSPropertyOp59
 70
     1
102
RTVSPropertyOp60
 70
     1
102
RTVSPropertyOp61
 70
     1
102
RTVSPropertyOp62
 70
     1
  0
XRECORD
  5
C2
102
{ACAD_REACTORS
330
C1
102
}
330
C1
100
AcDbXrecord
280
     1
102
RTVSPost2010Prop28
280
     0
102
RTVSPost2010PropOp28
 70
     1
102
RTVSPost2010Prop29
280
     1
102
RTVSPost2010PropOp29
 70
     1
102
RTVSPost2010Prop30
280
     1
102
RTVSPost2010PropOp30
 70
     1
102
RTVSPost2010Prop31
280
     0
102
RTVSPost2010PropOp31
 70
     1
102
RTVSPost2010Prop32
280
     0
102
RTVSPost2010PropOp32
 70
     1
102
RTVSPost2010Prop33
280
     0
102
RTVSPost2010PropOp33
 70
     1
102
RTVSPost2010Prop34
280
     0
102
RTVSPost2010PropOp34
 70
     1
102
RTVSPost2010Prop35
280
     0
102
RTVSPost2010PropOp35
 70
     1
102
RTVSPost2010Prop36
280
     0
102
RTVSPost2010PropOp36
 70
     1
102
RTVSPost2010Prop37
 90
       50
102
RTVSPost2010PropOp37
 70
     1
102
RTVSPost2010Prop38
140
0.0
102
RTVSPost2010PropOp38
 70
     1
102
RTVSPost2010Prop39
140
1.0
102
RTVSPost2010PropOp39
 70
     1
102
RTVSPost2010Prop40
 90
        0
102
RTVSPost2010PropOp40
 70
     1
102
RTVSPost2010Prop41ColorIndex
 90
       18
102
RTVSPost2010Prop41ColorRGB
 90
        0
102
RTVSPost2010PropOp41
 70
     1
102
RTVSPost2010Prop42
 90
       50
102
RTVSPost2010PropOp42
 70
     1
102
RTVSPost2010Prop43
 90
        3
102
RTVSPost2010PropOp43
 70
     1
102
RTVSPost2010Prop44ColorIndex
 90
        5
102
RTVSPost2010Prop44ColorRGB
 90
      255
102
RTVSPost2010PropOp44
 70
     1
102
RTVSPost2010Prop45
280
     0
102
RTVSPost2010PropOp45
 70
     1
102
RTVSPost2010Prop46
 90
       50
102
RTVSPost2010PropOp46
 70
     1
102
RTVSPost2010Prop47
 90
       50
102
RTVSPost2010PropOp47
 70
     1
102
RTVSPost2010Prop48
 90
       50
102
RTVSPost2010PropOp48
 70
     1
102
RTVSPost2010Prop49
280
     0
102
RTVSPost2010PropOp49
 70
     1
102
RTVSPost2010Prop50
 90
       50
102
RTVSPost2010PropOp50
 70
     1
102
RTVSPost2010Prop51ColorIndex
 90
      256
102
RTVSPost2010Prop51ColorRGB
 90
-16777216
102
RTVSPost2010PropOp51
 70
     0
102
RTVSPost2010Prop52
140
1.0
102
RTVSPost2010PropOp52
 70
     0
102
RTVSPost2010Prop53
 90
        2
102
RTVSPost2010PropOp53
 70
     1
102
RTVSPost2010Prop54
  1
strokes_ogs.tif
102
RTVSPost2010PropOp54
 70
     1
102
RTVSPost2010Prop55
280
     0
102
RTVSPost2010PropOp55
 70
     1
102
RTVSPost2010Prop56
140
1.0
102
RTVSPost2010PropOp56
 70
     1
102
RTVSPost2010Prop57
140
1.0
102
RTVSPost2010PropOp57
 70
     1
102
RTVSPropertyOp0
 70
     1
102
RTVSPropertyOp1
 70
     1
102
RTVSPropertyOp2
 70
     1
102
RTVSPropertyOp3
 70
     1
102
RTVSPropertyOp4
 70
     1
102
RTVSPropertyOp5
 70
     1
102
RTVSPropertyOp6
 70
     1
102
RTVSPropertyOp7
 70
     1
102
RTVSPropertyOp8
 70
     1
102
RTVSPropertyOp9
 70
     1
102
RTVSPropertyOp10
 70
     1
102
RTVSPropertyOp11
 70
     1
102
RTVSPropertyOp12
 70
     1
102
RTVSPropertyOp13
 70
     1
102
RTVSPropertyOp14
 70
     1
102
RTVSPropertyOp15
 70
     1
102
RTVSPropertyOp16
 70
     1
102
RTVSPropertyOp17
 70
     1
102
RTVSPropertyOp18
 70
     1
102
RTVSPropertyOp19
 70
     1
102
RTVSPropertyOp20
 70
     1
102
RTVSPropertyOp21
 70
     1
102
RTVSPropertyOp22
 70
     1
102
RTVSPropertyOp23
 70
     1
102
RTVSPropertyOp24
 70
     1
102
RTVSPropertyOp25
 70
     1
102
RTVSPropertyOp26
 70
     1
102
RTVSPropertyOp27
 70
     1
102
RTVSPropertyOp28
 70
     1
102
RTVSPropertyOp29
 70
     1
102
RTVSPropertyOp30
 70
     1
102
RTVSPropertyOp31
 70
     1
102
RTVSPropertyOp32
 70
     1
102
RTVSPropertyOp33
 70
     1
102
RTVSPropertyOp34
 70
     1
102
RTVSPropertyOp35
 70
     1
102
RTVSPropertyOp36
 70
     1
102
RTVSPropertyOp37
 70
     1
102
RTVSPropertyOp38
 70
     1
102
RTVSPropertyOp39
 70
     1
102
RTVSPropertyOp40
 70
     1
102
RTVSPropertyOp41
 70
     1
102
RTVSPropertyOp42
 70
     1
102
RTVSPropertyOp43
 70
     1
102
RTVSPropertyOp44
 70
     1
102
RTVSPropertyOp45
 70
     1
102
RTVSPropertyOp46
 70
     1
102
RTVSPropertyOp47
 70
     1
102
RTVSPropertyOp48
 70
     1
102
RTVSPropertyOp49
 70
     1
102
RTVSPropertyOp50
 70
     1
102
RTVSPropertyOp51
 70
     0
102
RTVSPropertyOp52
 70
     0
102
RTVSPropertyOp53
 70
     1
102
RTVSPropertyOp54
 70
     1
102
RTVSPropertyOp55
 70
     1
102
RTVSPropertyOp56
 70
     1
102
RTVSPropertyOp57
 70
     1
102
RTVSPropertyOp58
 70
     1
102
RTVSPropertyOp59
 70
     1
102
RTVSPropertyOp60
 70
     1
102
RTVSPropertyOp61
 70
     1
102
RTVSPropertyOp62
 70
     1
  0
XRECORD
  5
D0
102
{ACAD_REACTORS
330
CF
102
}
330
CF
100
AcDbXrecord
280
     1
102
RTVSPost2010Prop28
280
     0
102
RTVSPost2010PropOp28
 70
     1
102
RTVSPost2010Prop29
280
     1
102
RTVSPost2010PropOp29
 70
     1
102
RTVSPost2010Prop30
280
     1
102
RTVSPost2010PropOp30
 70
     1
102
RTVSPost2010Prop31
280
     0
102
RTVSPost2010PropOp31
 70
     1
102
RTVSPost2010Prop32
280
     0
102
RTVSPost2010PropOp32
 70
     1
102
RTVSPost2010Prop33
280
     0
102
RTVSPost2010PropOp33
 70
     1
102
RTVSPost2010Prop34
280
     0
102
RTVSPost2010PropOp34
 70
     1
102
RTVSPost2010Prop35
280
     0
102
RTVSPost2010PropOp35
 70
     1
102
RTVSPost2010Prop36
280
     0
102
RTVSPost2010PropOp36
 70
     1
102
RTVSPost2010Prop37
 90
       50
102
RTVSPost2010PropOp37
 70
     1
102
RTVSPost2010Prop38
140
0.0
102
RTVSPost2010PropOp38
 70
     1
102
RTVSPost2010Prop39
140
1.0
102
RTVSPost2010PropOp39
 70
     1
102
RTVSPost2010Prop40
 90
        0
102
RTVSPost2010PropOp40
 70
     1
102
RTVSPost2010Prop41ColorIndex
 90
       18
102
RTVSPost2010Prop41ColorRGB
 90
        0
102
RTVSPost2010PropOp41
 70
     1
102
RTVSPost2010Prop42
 90
       50
102
RTVSPost2010PropOp42
 70
     1
102
RTVSPost2010Prop43
 90
        3
102
RTVSPost2010PropOp43
 70
     1
102
RTVSPost2010Prop44ColorIndex
 90
        5
102
RTVSPost2010Prop44ColorRGB
 90
      255
102
RTVSPost2010PropOp44
 70
     1
102
RTVSPost2010Prop45
280
     0
102
RTVSPost2010PropOp45
 70
     1
102
RTVSPost2010Prop46
 90
       50
102
RTVSPost2010PropOp46
 70
     1
102
RTVSPost2010Prop47
 90
       50
102
RTVSPost2010PropOp47
 70
     1
102
RTVSPost2010Prop48
 90
       50
102
RTVSPost2010PropOp48
 70
     1
102
RTVSPost2010Prop49
280
     0
102
RTVSPost2010PropOp49
 70
     1
102
RTVSPost2010Prop50
 90
       50
102
RTVSPost2010PropOp50
 70
     1
102
RTVSPost2010Prop51ColorIndex
 90
      256
102
RTVSPost2010Prop51ColorRGB
 90
-16777216
102
RTVSPost2010PropOp51
 70
     0
102
RTVSPost2010Prop52
140
1.0
102
RTVSPost2010PropOp52
 70
     0
102
RTVSPost2010Prop53
 90
        2
102
RTVSPost2010PropOp53
 70
     1
102
RTVSPost2010Prop54
  1
strokes_ogs.tif
102
RTVSPost2010PropOp54
 70
     1
102
RTVSPost2010Prop55
280
     0
102
RTVSPost2010PropOp55
 70
     1
102
RTVSPost2010Prop56
140
1.0
102
RTVSPost2010PropOp56
 70
     1
102
RTVSPost2010Prop57
140
1.0
102
RTVSPost2010PropOp57
 70
     1
102
RTVSPropertyOp0
 70
     1
102
RTVSPropertyOp1
 70
     1
102
RTVSPropertyOp2
 70
     1
102
RTVSPropertyOp3
 70
     1
102
RTVSPropertyOp4
 70
     1
102
RTVSPropertyOp5
 70
     1
102
RTVSPropertyOp6
 70
     1
102
RTVSPropertyOp7
 70
     1
102
RTVSPropertyOp8
 70
     1
102
RTVSPropertyOp9
 70
     1
102
RTVSPropertyOp10
 70
     1
102
RTVSPropertyOp11
 70
     1
102
RTVSPropertyOp12
 70
     1
102
RTVSPropertyOp13
 70
     1
102
RTVSPropertyOp14
 70
     1
102
RTVSPropertyOp15
 70
     1
102
RTVSPropertyOp16
 70
     1
102
RTVSPropertyOp17
 70
     1
102
RTVSPropertyOp18
 70
     1
102
RTVSPropertyOp19
 70
     1
102
RTVSPropertyOp20
 70
     1
102
RTVSPropertyOp21
 70
     1
102
RTVSPropertyOp22
 70
     1
102
RTVSPropertyOp23
 70
     1
102
RTVSPropertyOp24
 70
     1
102
RTVSPropertyOp25
 70
     1
102
RTVSPropertyOp26
 70
     1
102
RTVSPropertyOp27
 70
     1
102
RTVSPropertyOp28
 70
     1
102
RTVSPropertyOp29
 70
     1
102
RTVSPropertyOp30
 70
     1
102
RTVSPropertyOp31
 70
     1
102
RTVSPropertyOp32
 70
     1
102
RTVSPropertyOp33
 70
     1
102
RTVSPropertyOp34
 70
     1
102
RTVSPropertyOp35
 70
     1
102
RTVSPropertyOp36
 70
     1
102
RTVSPropertyOp37
 70
     1
102
RTVSPropertyOp38
 70
     1
102
RTVSPropertyOp39
 70
     1
102
RTVSPropertyOp40
 70
     1
102
RTVSPropertyOp41
 70
     1
102
RTVSPropertyOp42
 70
     1
102
RTVSPropertyOp43
 70
     1
102
RTVSPropertyOp44
 70
     1
102
RTVSPropertyOp45
 70
     1
102
RTVSPropertyOp46
 70
     1
102
RTVSPropertyOp47
 70
     1
102
RTVSPropertyOp48
 70
     1
102
RTVSPropertyOp49
 70
     1
102
RTVSPropertyOp50
 70
     1
102
RTVSPropertyOp51
 70
     0
102
RTVSPropertyOp52
 70
     0
102
RTVSPropertyOp53
 70
     1
102
RTVSPropertyOp54
 70
     1
102
RTVSPropertyOp55
 70
     1
102
RTVSPropertyOp56
 70
     1
102
RTVSPropertyOp57
 70
     1
102
RTVSPropertyOp58
 70
     1
102
RTVSPropertyOp59
 70
     1
102
RTVSPropertyOp60
 70
     1
102
RTVSPropertyOp61
 70
     1
102
RTVSPropertyOp62
 70
     1
  0
XRECORD
  5
D8
102
{ACAD_REACTORS
330
D7
102
}
330
D7
100
AcDbXrecord
280
     1
102
RTVSPost2010Prop28
280
     0
102
RTVSPost2010PropOp28
 70
     1
102
RTVSPost2010Prop29
280
     1
102
RTVSPost2010PropOp29
 70
     1
102
RTVSPost2010Prop30
280
     1
102
RTVSPost2010PropOp30
 70
     1
102
RTVSPost2010Prop31
280
     0
102
RTVSPost2010PropOp31
 70
     1
102
RTVSPost2010Prop32
280
     0
102
RTVSPost2010PropOp32
 70
     1
102
RTVSPost2010Prop33
280
     0
102
RTVSPost2010PropOp33
 70
     1
102
RTVSPost2010Prop34
280
     0
102
RTVSPost2010PropOp34
 70
     1
102
RTVSPost2010Prop35
280
     0
102
RTVSPost2010PropOp35
 70
     1
102
RTVSPost2010Prop36
280
     0
102
RTVSPost2010PropOp36
 70
     1
102
RTVSPost2010Prop37
 90
       50
102
RTVSPost2010PropOp37
 70
     1
102
RTVSPost2010Prop38
140
0.0
102
RTVSPost2010PropOp38
 70
     1
102
RTVSPost2010Prop39
140
1.0
102
RTVSPost2010PropOp39
 70
     1
102
RTVSPost2010Prop40
 90
        0
102
RTVSPost2010PropOp40
 70
     1
102
RTVSPost2010Prop41ColorIndex
 90
       18
102
RTVSPost2010Prop41ColorRGB
 90
        0
102
RTVSPost2010PropOp41
 70
     1
102
RTVSPost2010Prop42
 90
       50
102
RTVSPost2010PropOp42
 70
     1
102
RTVSPost2010Prop43
 90
        3
102
RTVSPost2010PropOp43
 70
     1
102
RTVSPost2010Prop44ColorIndex
 90
        5
102
RTVSPost2010Prop44ColorRGB
 90
      255
102
RTVSPost2010PropOp44
 70
     1
102
RTVSPost2010Prop45
280
     0
102
RTVSPost2010PropOp45
 70
     1
102
RTVSPost2010Prop46
 90
       50
102
RTVSPost2010PropOp46
 70
     1
102
RTVSPost2010Prop47
 90
       50
102
RTVSPost2010PropOp47
 70
     1
102
RTVSPost2010Prop48
 90
       50
102
RTVSPost2010PropOp48
 70
     1
102
RTVSPost2010Prop49
280
     0
102
RTVSPost2010PropOp49
 70
     1
102
RTVSPost2010Prop50
 90
       50
102
RTVSPost2010PropOp50
 70
     1
102
RTVSPost2010Prop51ColorIndex
 90
      256
102
RTVSPost2010Prop51ColorRGB
 90
-16777216
102
RTVSPost2010PropOp51
 70
     0
102
RTVSPost2010Prop52
140
1.0
102
RTVSPost2010PropOp52
 70
     0
102
RTVSPost2010Prop53
 90
        2
102
RTVSPost2010PropOp53
 70
     1
102
RTVSPost2010Prop54
  1
strokes_ogs.tif
102
RTVSPost2010PropOp54
 70
     1
102
RTVSPost2010Prop55
280
     0
102
RTVSPost2010PropOp55
 70
     1
102
RTVSPost2010Prop56
140
1.0
102
RTVSPost2010PropOp56
 70
     1
102
RTVSPost2010Prop57
140
1.0
102
RTVSPost2010PropOp57
 70
     1
102
RTVSPropertyOp0
 70
     1
102
RTVSPropertyOp1
 70
     1
102
RTVSPropertyOp2
 70
     1
102
RTVSPropertyOp3
 70
     1
102
RTVSPropertyOp4
 70
     1
102
RTVSPropertyOp5
 70
     1
102
RTVSPropertyOp6
 70
     1
102
RTVSPropertyOp7
 70
     1
102
RTVSPropertyOp8
 70
     1
102
RTVSPropertyOp9
 70
     1
102
RTVSPropertyOp10
 70
     1
102
RTVSPropertyOp11
 70
     1
102
RTVSPropertyOp12
 70
     1
102
RTVSPropertyOp13
 70
     1
102
RTVSPropertyOp14
 70
     1
102
RTVSPropertyOp15
 70
     1
102
RTVSPropertyOp16
 70
     1
102
RTVSPropertyOp17
 70
     1
102
RTVSPropertyOp18
 70
     1
102
RTVSPropertyOp19
 70
     1
102
RTVSPropertyOp20
 70
     1
102
RTVSPropertyOp21
 70
     1
102
RTVSPropertyOp22
 70
     1
102
RTVSPropertyOp23
 70
     1
102
RTVSPropertyOp24
 70
     1
102
RTVSPropertyOp25
 70
     1
102
RTVSPropertyOp26
 70
     1
102
RTVSPropertyOp27
 70
     1
102
RTVSPropertyOp28
 70
     1
102
RTVSPropertyOp29
 70
     1
102
RTVSPropertyOp30
 70
     1
102
RTVSPropertyOp31
 70
     1
102
RTVSPropertyOp32
 70
     1
102
RTVSPropertyOp33
 70
     1
102
RTVSPropertyOp34
 70
     1
102
RTVSPropertyOp35
 70
     1
102
RTVSPropertyOp36
 70
     1
102
RTVSPropertyOp37
 70
     1
102
RTVSPropertyOp38
 70
     1
102
RTVSPropertyOp39
 70
     1
102
RTVSPropertyOp40
 70
     1
102
RTVSPropertyOp41
 70
     1
102
RTVSPropertyOp42
 70
     1
102
RTVSPropertyOp43
 70
     1
102
RTVSPropertyOp44
 70
     1
102
RTVSPropertyOp45
 70
     1
102
RTVSPropertyOp46
 70
     1
102
RTVSPropertyOp47
 70
     1
102
RTVSPropertyOp48
 70
     1
102
RTVSPropertyOp49
 70
     1
102
RTVSPropertyOp50
 70
     1
102
RTVSPropertyOp51
 70
     0
102
RTVSPropertyOp52
 70
     0
102
RTVSPropertyOp53
 70
     1
102
RTVSPropertyOp54
 70
     1
102
RTVSPropertyOp55
 70
     1
102
RTVSPropertyOp56
 70
     1
102
RTVSPropertyOp57
 70
     1
102
RTVSPropertyOp58
 70
     1
102
RTVSPropertyOp59
 70
     1
102
RTVSPropertyOp60
 70
     1
102
RTVSPropertyOp61
 70
     1
102
RTVSPropertyOp62
 70
     1
  0
XRECORD
  5
CA
102
{ACAD_REACTORS
330
C9
102
}
330
C9
100
AcDbXrecord
280
     1
102
RTVSPost2010Prop28
280
     0
102
RTVSPost2010PropOp28
 70
     1
102
RTVSPost2010Prop29
280
     1
102
RTVSPost2010PropOp29
 70
     1
102
RTVSPost2010Prop30
280
     1
102
RTVSPost2010PropOp30
 70
     1
102
RTVSPost2010Prop31
280
     0
102
RTVSPost2010PropOp31
 70
     1
102
RTVSPost2010Prop32
280
     0
102
RTVSPost2010PropOp32
 70
     1
102
RTVSPost2010Prop33
280
     0
102
RTVSPost2010PropOp33
 70
     1
102
RTVSPost2010Prop34
280
     0
102
RTVSPost2010PropOp34
 70
     1
102
RTVSPost2010Prop35
280
     0
102
RTVSPost2010PropOp35
 70
     1
102
RTVSPost2010Prop36
280
     0
102
RTVSPost2010PropOp36
 70
     1
102
RTVSPost2010Prop37
 90
       50
102
RTVSPost2010PropOp37
 70
     1
102
RTVSPost2010Prop38
140
0.0
102
RTVSPost2010PropOp38
 70
     1
102
RTVSPost2010Prop39
140
1.0
102
RTVSPost2010PropOp39
 70
     1
102
RTVSPost2010Prop40
 90
        0
102
RTVSPost2010PropOp40
 70
     1
102
RTVSPost2010Prop41ColorIndex
 90
       18
102
RTVSPost2010Prop41ColorRGB
 90
        0
102
RTVSPost2010PropOp41
 70
     1
102
RTVSPost2010Prop42
 90
       50
102
RTVSPost2010PropOp42
 70
     1
102
RTVSPost2010Prop43
 90
        3
102
RTVSPost2010PropOp43
 70
     1
102
RTVSPost2010Prop44ColorIndex
 90
        5
102
RTVSPost2010Prop44ColorRGB
 90
      255
102
RTVSPost2010PropOp44
 70
     1
102
RTVSPost2010Prop45
280
     0
102
RTVSPost2010PropOp45
 70
     1
102
RTVSPost2010Prop46
 90
       50
102
RTVSPost2010PropOp46
 70
     1
102
RTVSPost2010Prop47
 90
       50
102
RTVSPost2010PropOp47
 70
     1
102
RTVSPost2010Prop48
 90
       50
102
RTVSPost2010PropOp48
 70
     1
102
RTVSPost2010Prop49
280
     0
102
RTVSPost2010PropOp49
 70
     1
102
RTVSPost2010Prop50
 90
       50
102
RTVSPost2010PropOp50
 70
     1
102
RTVSPost2010Prop51ColorIndex
 90
      256
102
RTVSPost2010Prop51ColorRGB
 90
-16777216
102
RTVSPost2010PropOp51
 70
     0
102
RTVSPost2010Prop52
140
1.0
102
RTVSPost2010PropOp52
 70
     0
102
RTVSPost2010Prop53
 90
        2
102
RTVSPost2010PropOp53
 70
     1
102
RTVSPost2010Prop54
  1
strokes_ogs.tif
102
RTVSPost2010PropOp54
 70
     1
102
RTVSPost2010Prop55
280
     0
102
RTVSPost2010PropOp55
 70
     1
102
RTVSPost2010Prop56
140
1.0
102
RTVSPost2010PropOp56
 70
     1
102
RTVSPost2010Prop57
140
1.0
102
RTVSPost2010PropOp57
 70
     1
102
RTVSPropertyOp0
 70
     1
102
RTVSPropertyOp1
 70
     1
102
RTVSPropertyOp2
 70
     1
102
RTVSPropertyOp3
 70
     1
102
RTVSPropertyOp4
 70
     1
102
RTVSPropertyOp5
 70
     1
102
RTVSPropertyOp6
 70
     1
102
RTVSPropertyOp7
 70
     1
102
RTVSPropertyOp8
 70
     1
102
RTVSPropertyOp9
 70
     1
102
RTVSPropertyOp10
 70
     1
102
RTVSPropertyOp11
 70
     1
102
RTVSPropertyOp12
 70
     1
102
RTVSPropertyOp13
 70
     1
102
RTVSPropertyOp14
 70
     1
102
RTVSPropertyOp15
 70
     1
102
RTVSPropertyOp16
 70
     1
102
RTVSPropertyOp17
 70
     1
102
RTVSPropertyOp18
 70
     1
102
RTVSPropertyOp19
 70
     1
102
RTVSPropertyOp20
 70
     1
102
RTVSPropertyOp21
 70
     1
102
RTVSPropertyOp22
 70
     1
102
RTVSPropertyOp23
 70
     1
102
RTVSPropertyOp24
 70
     1
102
RTVSPropertyOp25
 70
     1
102
RTVSPropertyOp26
 70
     1
102
RTVSPropertyOp27
 70
     1
102
RTVSPropertyOp28
 70
     1
102
RTVSPropertyOp29
 70
     1
102
RTVSPropertyOp30
 70
     1
102
RTVSPropertyOp31
 70
     1
102
RTVSPropertyOp32
 70
     1
102
RTVSPropertyOp33
 70
     1
102
RTVSPropertyOp34
 70
     1
102
RTVSPropertyOp35
 70
     1
102
RTVSPropertyOp36
 70
     1
102
RTVSPropertyOp37
 70
     1
102
RTVSPropertyOp38
 70
     1
102
RTVSPropertyOp39
 70
     1
102
RTVSPropertyOp40
 70
     1
102
RTVSPropertyOp41
 70
     1
102
RTVSPropertyOp42
 70
     1
102
RTVSPropertyOp43
 70
     1
102
RTVSPropertyOp44
 70
     1
102
RTVSPropertyOp45
 70
     1
102
RTVSPropertyOp46
 70
     1
102
RTVSPropertyOp47
 70
     1
102
RTVSPropertyOp48
 70
     1
102
RTVSPropertyOp49
 70
     1
102
RTVSPropertyOp50
 70
     1
102
RTVSPropertyOp51
 70
     0
102
RTVSPropertyOp52
 70
     0
102
RTVSPropertyOp53
 70
     1
102
RTVSPropertyOp54
 70
     1
102
RTVSPropertyOp55
 70
     1
102
RTVSPropertyOp56
 70
     1
102
RTVSPropertyOp57
 70
     1
102
RTVSPropertyOp58
 70
     1
102
RTVSPropertyOp59
 70
     1
102
RTVSPropertyOp60
 70
     1
102
RTVSPropertyOp61
 70
     1
102
RTVSPropertyOp62
 70
     1
  0
XRECORD
  5
CE
102
{ACAD_REACTORS
330
CD
102
}
330
CD
100
AcDbXrecord
280
     1
102
RTVSPost2010Prop28
280
     0
102
RTVSPost2010PropOp28
 70
     1
102
RTVSPost2010Prop29
280
     1
102
RTVSPost2010PropOp29
 70
     1
102
RTVSPost2010Prop30
280
     1
102
RTVSPost2010PropOp30
 70
     1
102
RTVSPost2010Prop31
280
     0
102
RTVSPost2010PropOp31
 70
     1
102
RTVSPost2010Prop32
280
     0
102
RTVSPost2010PropOp32
 70
     1
102
RTVSPost2010Prop33
280
     0
102
RTVSPost2010PropOp33
 70
     1
102
RTVSPost2010Prop34
280
     0
102
RTVSPost2010PropOp34
 70
     1
102
RTVSPost2010Prop35
280
     0
102
RTVSPost2010PropOp35
 70
     1
102
RTVSPost2010Prop36
280
     0
102
RTVSPost2010PropOp36
 70
     1
102
RTVSPost2010Prop37
 90
       50
102
RTVSPost2010PropOp37
 70
     1
102
RTVSPost2010Prop38
140
0.0
102
RTVSPost2010PropOp38
 70
     1
102
RTVSPost2010Prop39
140
1.0
102
RTVSPost2010PropOp39
 70
     1
102
RTVSPost2010Prop40
 90
        0
102
RTVSPost2010PropOp40
 70
     1
102
RTVSPost2010Prop41ColorIndex
 90
       18
102
RTVSPost2010Prop41ColorRGB
 90
        0
102
RTVSPost2010PropOp41
 70
     1
102
RTVSPost2010Prop42
 90
       50
102
RTVSPost2010PropOp42
 70
     1
102
RTVSPost2010Prop43
 90
        3
102
RTVSPost2010PropOp43
 70
     1
102
RTVSPost2010Prop44ColorIndex
 90
        5
102
RTVSPost2010Prop44ColorRGB
 90
      255
102
RTVSPost2010PropOp44
 70
     1
102
RTVSPost2010Prop45
280
     0
102
RTVSPost2010PropOp45
 70
     1
102
RTVSPost2010Prop46
 90
       50
102
RTVSPost2010PropOp46
 70
     1
102
RTVSPost2010Prop47
 90
       50
102
RTVSPost2010PropOp47
 70
     1
102
RTVSPost2010Prop48
 90
       50
102
RTVSPost2010PropOp48
 70
     1
102
RTVSPost2010Prop49
280
     0
102
RTVSPost2010PropOp49
 70
     1
102
RTVSPost2010Prop50
 90
       50
102
RTVSPost2010PropOp50
 70
     1
102
RTVSPost2010Prop51ColorIndex
 90
      256
102
RTVSPost2010Prop51ColorRGB
 90
-16777216
102
RTVSPost2010PropOp51
 70
     0
102
RTVSPost2010Prop52
140
1.0
102
RTVSPost2010PropOp52
 70
     0
102
RTVSPost2010Prop53
 90
        2
102
RTVSPost2010PropOp53
 70
     1
102
RTVSPost2010Prop54
  1
strokes_ogs.tif
102
RTVSPost2010PropOp54
 70
     1
102
RTVSPost2010Prop55
280
     0
102
RTVSPost2010PropOp55
 70
     1
102
RTVSPost2010Prop56
140
1.0
102
RTVSPost2010PropOp56
 70
     1
102
RTVSPost2010Prop57
140
1.0
102
RTVSPost2010PropOp57
 70
     1
102
RTVSPropertyOp0
 70
     1
102
RTVSPropertyOp1
 70
     1
102
RTVSPropertyOp2
 70
     1
102
RTVSPropertyOp3
 70
     1
102
RTVSPropertyOp4
 70
     1
102
RTVSPropertyOp5
 70
     1
102
RTVSPropertyOp6
 70
     1
102
RTVSPropertyOp7
 70
     1
102
RTVSPropertyOp8
 70
     1
102
RTVSPropertyOp9
 70
     1
102
RTVSPropertyOp10
 70
     1
102
RTVSPropertyOp11
 70
     1
102
RTVSPropertyOp12
 70
     1
102
RTVSPropertyOp13
 70
     1
102
RTVSPropertyOp14
 70
     1
102
RTVSPropertyOp15
 70
     1
102
RTVSPropertyOp16
 70
     1
102
RTVSPropertyOp17
 70
     1
102
RTVSPropertyOp18
 70
     1
102
RTVSPropertyOp19
 70
     1
102
RTVSPropertyOp20
 70
     1
102
RTVSPropertyOp21
 70
     1
102
RTVSPropertyOp22
 70
     1
102
RTVSPropertyOp23
 70
     1
102
RTVSPropertyOp24
 70
     1
102
RTVSPropertyOp25
 70
     1
102
RTVSPropertyOp26
 70
     1
102
RTVSPropertyOp27
 70
     1
102
RTVSPropertyOp28
 70
     1
102
RTVSPropertyOp29
 70
     1
102
RTVSPropertyOp30
 70
     1
102
RTVSPropertyOp31
 70
     1
102
RTVSPropertyOp32
 70
     1
102
RTVSPropertyOp33
 70
     1
102
RTVSPropertyOp34
 70
     1
102
RTVSPropertyOp35
 70
     1
102
RTVSPropertyOp36
 70
     1
102
RTVSPropertyOp37
 70
     1
102
RTVSPropertyOp38
 70
     1
102
RTVSPropertyOp39
 70
     1
102
RTVSPropertyOp40
 70
     1
102
RTVSPropertyOp41
 70
     1
102
RTVSPropertyOp42
 70
     1
102
RTVSPropertyOp43
 70
     1
102
RTVSPropertyOp44
 70
     1
102
RTVSPropertyOp45
 70
     1
102
RTVSPropertyOp46
 70
     1
102
RTVSPropertyOp47
 70
     1
102
RTVSPropertyOp48
 70
     1
102
RTVSPropertyOp49
 70
     1
102
RTVSPropertyOp50
 70
     1
102
RTVSPropertyOp51
 70
     0
102
RTVSPropertyOp52
 70
     0
102
RTVSPropertyOp53
 70
     1
102
RTVSPropertyOp54
 70
     1
102
RTVSPropertyOp55
 70
     1
102
RTVSPropertyOp56
 70
     1
102
RTVSPropertyOp57
 70
     1
102
RTVSPropertyOp58
 70
     1
102
RTVSPropertyOp59
 70
     1
102
RTVSPropertyOp60
 70
     1
102
RTVSPropertyOp61
 70
     1
102
RTVSPropertyOp62
 70
     1
  0
XRECORD
  5
E8
102
{ACAD_REACTORS
330
E7
102
}
330
E7
100
AcDbXrecord
280
     1
102
RTVSPost2010Prop28
280
     0
102
RTVSPost2010PropOp28
 70
     0
102
RTVSPost2010Prop29
280
     1
102
RTVSPost2010PropOp29
 70
     0
102
RTVSPost2010Prop30
280
     1
102
RTVSPost2010PropOp30
 70
     0
102
RTVSPost2010Prop31
280
     0
102
RTVSPost2010PropOp31
 70
     0
102
RTVSPost2010Prop32
280
     0
102
RTVSPost2010PropOp32
 70
     0
102
RTVSPost2010Prop33
280
     0
102
RTVSPost2010PropOp33
 70
     0
102
RTVSPost2010Prop34
280
     0
102
RTVSPost2010PropOp34
 70
     0
102
RTVSPost2010Prop35
280
     0
102
RTVSPost2010PropOp35
 70
     0
102
RTVSPost2010Prop36
280
     0
102
RTVSPost2010PropOp36
 70
     0
102
RTVSPost2010Prop37
 90
       50
102
RTVSPost2010PropOp37
 70
     0
102
RTVSPost2010Prop38
140
0.0
102
RTVSPost2010PropOp38
 70
     0
102
RTVSPost2010Prop39
140
1.0
102
RTVSPost2010PropOp39
 70
     0
102
RTVSPost2010Prop40
 90
        0
102
RTVSPost2010PropOp40
 70
     0
102
RTVSPost2010Prop41ColorIndex
 90
       18
102
RTVSPost2010Prop41ColorRGB
 90
        0
102
RTVSPost2010PropOp41
 70
     0
102
RTVSPost2010Prop42
 90
       50
102
RTVSPost2010PropOp42
 70
     0
102
RTVSPost2010Prop43
 90
        3
102
RTVSPost2010PropOp43
 70
     0
102
RTVSPost2010Prop44ColorIndex
 90
        5
102
RTVSPost2010Prop44ColorRGB
 90
      255
102
RTVSPost2010PropOp44
 70
     0
102
RTVSPost2010Prop45
280
     0
102
RTVSPost2010PropOp45
 70
     0
102
RTVSPost2010Prop46
 90
       50
102
RTVSPost2010PropOp46
 70
     0
102
RTVSPost2010Prop47
 90
       50
102
RTVSPost2010PropOp47
 70
     0
102
RTVSPost2010Prop48
 90
       50
102
RTVSPost2010PropOp48
 70
     0
102
RTVSPost2010Prop49
280
     0
102
RTVSPost2010PropOp49
 70
     0
102
RTVSPost2010Prop50
 90
       50
102
RTVSPost2010PropOp50
 70
     0
102
RTVSPost2010Prop51ColorIndex
 90
      256
102
RTVSPost2010Prop51ColorRGB
 90
-16777216
102
RTVSPost2010PropOp51
 70
     0
102
RTVSPost2010Prop52
140
1.0
102
RTVSPost2010PropOp52
 70
     0
102
RTVSPost2010Prop53
 90
        2
102
RTVSPost2010PropOp53
 70
     0
102
RTVSPost2010Prop54
  1
strokes_ogs.tif
102
RTVSPost2010PropOp54
 70
     0
102
RTVSPost2010Prop55
280
     0
102
RTVSPost2010PropOp55
 70
     0
102
RTVSPost2010Prop56
140
1.0
102
RTVSPost2010PropOp56
 70
     0
102
RTVSPost2010Prop57
140
1.0
102
RTVSPost2010PropOp57
 70
     0
102
RTVSPropertyOp0
 70
     0
102
RTVSPropertyOp1
 70
     0
102
RTVSPropertyOp2
 70
     0
102
RTVSPropertyOp3
 70
     0
102
RTVSPropertyOp4
 70
     0
102
RTVSPropertyOp5
 70
     0
102
RTVSPropertyOp6
 70
     0
102
RTVSPropertyOp7
 70
     0
102
RTVSPropertyOp8
 70
     0
102
RTVSPropertyOp9
 70
     0
102
RTVSPropertyOp10
 70
     0
102
RTVSPropertyOp11
 70
     0
102
RTVSPropertyOp12
 70
     0
102
RTVSPropertyOp13
 70
     0
102
RTVSPropertyOp14
 70
     2
102
RTVSPropertyOp15
 70
     0
102
RTVSPropertyOp16
 70
     0
102
RTVSPropertyOp17
 70
     0
102
RTVSPropertyOp18
 70
     0
102
RTVSPropertyOp19
 70
     0
102
RTVSPropertyOp20
 70
     0
102
RTVSPropertyOp21
 70
     0
102
RTVSPropertyOp22
 70
     0
102
RTVSPropertyOp23
 70
     0
102
RTVSPropertyOp24
 70
     0
102
RTVSPropertyOp25
 70
     0
102
RTVSPropertyOp26
 70
     0
102
RTVSPropertyOp27
 70
     0
102
RTVSPropertyOp28
 70
     0
102
RTVSPropertyOp29
 70
     0
102
RTVSPropertyOp30
 70
     0
102
RTVSPropertyOp31
 70
     0
102
RTVSPropertyOp32
 70
     0
102
RTVSPropertyOp33
 70
     0
102
RTVSPropertyOp34
 70
     0
102
RTVSPropertyOp35
 70
     0
102
RTVSPropertyOp36
 70
     0
102
RTVSPropertyOp37
 70
     0
102
RTVSPropertyOp38
 70
     0
102
RTVSPropertyOp39
 70
     0
102
RTVSPropertyOp40
 70
     0
102
RTVSPropertyOp41
 70
     0
102
RTVSPropertyOp42
 70
     0
102
RTVSPropertyOp43
 70
     0
102
RTVSPropertyOp44
 70
     0
102
RTVSPropertyOp45
 70
     0
102
RTVSPropertyOp46
 70
     0
102
RTVSPropertyOp47
 70
     0
102
RTVSPropertyOp48
 70
     0
102
RTVSPropertyOp49
 70
     0
102
RTVSPropertyOp50
 70
     0
102
RTVSPropertyOp51
 70
     0
102
RTVSPropertyOp52
 70
     0
102
RTVSPropertyOp53
 70
     0
102
RTVSPropertyOp54
 70
     0
102
RTVSPropertyOp55
 70
     0
102
RTVSPropertyOp56
 70
     0
102
RTVSPropertyOp57
 70
     0
102
RTVSPropertyOp58
 70
     0
102
RTVSPropertyOp59
 70
     0
102
RTVSPropertyOp60
 70
     0
102
RTVSPropertyOp61
 70
     0
102
RTVSPropertyOp62
 70
     0
  0
XRECORD
  5
D6
102
{ACAD_REACTORS
330
D5
102
}
330
D5
100
AcDbXrecord
280
     1
102
RTVSPost2010Prop28
280
     0
102
RTVSPost2010PropOp28
 70
     1
102
RTVSPost2010Prop29
280
     1
102
RTVSPost2010PropOp29
 70
     1
102
RTVSPost2010Prop30
280
     1
102
RTVSPost2010PropOp30
 70
     1
102
RTVSPost2010Prop31
280
     0
102
RTVSPost2010PropOp31
 70
     1
102
RTVSPost2010Prop32
280
     0
102
RTVSPost2010PropOp32
 70
     1
102
RTVSPost2010Prop33
280
     0
102
RTVSPost2010PropOp33
 70
     1
102
RTVSPost2010Prop34
280
     0
102
RTVSPost2010PropOp34
 70
     1
102
RTVSPost2010Prop35
280
     0
102
RTVSPost2010PropOp35
 70
     1
102
RTVSPost2010Prop36
280
     0
102
RTVSPost2010PropOp36
 70
     1
102
RTVSPost2010Prop37
 90
       50
102
RTVSPost2010PropOp37
 70
     1
102
RTVSPost2010Prop38
140
0.0
102
RTVSPost2010PropOp38
 70
     1
102
RTVSPost2010Prop39
140
1.0
102
RTVSPost2010PropOp39
 70
     1
102
RTVSPost2010Prop40
 90
        0
102
RTVSPost2010PropOp40
 70
     1
102
RTVSPost2010Prop41ColorIndex
 90
       18
102
RTVSPost2010Prop41ColorRGB
 90
        0
102
RTVSPost2010PropOp41
 70
     1
102
RTVSPost2010Prop42
 90
       50
102
RTVSPost2010PropOp42
 70
     1
102
RTVSPost2010Prop43
 90
        3
102
RTVSPost2010PropOp43
 70
     1
102
RTVSPost2010Prop44ColorIndex
 90
        5
102
RTVSPost2010Prop44ColorRGB
 90
      255
102
RTVSPost2010PropOp44
 70
     1
102
RTVSPost2010Prop45
280
     0
102
RTVSPost2010PropOp45
 70
     1
102
RTVSPost2010Prop46
 90
       50
102
RTVSPost2010PropOp46
 70
     1
102
RTVSPost2010Prop47
 90
       50
102
RTVSPost2010PropOp47
 70
     1
102
RTVSPost2010Prop48
 90
       50
102
RTVSPost2010PropOp48
 70
     1
102
RTVSPost2010Prop49
280
     0
102
RTVSPost2010PropOp49
 70
     1
102
RTVSPost2010Prop50
 90
       50
102
RTVSPost2010PropOp50
 70
     1
102
RTVSPost2010Prop51ColorIndex
 90
      256
102
RTVSPost2010Prop51ColorRGB
 90
-16777216
102
RTVSPost2010PropOp51
 70
     0
102
RTVSPost2010Prop52
140
1.0
102
RTVSPost2010PropOp52
 70
     0
102
RTVSPost2010Prop53
 90
        2
102
RTVSPost2010PropOp53
 70
     1
102
RTVSPost2010Prop54
  1
strokes_ogs.tif
102
RTVSPost2010PropOp54
 70
     1
102
RTVSPost2010Prop55
280
     0
102
RTVSPost2010PropOp55
 70
     1
102
RTVSPost2010Prop56
140
1.0
102
RTVSPost2010PropOp56
 70
     1
102
RTVSPost2010Prop57
140
1.0
102
RTVSPost2010PropOp57
 70
     1
102
RTVSPropertyOp0
 70
     1
102
RTVSPropertyOp1
 70
     1
102
RTVSPropertyOp2
 70
     1
102
RTVSPropertyOp3
 70
     1
102
RTVSPropertyOp4
 70
     1
102
RTVSPropertyOp5
 70
     1
102
RTVSPropertyOp6
 70
     1
102
RTVSPropertyOp7
 70
     1
102
RTVSPropertyOp8
 70
     1
102
RTVSPropertyOp9
 70
     1
102
RTVSPropertyOp10
 70
     1
102
RTVSPropertyOp11
 70
     1
102
RTVSPropertyOp12
 70
     1
102
RTVSPropertyOp13
 70
     1
102
RTVSPropertyOp14
 70
     1
102
RTVSPropertyOp15
 70
     1
102
RTVSPropertyOp16
 70
     1
102
RTVSPropertyOp17
 70
     1
102
RTVSPropertyOp18
 70
     1
102
RTVSPropertyOp19
 70
     1
102
RTVSPropertyOp20
 70
     1
102
RTVSPropertyOp21
 70
     1
102
RTVSPropertyOp22
 70
     1
102
RTVSPropertyOp23
 70
     1
102
RTVSPropertyOp24
 70
     1
102
RTVSPropertyOp25
 70
     1
102
RTVSPropertyOp26
 70
     1
102
RTVSPropertyOp27
 70
     1
102
RTVSPropertyOp28
 70
     1
102
RTVSPropertyOp29
 70
     1
102
RTVSPropertyOp30
 70
     1
102
RTVSPropertyOp31
 70
     1
102
RTVSPropertyOp32
 70
     1
102
RTVSPropertyOp33
 70
     1
102
RTVSPropertyOp34
 70
     1
102
RTVSPropertyOp35
 70
     1
102
RTVSPropertyOp36
 70
     1
102
RTVSPropertyOp37
 70
     1
102
RTVSPropertyOp38
 70
     1
102
RTVSPropertyOp39
 70
     1
102
RTVSPropertyOp40
 70
     1
102
RTVSPropertyOp41
 70
     1
102
RTVSPropertyOp42
 70
     1
102
RTVSPropertyOp43
 70
     1
102
RTVSPropertyOp44
 70
     1
102
RTVSPropertyOp45
 70
     1
102
RTVSPropertyOp46
 70
     1
102
RTVSPropertyOp47
 70
     1
102
RTVSPropertyOp48
 70
     1
102
RTVSPropertyOp49
 70
     1
102
RTVSPropertyOp50
 70
     1
102
RTVSPropertyOp51
 70
     0
102
RTVSPropertyOp52
 70
     0
102
RTVSPropertyOp53
 70
     1
102
RTVSPropertyOp54
 70
     1
102
RTVSPropertyOp55
 70
     1
102
RTVSPropertyOp56
 70
     1
102
RTVSPropertyOp57
 70
     1
102
RTVSPropertyOp58
 70
     1
102
RTVSPropertyOp59
 70
     1
102
RTVSPropertyOp60
 70
     1
102
RTVSPropertyOp61
 70
     1
102
RTVSPropertyOp62
 70
     1
  0
XRECORD
  5
BA
102
{ACAD_REACTORS
330
B9
102
}
330
B9
100
AcDbXrecord
280
     1
102
RTVSPost2010Prop28
280
     0
102
RTVSPost2010PropOp28
 70
     1
102
RTVSPost2010Prop29
280
     1
102
RTVSPost2010PropOp29
 70
     1
102
RTVSPost2010Prop30
280
     1
102
RTVSPost2010PropOp30
 70
     1
102
RTVSPost2010Prop31
280
     0
102
RTVSPost2010PropOp31
 70
     1
102
RTVSPost2010Prop32
280
     0
102
RTVSPost2010PropOp32
 70
     1
102
RTVSPost2010Prop33
280
     0
102
RTVSPost2010PropOp33
 70
     1
102
RTVSPost2010Prop34
280
     0
102
RTVSPost2010PropOp34
 70
     1
102
RTVSPost2010Prop35
280
     0
102
RTVSPost2010PropOp35
 70
     1
102
RTVSPost2010Prop36
280
     0
102
RTVSPost2010PropOp36
 70
     1
102
RTVSPost2010Prop37
 90
       50
102
RTVSPost2010PropOp37
 70
     1
102
RTVSPost2010Prop38
140
0.0
102
RTVSPost2010PropOp38
 70
     1
102
RTVSPost2010Prop39
140
1.0
102
RTVSPost2010PropOp39
 70
     1
102
RTVSPost2010Prop40
 90
        0
102
RTVSPost2010PropOp40
 70
     1
102
RTVSPost2010Prop41ColorIndex
 90
       18
102
RTVSPost2010Prop41ColorRGB
 90
        0
102
RTVSPost2010PropOp41
 70
     1
102
RTVSPost2010Prop42
 90
       50
102
RTVSPost2010PropOp42
 70
     1
102
RTVSPost2010Prop43
 90
        3
102
RTVSPost2010PropOp43
 70
     1
102
RTVSPost2010Prop44ColorIndex
 90
        5
102
RTVSPost2010Prop44ColorRGB
 90
      255
102
RTVSPost2010PropOp44
 70
     1
102
RTVSPost2010Prop45
280
     0
102
RTVSPost2010PropOp45
 70
     1
102
RTVSPost2010Prop46
 90
       50
102
RTVSPost2010PropOp46
 70
     1
102
RTVSPost2010Prop47
 90
       50
102
RTVSPost2010PropOp47
 70
     1
102
RTVSPost2010Prop48
 90
       50
102
RTVSPost2010PropOp48
 70
     1
102
RTVSPost2010Prop49
280
     0
102
RTVSPost2010PropOp49
 70
     1
102
RTVSPost2010Prop50
 90
       50
102
RTVSPost2010PropOp50
 70
     1
102
RTVSPost2010Prop51ColorIndex
 90
      256
102
RTVSPost2010Prop51ColorRGB
 90
-16777216
102
RTVSPost2010PropOp51
 70
     0
102
RTVSPost2010Prop52
140
1.0
102
RTVSPost2010PropOp52
 70
     0
102
RTVSPost2010Prop53
 90
        2
102
RTVSPost2010PropOp53
 70
     1
102
RTVSPost2010Prop54
  1
strokes_ogs.tif
102
RTVSPost2010PropOp54
 70
     1
102
RTVSPost2010Prop55
280
     0
102
RTVSPost2010PropOp55
 70
     1
102
RTVSPost2010Prop56
140
1.0
102
RTVSPost2010PropOp56
 70
     1
102
RTVSPost2010Prop57
140
1.0
102
RTVSPost2010PropOp57
 70
     1
102
RTVSPropertyOp0
 70
     1
102
RTVSPropertyOp1
 70
     1
102
RTVSPropertyOp2
 70
     1
102
RTVSPropertyOp3
 70
     1
102
RTVSPropertyOp4
 70
     1
102
RTVSPropertyOp5
 70
     1
102
RTVSPropertyOp6
 70
     1
102
RTVSPropertyOp7
 70
     1
102
RTVSPropertyOp8
 70
     1
102
RTVSPropertyOp9
 70
     1
102
RTVSPropertyOp10
 70
     1
102
RTVSPropertyOp11
 70
     1
102
RTVSPropertyOp12
 70
     1
102
RTVSPropertyOp13
 70
     1
102
RTVSPropertyOp14
 70
     1
102
RTVSPropertyOp15
 70
     1
102
RTVSPropertyOp16
 70
     1
102
RTVSPropertyOp17
 70
     1
102
RTVSPropertyOp18
 70
     1
102
RTVSPropertyOp19
 70
     1
102
RTVSPropertyOp20
 70
     1
102
RTVSPropertyOp21
 70
     1
102
RTVSPropertyOp22
 70
     1
102
RTVSPropertyOp23
 70
     1
102
RTVSPropertyOp24
 70
     1
102
RTVSPropertyOp25
 70
     1
102
RTVSPropertyOp26
 70
     1
102
RTVSPropertyOp27
 70
     1
102
RTVSPropertyOp28
 70
     1
102
RTVSPropertyOp29
 70
     1
102
RTVSPropertyOp30
 70
     1
102
RTVSPropertyOp31
 70
     1
102
RTVSPropertyOp32
 70
     1
102
RTVSPropertyOp33
 70
     1
102
RTVSPropertyOp34
 70
     1
102
RTVSPropertyOp35
 70
     1
102
RTVSPropertyOp36
 70
     1
102
RTVSPropertyOp37
 70
     1
102
RTVSPropertyOp38
 70
     1
102
RTVSPropertyOp39
 70
     1
102
RTVSPropertyOp40
 70
     1
102
RTVSPropertyOp41
 70
     1
102
RTVSPropertyOp42
 70
     1
102
RTVSPropertyOp43
 70
     1
102
RTVSPropertyOp44
 70
     1
102
RTVSPropertyOp45
 70
     1
102
RTVSPropertyOp46
 70
     1
102
RTVSPropertyOp47
 70
     1
102
RTVSPropertyOp48
 70
     1
102
RTVSPropertyOp49
 70
     1
102
RTVSPropertyOp50
 70
     1
102
RTVSPropertyOp51
 70
     0
102
RTVSPropertyOp52
 70
     0
102
RTVSPropertyOp53
 70
     1
102
RTVSPropertyOp54
 70
     1
102
RTVSPropertyOp55
 70
     1
102
RTVSPropertyOp56
 70
     1
102
RTVSPropertyOp57
 70
     1
102
RTVSPropertyOp58
 70
     1
102
RTVSPropertyOp59
 70
     1
102
RTVSPropertyOp60
 70
     1
102
RTVSPropertyOp61
 70
     1
102
RTVSPropertyOp62
 70
     1
  0
XRECORD
  5
BC
102
{ACAD_REACTORS
330
BB
102
}
330
BB
100
AcDbXrecord
280
     1
102
RTVSPost2010Prop28
280
     0
102
RTVSPost2010PropOp28
 70
     1
102
RTVSPost2010Prop29
280
     1
102
RTVSPost2010PropOp29
 70
     1
102
RTVSPost2010Prop30
280
     1
102
RTVSPost2010PropOp30
 70
     1
102
RTVSPost2010Prop31
280
     0
102
RTVSPost2010PropOp31
 70
     1
102
RTVSPost2010Prop32
280
     0
102
RTVSPost2010PropOp32
 70
     1
102
RTVSPost2010Prop33
280
     0
102
RTVSPost2010PropOp33
 70
     1
102
RTVSPost2010Prop34
280
     0
102
RTVSPost2010PropOp34
 70
     1
102
RTVSPost2010Prop35
280
     0
102
RTVSPost2010PropOp35
 70
     1
102
RTVSPost2010Prop36
280
     0
102
RTVSPost2010PropOp36
 70
     1
102
RTVSPost2010Prop37
 90
       50
102
RTVSPost2010PropOp37
 70
     1
102
RTVSPost2010Prop38
140
0.0
102
RTVSPost2010PropOp38
 70
     1
102
RTVSPost2010Prop39
140
1.0
102
RTVSPost2010PropOp39
 70
     1
102
RTVSPost2010Prop40
 90
        0
102
RTVSPost2010PropOp40
 70
     1
102
RTVSPost2010Prop41ColorIndex
 90
       18
102
RTVSPost2010Prop41ColorRGB
 90
        0
102
RTVSPost2010PropOp41
 70
     1
102
RTVSPost2010Prop42
 90
       50
102
RTVSPost2010PropOp42
 70
     1
102
RTVSPost2010Prop43
 90
        3
102
RTVSPost2010PropOp43
 70
     1
102
RTVSPost2010Prop44ColorIndex
 90
        5
102
RTVSPost2010Prop44ColorRGB
 90
      255
102
RTVSPost2010PropOp44
 70
     1
102
RTVSPost2010Prop45
280
     0
102
RTVSPost2010PropOp45
 70
     1
102
RTVSPost2010Prop46
 90
       50
102
RTVSPost2010PropOp46
 70
     1
102
RTVSPost2010Prop47
 90
       50
102
RTVSPost2010PropOp47
 70
     1
102
RTVSPost2010Prop48
 90
       50
102
RTVSPost2010PropOp48
 70
     1
102
RTVSPost2010Prop49
280
     0
102
RTVSPost2010PropOp49
 70
     1
102
RTVSPost2010Prop50
 90
       50
102
RTVSPost2010PropOp50
 70
     1
102
RTVSPost2010Prop51ColorIndex
 90
      256
102
RTVSPost2010Prop51ColorRGB
 90
-16777216
102
RTVSPost2010PropOp51
 70
     0
102
RTVSPost2010Prop52
140
1.0
102
RTVSPost2010PropOp52
 70
     0
102
RTVSPost2010Prop53
 90
        2
102
RTVSPost2010PropOp53
 70
     1
102
RTVSPost2010Prop54
  1
strokes_ogs.tif
102
RTVSPost2010PropOp54
 70
     1
102
RTVSPost2010Prop55
280
     0
102
RTVSPost2010PropOp55
 70
     1
102
RTVSPost2010Prop56
140
1.0
102
RTVSPost2010PropOp56
 70
     1
102
RTVSPost2010Prop57
140
1.0
102
RTVSPost2010PropOp57
 70
     1
102
RTVSPropertyOp0
 70
     1
102
RTVSPropertyOp1
 70
     1
102
RTVSPropertyOp2
 70
     1
102
RTVSPropertyOp3
 70
     1
102
RTVSPropertyOp4
 70
     1
102
RTVSPropertyOp5
 70
     1
102
RTVSPropertyOp6
 70
     1
102
RTVSPropertyOp7
 70
     1
102
RTVSPropertyOp8
 70
     1
102
RTVSPropertyOp9
 70
     1
102
RTVSPropertyOp10
 70
     1
102
RTVSPropertyOp11
 70
     1
102
RTVSPropertyOp12
 70
     1
102
RTVSPropertyOp13
 70
     1
102
RTVSPropertyOp14
 70
     1
102
RTVSPropertyOp15
 70
     1
102
RTVSPropertyOp16
 70
     1
102
RTVSPropertyOp17
 70
     1
102
RTVSPropertyOp18
 70
     1
102
RTVSPropertyOp19
 70
     1
102
RTVSPropertyOp20
 70
     1
102
RTVSPropertyOp21
 70
     1
102
RTVSPropertyOp22
 70
     1
102
RTVSPropertyOp23
 70
     1
102
RTVSPropertyOp24
 70
     1
102
RTVSPropertyOp25
 70
     1
102
RTVSPropertyOp26
 70
     1
102
RTVSPropertyOp27
 70
     1
102
RTVSPropertyOp28
 70
     1
102
RTVSPropertyOp29
 70
     1
102
RTVSPropertyOp30
 70
     1
102
RTVSPropertyOp31
 70
     1
102
RTVSPropertyOp32
 70
     1
102
RTVSPropertyOp33
 70
     1
102
RTVSPropertyOp34
 70
     1
102
RTVSPropertyOp35
 70
     1
102
RTVSPropertyOp36
 70
     1
102
RTVSPropertyOp37
 70
     1
102
RTVSPropertyOp38
 70
     1
102
RTVSPropertyOp39
 70
     1
102
RTVSPropertyOp40
 70
     1
102
RTVSPropertyOp41
 70
     1
102
RTVSPropertyOp42
 70
     1
102
RTVSPropertyOp43
 70
     1
102
RTVSPropertyOp44
 70
     1
102
RTVSPropertyOp45
 70
     1
102
RTVSPropertyOp46
 70
     1
102
RTVSPropertyOp47
 70
     1
102
RTVSPropertyOp48
 70
     1
102
RTVSPropertyOp49
 70
     1
102
RTVSPropertyOp50
 70
     1
102
RTVSPropertyOp51
 70
     0
102
RTVSPropertyOp52
 70
     0
102
RTVSPropertyOp53
 70
     1
102
RTVSPropertyOp54
 70
     1
102
RTVSPropertyOp55
 70
     1
102
RTVSPropertyOp56
 70
     1
102
RTVSPropertyOp57
 70
     1
102
RTVSPropertyOp58
 70
     1
102
RTVSPropertyOp59
 70
     1
102
RTVSPropertyOp60
 70
     1
102
RTVSPropertyOp61
 70
     1
102
RTVSPropertyOp62
 70
     1
  0
XRECORD
  5
BE
102
{ACAD_REACTORS
330
BD
102
}
330
BD
100
AcDbXrecord
280
     1
102
RTVSPost2010Prop28
280
     0
102
RTVSPost2010PropOp28
 70
     1
102
RTVSPost2010Prop29
280
     1
102
RTVSPost2010PropOp29
 70
     1
102
RTVSPost2010Prop30
280
     1
102
RTVSPost2010PropOp30
 70
     1
102
RTVSPost2010Prop31
280
     0
102
RTVSPost2010PropOp31
 70
     1
102
RTVSPost2010Prop32
280
     0
102
RTVSPost2010PropOp32
 70
     1
102
RTVSPost2010Prop33
280
     0
102
RTVSPost2010PropOp33
 70
     1
102
RTVSPost2010Prop34
280
     0
102
RTVSPost2010PropOp34
 70
     1
102
RTVSPost2010Prop35
280
     0
102
RTVSPost2010PropOp35
 70
     1
102
RTVSPost2010Prop36
280
     0
102
RTVSPost2010PropOp36
 70
     1
102
RTVSPost2010Prop37
 90
       50
102
RTVSPost2010PropOp37
 70
     1
102
RTVSPost2010Prop38
140
0.0
102
RTVSPost2010PropOp38
 70
     1
102
RTVSPost2010Prop39
140
1.0
102
RTVSPost2010PropOp39
 70
     1
102
RTVSPost2010Prop40
 90
        0
102
RTVSPost2010PropOp40
 70
     1
102
RTVSPost2010Prop41ColorIndex
 90
       18
102
RTVSPost2010Prop41ColorRGB
 90
        0
102
RTVSPost2010PropOp41
 70
     1
102
RTVSPost2010Prop42
 90
       50
102
RTVSPost2010PropOp42
 70
     1
102
RTVSPost2010Prop43
 90
        3
102
RTVSPost2010PropOp43
 70
     1
102
RTVSPost2010Prop44ColorIndex
 90
        5
102
RTVSPost2010Prop44ColorRGB
 90
      255
102
RTVSPost2010PropOp44
 70
     1
102
RTVSPost2010Prop45
280
     0
102
RTVSPost2010PropOp45
 70
     1
102
RTVSPost2010Prop46
 90
       50
102
RTVSPost2010PropOp46
 70
     1
102
RTVSPost2010Prop47
 90
       50
102
RTVSPost2010PropOp47
 70
     1
102
RTVSPost2010Prop48
 90
       50
102
RTVSPost2010PropOp48
 70
     1
102
RTVSPost2010Prop49
280
     0
102
RTVSPost2010PropOp49
 70
     1
102
RTVSPost2010Prop50
 90
       50
102
RTVSPost2010PropOp50
 70
     1
102
RTVSPost2010Prop51ColorIndex
 90
      256
102
RTVSPost2010Prop51ColorRGB
 90
-16777216
102
RTVSPost2010PropOp51
 70
     0
102
RTVSPost2010Prop52
140
1.0
102
RTVSPost2010PropOp52
 70
     0
102
RTVSPost2010Prop53
 90
        2
102
RTVSPost2010PropOp53
 70
     1
102
RTVSPost2010Prop54
  1
strokes_ogs.tif
102
RTVSPost2010PropOp54
 70
     1
102
RTVSPost2010Prop55
280
     0
102
RTVSPost2010PropOp55
 70
     1
102
RTVSPost2010Prop56
140
1.0
102
RTVSPost2010PropOp56
 70
     1
102
RTVSPost2010Prop57
140
1.0
102
RTVSPost2010PropOp57
 70
     1
102
RTVSPropertyOp0
 70
     1
102
RTVSPropertyOp1
 70
     1
102
RTVSPropertyOp2
 70
     1
102
RTVSPropertyOp3
 70
     1
102
RTVSPropertyOp4
 70
     1
102
RTVSPropertyOp5
 70
     1
102
RTVSPropertyOp6
 70
     1
102
RTVSPropertyOp7
 70
     1
102
RTVSPropertyOp8
 70
     1
102
RTVSPropertyOp9
 70
     1
102
RTVSPropertyOp10
 70
     1
102
RTVSPropertyOp11
 70
     1
102
RTVSPropertyOp12
 70
     1
102
RTVSPropertyOp13
 70
     1
102
RTVSPropertyOp14
 70
     1
102
RTVSPropertyOp15
 70
     1
102
RTVSPropertyOp16
 70
     1
102
RTVSPropertyOp17
 70
     1
102
RTVSPropertyOp18
 70
     1
102
RTVSPropertyOp19
 70
     1
102
RTVSPropertyOp20
 70
     1
102
RTVSPropertyOp21
 70
     1
102
RTVSPropertyOp22
 70
     1
102
RTVSPropertyOp23
 70
     1
102
RTVSPropertyOp24
 70
     1
102
RTVSPropertyOp25
 70
     1
102
RTVSPropertyOp26
 70
     1
102
RTVSPropertyOp27
 70
     1
102
RTVSPropertyOp28
 70
     1
102
RTVSPropertyOp29
 70
     1
102
RTVSPropertyOp30
 70
     1
102
RTVSPropertyOp31
 70
     1
102
RTVSPropertyOp32
 70
     1
102
RTVSPropertyOp33
 70
     1
102
RTVSPropertyOp34
 70
     1
102
RTVSPropertyOp35
 70
     1
102
RTVSPropertyOp36
 70
     1
102
RTVSPropertyOp37
 70
     1
102
RTVSPropertyOp38
 70
     1
102
RTVSPropertyOp39
 70
     1
102
RTVSPropertyOp40
 70
     1
102
RTVSPropertyOp41
 70
     1
102
RTVSPropertyOp42
 70
     1
102
RTVSPropertyOp43
 70
     1
102
RTVSPropertyOp44
 70
     1
102
RTVSPropertyOp45
 70
     1
102
RTVSPropertyOp46
 70
     1
102
RTVSPropertyOp47
 70
     1
102
RTVSPropertyOp48
 70
     1
102
RTVSPropertyOp49
 70
     1
102
RTVSPropertyOp50
 70
     1
102
RTVSPropertyOp51
 70
     0
102
RTVSPropertyOp52
 70
     0
102
RTVSPropertyOp53
 70
     1
102
RTVSPropertyOp54
 70
     1
102
RTVSPropertyOp55
 70
     1
102
RTVSPropertyOp56
 70
     1
102
RTVSPropertyOp57
 70
     1
102
RTVSPropertyOp58
 70
     1
102
RTVSPropertyOp59
 70
     1
102
RTVSPropertyOp60
 70
     1
102
RTVSPropertyOp61
 70
     1
102
RTVSPropertyOp62
 70
     1
  0
XRECORD
  5
C0
102
{ACAD_REACTORS
330
BF
102
}
330
BF
100
AcDbXrecord
280
     1
102
RTVSPost2010Prop28
280
     0
102
RTVSPost2010PropOp28
 70
     1
102
RTVSPost2010Prop29
280
     1
102
RTVSPost2010PropOp29
 70
     1
102
RTVSPost2010Prop30
280
     1
102
RTVSPost2010PropOp30
 70
     1
102
RTVSPost2010Prop31
280
     0
102
RTVSPost2010PropOp31
 70
     1
102
RTVSPost2010Prop32
280
     0
102
RTVSPost2010PropOp32
 70
     1
102
RTVSPost2010Prop33
280
     0
102
RTVSPost2010PropOp33
 70
     1
102
RTVSPost2010Prop34
280
     0
102
RTVSPost2010PropOp34
 70
     1
102
RTVSPost2010Prop35
280
     0
102
RTVSPost2010PropOp35
 70
     1
102
RTVSPost2010Prop36
280
     0
102
RTVSPost2010PropOp36
 70
     1
102
RTVSPost2010Prop37
 90
       50
102
RTVSPost2010PropOp37
 70
     1
102
RTVSPost2010Prop38
140
0.0
102
RTVSPost2010PropOp38
 70
     1
102
RTVSPost2010Prop39
140
1.0
102
RTVSPost2010PropOp39
 70
     1
102
RTVSPost2010Prop40
 90
        0
102
RTVSPost2010PropOp40
 70
     1
102
RTVSPost2010Prop41ColorIndex
 90
       18
102
RTVSPost2010Prop41ColorRGB
 90
        0
102
RTVSPost2010PropOp41
 70
     1
102
RTVSPost2010Prop42
 90
       50
102
RTVSPost2010PropOp42
 70
     1
102
RTVSPost2010Prop43
 90
        3
102
RTVSPost2010PropOp43
 70
     1
102
RTVSPost2010Prop44ColorIndex
 90
        5
102
RTVSPost2010Prop44ColorRGB
 90
      255
102
RTVSPost2010PropOp44
 70
     1
102
RTVSPost2010Prop45
280
     0
102
RTVSPost2010PropOp45
 70
     1
102
RTVSPost2010Prop46
 90
       50
102
RTVSPost2010PropOp46
 70
     1
102
RTVSPost2010Prop47
 90
       50
102
RTVSPost2010PropOp47
 70
     1
102
RTVSPost2010Prop48
 90
       50
102
RTVSPost2010PropOp48
 70
     1
102
RTVSPost2010Prop49
280
     0
102
RTVSPost2010PropOp49
 70
     1
102
RTVSPost2010Prop50
 90
       50
102
RTVSPost2010PropOp50
 70
     1
102
RTVSPost2010Prop51ColorIndex
 90
      256
102
RTVSPost2010Prop51ColorRGB
 90
-16777216
102
RTVSPost2010PropOp51
 70
     0
102
RTVSPost2010Prop52
140
1.0
102
RTVSPost2010PropOp52
 70
     0
102
RTVSPost2010Prop53
 90
        2
102
RTVSPost2010PropOp53
 70
     1
102
RTVSPost2010Prop54
  1
strokes_ogs.tif
102
RTVSPost2010PropOp54
 70
     1
102
RTVSPost2010Prop55
280
     0
102
RTVSPost2010PropOp55
 70
     1
102
RTVSPost2010Prop56
140
1.0
102
RTVSPost2010PropOp56
 70
     1
102
RTVSPost2010Prop57
140
1.0
102
RTVSPost2010PropOp57
 70
     1
102
RTVSPropertyOp0
 70
     1
102
RTVSPropertyOp1
 70
     1
102
RTVSPropertyOp2
 70
     1
102
RTVSPropertyOp3
 70
     1
102
RTVSPropertyOp4
 70
     1
102
RTVSPropertyOp5
 70
     1
102
RTVSPropertyOp6
 70
     1
102
RTVSPropertyOp7
 70
     1
102
RTVSPropertyOp8
 70
     1
102
RTVSPropertyOp9
 70
     1
102
RTVSPropertyOp10
 70
     1
102
RTVSPropertyOp11
 70
     1
102
RTVSPropertyOp12
 70
     1
102
RTVSPropertyOp13
 70
     1
102
RTVSPropertyOp14
 70
     1
102
RTVSPropertyOp15
 70
     1
102
RTVSPropertyOp16
 70
     1
102
RTVSPropertyOp17
 70
     1
102
RTVSPropertyOp18
 70
     1
102
RTVSPropertyOp19
 70
     1
102
RTVSPropertyOp20
 70
     1
102
RTVSPropertyOp21
 70
     1
102
RTVSPropertyOp22
 70
     1
102
RTVSPropertyOp23
 70
     1
102
RTVSPropertyOp24
 70
     1
102
RTVSPropertyOp25
 70
     1
102
RTVSPropertyOp26
 70
     1
102
RTVSPropertyOp27
 70
     1
102
RTVSPropertyOp28
 70
     1
102
RTVSPropertyOp29
 70
     1
102
RTVSPropertyOp30
 70
     1
102
RTVSPropertyOp31
 70
     1
102
RTVSPropertyOp32
 70
     1
102
RTVSPropertyOp33
 70
     1
102
RTVSPropertyOp34
 70
     1
102
RTVSPropertyOp35
 70
     1
102
RTVSPropertyOp36
 70
     1
102
RTVSPropertyOp37
 70
     1
102
RTVSPropertyOp38
 70
     1
102
RTVSPropertyOp39
 70
     1
102
RTVSPropertyOp40
 70
     1
102
RTVSPropertyOp41
 70
     1
102
RTVSPropertyOp42
 70
     1
102
RTVSPropertyOp43
 70
     1
102
RTVSPropertyOp44
 70
     1
102
RTVSPropertyOp45
 70
     1
102
RTVSPropertyOp46
 70
     1
102
RTVSPropertyOp47
 70
     1
102
RTVSPropertyOp48
 70
     1
102
RTVSPropertyOp49
 70
     1
102
RTVSPropertyOp50
 70
     1
102
RTVSPropertyOp51
 70
     0
102
RTVSPropertyOp52
 70
     0
102
RTVSPropertyOp53
 70
     1
102
RTVSPropertyOp54
 70
     1
102
RTVSPropertyOp55
 70
     1
102
RTVSPropertyOp56
 70
     1
102
RTVSPropertyOp57
 70
     1
102
RTVSPropertyOp58
 70
     1
102
RTVSPropertyOp59
 70
     1
102
RTVSPropertyOp60
 70
     1
102
RTVSPropertyOp61
 70
     1
102
RTVSPropertyOp62
 70
     1
  0
XRECORD
  5
C8
102
{ACAD_REACTORS
330
C7
102
}
330
C7
100
AcDbXrecord
280
     1
102
RTVSPost2010Prop28
280
     0
102
RTVSPost2010PropOp28
 70
     1
102
RTVSPost2010Prop29
280
     1
102
RTVSPost2010PropOp29
 70
     1
102
RTVSPost2010Prop30
280
     1
102
RTVSPost2010PropOp30
 70
     1
102
RTVSPost2010Prop31
280
     0
102
RTVSPost2010PropOp31
 70
     1
102
RTVSPost2010Prop32
280
     0
102
RTVSPost2010PropOp32
 70
     1
102
RTVSPost2010Prop33
280
     0
102
RTVSPost2010PropOp33
 70
     1
102
RTVSPost2010Prop34
280
     0
102
RTVSPost2010PropOp34
 70
     1
102
RTVSPost2010Prop35
280
     0
102
RTVSPost2010PropOp35
 70
     1
102
RTVSPost2010Prop36
280
     0
102
RTVSPost2010PropOp36
 70
     1
102
RTVSPost2010Prop37
 90
       50
102
RTVSPost2010PropOp37
 70
     1
102
RTVSPost2010Prop38
140
0.0
102
RTVSPost2010PropOp38
 70
     1
102
RTVSPost2010Prop39
140
1.0
102
RTVSPost2010PropOp39
 70
     1
102
RTVSPost2010Prop40
 90
        0
102
RTVSPost2010PropOp40
 70
     1
102
RTVSPost2010Prop41ColorIndex
 90
       18
102
RTVSPost2010Prop41ColorRGB
 90
        0
102
RTVSPost2010PropOp41
 70
     1
102
RTVSPost2010Prop42
 90
       50
102
RTVSPost2010PropOp42
 70
     1
102
RTVSPost2010Prop43
 90
        3
102
RTVSPost2010PropOp43
 70
     1
102
RTVSPost2010Prop44ColorIndex
 90
        5
102
RTVSPost2010Prop44ColorRGB
 90
      255
102
RTVSPost2010PropOp44
 70
     1
102
RTVSPost2010Prop45
280
     0
102
RTVSPost2010PropOp45
 70
     1
102
RTVSPost2010Prop46
 90
       50
102
RTVSPost2010PropOp46
 70
     1
102
RTVSPost2010Prop47
 90
       50
102
RTVSPost2010PropOp47
 70
     1
102
RTVSPost2010Prop48
 90
       50
102
RTVSPost2010PropOp48
 70
     1
102
RTVSPost2010Prop49
280
     0
102
RTVSPost2010PropOp49
 70
     1
102
RTVSPost2010Prop50
 90
       50
102
RTVSPost2010PropOp50
 70
     1
102
RTVSPost2010Prop51ColorIndex
 90
      256
102
RTVSPost2010Prop51ColorRGB
 90
-16777216
102
RTVSPost2010PropOp51
 70
     0
102
RTVSPost2010Prop52
140
1.0
102
RTVSPost2010PropOp52
 70
     0
102
RTVSPost2010Prop53
 90
        2
102
RTVSPost2010PropOp53
 70
     1
102
RTVSPost2010Prop54
  1
strokes_ogs.tif
102
RTVSPost2010PropOp54
 70
     1
102
RTVSPost2010Prop55
280
     0
102
RTVSPost2010PropOp55
 70
     1
102
RTVSPost2010Prop56
140
1.0
102
RTVSPost2010PropOp56
 70
     1
102
RTVSPost2010Prop57
140
1.0
102
RTVSPost2010PropOp57
 70
     1
102
RTVSPropertyOp0
 70
     1
102
RTVSPropertyOp1
 70
     1
102
RTVSPropertyOp2
 70
     1
102
RTVSPropertyOp3
 70
     1
102
RTVSPropertyOp4
 70
     1
102
RTVSPropertyOp5
 70
     1
102
RTVSPropertyOp6
 70
     1
102
RTVSPropertyOp7
 70
     1
102
RTVSPropertyOp8
 70
     1
102
RTVSPropertyOp9
 70
     1
102
RTVSPropertyOp10
 70
     1
102
RTVSPropertyOp11
 70
     1
102
RTVSPropertyOp12
 70
     1
102
RTVSPropertyOp13
 70
     1
102
RTVSPropertyOp14
 70
     1
102
RTVSPropertyOp15
 70
     1
102
RTVSPropertyOp16
 70
     1
102
RTVSPropertyOp17
 70
     1
102
RTVSPropertyOp18
 70
     1
102
RTVSPropertyOp19
 70
     1
102
RTVSPropertyOp20
 70
     1
102
RTVSPropertyOp21
 70
     1
102
RTVSPropertyOp22
 70
     1
102
RTVSPropertyOp23
 70
     1
102
RTVSPropertyOp24
 70
     1
102
RTVSPropertyOp25
 70
     1
102
RTVSPropertyOp26
 70
     1
102
RTVSPropertyOp27
 70
     1
102
RTVSPropertyOp28
 70
     1
102
RTVSPropertyOp29
 70
     1
102
RTVSPropertyOp30
 70
     1
102
RTVSPropertyOp31
 70
     1
102
RTVSPropertyOp32
 70
     1
102
RTVSPropertyOp33
 70
     1
102
RTVSPropertyOp34
 70
     1
102
RTVSPropertyOp35
 70
     1
102
RTVSPropertyOp36
 70
     1
102
RTVSPropertyOp37
 70
     1
102
RTVSPropertyOp38
 70
     1
102
RTVSPropertyOp39
 70
     1
102
RTVSPropertyOp40
 70
     1
102
RTVSPropertyOp41
 70
     1
102
RTVSPropertyOp42
 70
     1
102
RTVSPropertyOp43
 70
     1
102
RTVSPropertyOp44
 70
     1
102
RTVSPropertyOp45
 70
     1
102
RTVSPropertyOp46
 70
     1
102
RTVSPropertyOp47
 70
     1
102
RTVSPropertyOp48
 70
     1
102
RTVSPropertyOp49
 70
     1
102
RTVSPropertyOp50
 70
     1
102
RTVSPropertyOp51
 70
     0
102
RTVSPropertyOp52
 70
     0
102
RTVSPropertyOp53
 70
     1
102
RTVSPropertyOp54
 70
     1
102
RTVSPropertyOp55
 70
     1
102
RTVSPropertyOp56
 70
     1
102
RTVSPropertyOp57
 70
     1
102
RTVSPropertyOp58
 70
     1
102
RTVSPropertyOp59
 70
     1
102
RTVSPropertyOp60
 70
     1
102
RTVSPropertyOp61
 70
     1
102
RTVSPropertyOp62
 70
     1
  0
XRECORD
  5
E4
102
{ACAD_REACTORS
330
E3
102
}
330
E3
100
AcDbXrecord
280
     1
102
RTVSPost2010Prop28
280
     0
102
RTVSPost2010PropOp28
 70
     0
102
RTVSPost2010Prop29
280
     1
102
RTVSPost2010PropOp29
 70
     0
102
RTVSPost2010Prop30
280
     1
102
RTVSPost2010PropOp30
 70
     0
102
RTVSPost2010Prop31
280
     0
102
RTVSPost2010PropOp31
 70
     0
102
RTVSPost2010Prop32
280
     0
102
RTVSPost2010PropOp32
 70
     0
102
RTVSPost2010Prop33
280
     0
102
RTVSPost2010PropOp33
 70
     0
102
RTVSPost2010Prop34
280
     0
102
RTVSPost2010PropOp34
 70
     0
102
RTVSPost2010Prop35
280
     0
102
RTVSPost2010PropOp35
 70
     0
102
RTVSPost2010Prop36
280
     0
102
RTVSPost2010PropOp36
 70
     0
102
RTVSPost2010Prop37
 90
       50
102
RTVSPost2010PropOp37
 70
     0
102
RTVSPost2010Prop38
140
0.0
102
RTVSPost2010PropOp38
 70
     0
102
RTVSPost2010Prop39
140
1.0
102
RTVSPost2010PropOp39
 70
     0
102
RTVSPost2010Prop40
 90
        0
102
RTVSPost2010PropOp40
 70
     0
102
RTVSPost2010Prop41ColorIndex
 90
       18
102
RTVSPost2010Prop41ColorRGB
 90
        0
102
RTVSPost2010PropOp41
 70
     0
102
RTVSPost2010Prop42
 90
       50
102
RTVSPost2010PropOp42
 70
     0
102
RTVSPost2010Prop43
 90
        3
102
RTVSPost2010PropOp43
 70
     0
102
RTVSPost2010Prop44ColorIndex
 90
        5
102
RTVSPost2010Prop44ColorRGB
 90
      255
102
RTVSPost2010PropOp44
 70
     0
102
RTVSPost2010Prop45
280
     0
102
RTVSPost2010PropOp45
 70
     0
102
RTVSPost2010Prop46
 90
       50
102
RTVSPost2010PropOp46
 70
     0
102
RTVSPost2010Prop47
 90
       50
102
RTVSPost2010PropOp47
 70
     0
102
RTVSPost2010Prop48
 90
       50
102
RTVSPost2010PropOp48
 70
     0
102
RTVSPost2010Prop49
280
     0
102
RTVSPost2010PropOp49
 70
     0
102
RTVSPost2010Prop50
 90
       50
102
RTVSPost2010PropOp50
 70
     0
102
RTVSPost2010Prop51ColorIndex
 90
      256
102
RTVSPost2010Prop51ColorRGB
 90
-16777216
102
RTVSPost2010PropOp51
 70
     0
102
RTVSPost2010Prop52
140
1.0
102
RTVSPost2010PropOp52
 70
     0
102
RTVSPost2010Prop53
 90
        2
102
RTVSPost2010PropOp53
 70
     0
102
RTVSPost2010Prop54
  1
strokes_ogs.tif
102
RTVSPost2010PropOp54
 70
     0
102
RTVSPost2010Prop55
280
     0
102
RTVSPost2010PropOp55
 70
     0
102
RTVSPost2010Prop56
140
1.0
102
RTVSPost2010PropOp56
 70
     0
102
RTVSPost2010Prop57
140
1.0
102
RTVSPost2010PropOp57
 70
     0
102
RTVSPropertyOp0
 70
     0
102
RTVSPropertyOp1
 70
     0
102
RTVSPropertyOp2
 70
     0
102
RTVSPropertyOp3
 70
     0
102
RTVSPropertyOp4
 70
     0
102
RTVSPropertyOp5
 70
     0
102
RTVSPropertyOp6
 70
     0
102
RTVSPropertyOp7
 70
     0
102
RTVSPropertyOp8
 70
     0
102
RTVSPropertyOp9
 70
     0
102
RTVSPropertyOp10
 70
     0
102
RTVSPropertyOp11
 70
     0
102
RTVSPropertyOp12
 70
     0
102
RTVSPropertyOp13
 70
     0
102
RTVSPropertyOp14
 70
     2
102
RTVSPropertyOp15
 70
     0
102
RTVSPropertyOp16
 70
     0
102
RTVSPropertyOp17
 70
     0
102
RTVSPropertyOp18
 70
     0
102
RTVSPropertyOp19
 70
     0
102
RTVSPropertyOp20
 70
     0
102
RTVSPropertyOp21
 70
     0
102
RTVSPropertyOp22
 70
     0
102
RTVSPropertyOp23
 70
     0
102
RTVSPropertyOp24
 70
     0
102
RTVSPropertyOp25
 70
     0
102
RTVSPropertyOp26
 70
     0
102
RTVSPropertyOp27
 70
     0
102
RTVSPropertyOp28
 70
     0
102
RTVSPropertyOp29
 70
     0
102
RTVSPropertyOp30
 70
     0
102
RTVSPropertyOp31
 70
     0
102
RTVSPropertyOp32
 70
     0
102
RTVSPropertyOp33
 70
     0
102
RTVSPropertyOp34
 70
     0
102
RTVSPropertyOp35
 70
     0
102
RTVSPropertyOp36
 70
     0
102
RTVSPropertyOp37
 70
     0
102
RTVSPropertyOp38
 70
     0
102
RTVSPropertyOp39
 70
     0
102
RTVSPropertyOp40
 70
     0
102
RTVSPropertyOp41
 70
     0
102
RTVSPropertyOp42
 70
     0
102
RTVSPropertyOp43
 70
     0
102
RTVSPropertyOp44
 70
     0
102
RTVSPropertyOp45
 70
     0
102
RTVSPropertyOp46
 70
     0
102
RTVSPropertyOp47
 70
     0
102
RTVSPropertyOp48
 70
     0
102
RTVSPropertyOp49
 70
     0
102
RTVSPropertyOp50
 70
     0
102
RTVSPropertyOp51
 70
     0
102
RTVSPropertyOp52
 70
     0
102
RTVSPropertyOp53
 70
     0
102
RTVSPropertyOp54
 70
     0
102
RTVSPropertyOp55
 70
     0
102
RTVSPropertyOp56
 70
     0
102
RTVSPropertyOp57
 70
     0
102
RTVSPropertyOp58
 70
     0
102
RTVSPropertyOp59
 70
     0
102
RTVSPropertyOp60
 70
     0
102
RTVSPropertyOp61
 70
     0
102
RTVSPropertyOp62
 70
     0
  0
XRECORD
  5
D4
102
{ACAD_REACTORS
330
D3
102
}
330
D3
100
AcDbXrecord
280
     1
102
RTVSPost2010Prop28
280
     0
102
RTVSPost2010PropOp28
 70
     1
102
RTVSPost2010Prop29
280
     1
102
RTVSPost2010PropOp29
 70
     1
102
RTVSPost2010Prop30
280
     1
102
RTVSPost2010PropOp30
 70
     1
102
RTVSPost2010Prop31
280
     0
102
RTVSPost2010PropOp31
 70
     1
102
RTVSPost2010Prop32
280
     0
102
RTVSPost2010PropOp32
 70
     1
102
RTVSPost2010Prop33
280
     0
102
RTVSPost2010PropOp33
 70
     1
102
RTVSPost2010Prop34
280
     0
102
RTVSPost2010PropOp34
 70
     1
102
RTVSPost2010Prop35
280
     0
102
RTVSPost2010PropOp35
 70
     1
102
RTVSPost2010Prop36
280
     0
102
RTVSPost2010PropOp36
 70
     1
102
RTVSPost2010Prop37
 90
       50
102
RTVSPost2010PropOp37
 70
     1
102
RTVSPost2010Prop38
140
0.0
102
RTVSPost2010PropOp38
 70
     1
102
RTVSPost2010Prop39
140
1.0
102
RTVSPost2010PropOp39
 70
     1
102
RTVSPost2010Prop40
 90
        0
102
RTVSPost2010PropOp40
 70
     1
102
RTVSPost2010Prop41ColorIndex
 90
       18
102
RTVSPost2010Prop41ColorRGB
 90
        0
102
RTVSPost2010PropOp41
 70
     1
102
RTVSPost2010Prop42
 90
       50
102
RTVSPost2010PropOp42
 70
     1
102
RTVSPost2010Prop43
 90
        3
102
RTVSPost2010PropOp43
 70
     1
102
RTVSPost2010Prop44ColorIndex
 90
        5
102
RTVSPost2010Prop44ColorRGB
 90
      255
102
RTVSPost2010PropOp44
 70
     1
102
RTVSPost2010Prop45
280
     0
102
RTVSPost2010PropOp45
 70
     1
102
RTVSPost2010Prop46
 90
       50
102
RTVSPost2010PropOp46
 70
     1
102
RTVSPost2010Prop47
 90
       50
102
RTVSPost2010PropOp47
 70
     1
102
RTVSPost2010Prop48
 90
       50
102
RTVSPost2010PropOp48
 70
     1
102
RTVSPost2010Prop49
280
     0
102
RTVSPost2010PropOp49
 70
     1
102
RTVSPost2010Prop50
 90
       50
102
RTVSPost2010PropOp50
 70
     1
102
RTVSPost2010Prop51ColorIndex
 90
      256
102
RTVSPost2010Prop51ColorRGB
 90
-16777216
102
RTVSPost2010PropOp51
 70
     0
102
RTVSPost2010Prop52
140
1.0
102
RTVSPost2010PropOp52
 70
     0
102
RTVSPost2010Prop53
 90
        2
102
RTVSPost2010PropOp53
 70
     1
102
RTVSPost2010Prop54
  1
strokes_ogs.tif
102
RTVSPost2010PropOp54
 70
     1
102
RTVSPost2010Prop55
280
     0
102
RTVSPost2010PropOp55
 70
     1
102
RTVSPost2010Prop56
140
1.0
102
RTVSPost2010PropOp56
 70
     1
102
RTVSPost2010Prop57
140
1.0
102
RTVSPost2010PropOp57
 70
     1
102
RTVSPropertyOp0
 70
     1
102
RTVSPropertyOp1
 70
     1
102
RTVSPropertyOp2
 70
     1
102
RTVSPropertyOp3
 70
     1
102
RTVSPropertyOp4
 70
     1
102
RTVSPropertyOp5
 70
     1
102
RTVSPropertyOp6
 70
     1
102
RTVSPropertyOp7
 70
     1
102
RTVSPropertyOp8
 70
     1
102
RTVSPropertyOp9
 70
     1
102
RTVSPropertyOp10
 70
     1
102
RTVSPropertyOp11
 70
     1
102
RTVSPropertyOp12
 70
     1
102
RTVSPropertyOp13
 70
     1
102
RTVSPropertyOp14
 70
     1
102
RTVSPropertyOp15
 70
     1
102
RTVSPropertyOp16
 70
     1
102
RTVSPropertyOp17
 70
     1
102
RTVSPropertyOp18
 70
     1
102
RTVSPropertyOp19
 70
     1
102
RTVSPropertyOp20
 70
     1
102
RTVSPropertyOp21
 70
     1
102
RTVSPropertyOp22
 70
     1
102
RTVSPropertyOp23
 70
     1
102
RTVSPropertyOp24
 70
     1
102
RTVSPropertyOp25
 70
     1
102
RTVSPropertyOp26
 70
     1
102
RTVSPropertyOp27
 70
     1
102
RTVSPropertyOp28
 70
     1
102
RTVSPropertyOp29
 70
     1
102
RTVSPropertyOp30
 70
     1
102
RTVSPropertyOp31
 70
     1
102
RTVSPropertyOp32
 70
     1
102
RTVSPropertyOp33
 70
     1
102
RTVSPropertyOp34
 70
     1
102
RTVSPropertyOp35
 70
     1
102
RTVSPropertyOp36
 70
     1
102
RTVSPropertyOp37
 70
     1
102
RTVSPropertyOp38
 70
     1
102
RTVSPropertyOp39
 70
     1
102
RTVSPropertyOp40
 70
     1
102
RTVSPropertyOp41
 70
     1
102
RTVSPropertyOp42
 70
     1
102
RTVSPropertyOp43
 70
     1
102
RTVSPropertyOp44
 70
     1
102
RTVSPropertyOp45
 70
     1
102
RTVSPropertyOp46
 70
     1
102
RTVSPropertyOp47
 70
     1
102
RTVSPropertyOp48
 70
     1
102
RTVSPropertyOp49
 70
     1
102
RTVSPropertyOp50
 70
     1
102
RTVSPropertyOp51
 70
     0
102
RTVSPropertyOp52
 70
     0
102
RTVSPropertyOp53
 70
     1
102
RTVSPropertyOp54
 70
     1
102
RTVSPropertyOp55
 70
     1
102
RTVSPropertyOp56
 70
     1
102
RTVSPropertyOp57
 70
     1
102
RTVSPropertyOp58
 70
     1
102
RTVSPropertyOp59
 70
     1
102
RTVSPropertyOp60
 70
     1
102
RTVSPropertyOp61
 70
     1
102
RTVSPropertyOp62
 70
     1
  0
XRECORD
  5
E6
102
{ACAD_REACTORS
330
E5
102
}
330
E5
100
AcDbXrecord
280
     1
102
RTVSPost2010Prop28
280
     0
102
RTVSPost2010PropOp28
 70
     0
102
RTVSPost2010Prop29
280
     1
102
RTVSPost2010PropOp29
 70
     0
102
RTVSPost2010Prop30
280
     1
102
RTVSPost2010PropOp30
 70
     0
102
RTVSPost2010Prop31
280
     0
102
RTVSPost2010PropOp31
 70
     0
102
RTVSPost2010Prop32
280
     0
102
RTVSPost2010PropOp32
 70
     0
102
RTVSPost2010Prop33
280
     0
102
RTVSPost2010PropOp33
 70
     0
102
RTVSPost2010Prop34
280
     0
102
RTVSPost2010PropOp34
 70
     0
102
RTVSPost2010Prop35
280
     0
102
RTVSPost2010PropOp35
 70
     0
102
RTVSPost2010Prop36
280
     0
102
RTVSPost2010PropOp36
 70
     0
102
RTVSPost2010Prop37
 90
       50
102
RTVSPost2010PropOp37
 70
     0
102
RTVSPost2010Prop38
140
0.0
102
RTVSPost2010PropOp38
 70
     0
102
RTVSPost2010Prop39
140
1.0
102
RTVSPost2010PropOp39
 70
     0
102
RTVSPost2010Prop40
 90
        0
102
RTVSPost2010PropOp40
 70
     0
102
RTVSPost2010Prop41ColorIndex
 90
       18
102
RTVSPost2010Prop41ColorRGB
 90
        0
102
RTVSPost2010PropOp41
 70
     0
102
RTVSPost2010Prop42
 90
       50
102
RTVSPost2010PropOp42
 70
     0
102
RTVSPost2010Prop43
 90
        3
102
RTVSPost2010PropOp43
 70
     0
102
RTVSPost2010Prop44ColorIndex
 90
        5
102
RTVSPost2010Prop44ColorRGB
 90
      255
102
RTVSPost2010PropOp44
 70
     0
102
RTVSPost2010Prop45
280
     0
102
RTVSPost2010PropOp45
 70
     0
102
RTVSPost2010Prop46
 90
       50
102
RTVSPost2010PropOp46
 70
     0
102
RTVSPost2010Prop47
 90
       50
102
RTVSPost2010PropOp47
 70
     0
102
RTVSPost2010Prop48
 90
       50
102
RTVSPost2010PropOp48
 70
     0
102
RTVSPost2010Prop49
280
     0
102
RTVSPost2010PropOp49
 70
     0
102
RTVSPost2010Prop50
 90
       50
102
RTVSPost2010PropOp50
 70
     0
102
RTVSPost2010Prop51ColorIndex
 90
      256
102
RTVSPost2010Prop51ColorRGB
 90
-16777216
102
RTVSPost2010PropOp51
 70
     0
102
RTVSPost2010Prop52
140
1.0
102
RTVSPost2010PropOp52
 70
     0
102
RTVSPost2010Prop53
 90
        2
102
RTVSPost2010PropOp53
 70
     0
102
RTVSPost2010Prop54
  1
strokes_ogs.tif
102
RTVSPost2010PropOp54
 70
     0
102
RTVSPost2010Prop55
280
     0
102
RTVSPost2010PropOp55
 70
     0
102
RTVSPost2010Prop56
140
1.0
102
RTVSPost2010PropOp56
 70
     0
102
RTVSPost2010Prop57
140
1.0
102
RTVSPost2010PropOp57
 70
     0
102
RTVSPropertyOp0
 70
     0
102
RTVSPropertyOp1
 70
     0
102
RTVSPropertyOp2
 70
     0
102
RTVSPropertyOp3
 70
     0
102
RTVSPropertyOp4
 70
     0
102
RTVSPropertyOp5
 70
     0
102
RTVSPropertyOp6
 70
     0
102
RTVSPropertyOp7
 70
     0
102
RTVSPropertyOp8
 70
     0
102
RTVSPropertyOp9
 70
     0
102
RTVSPropertyOp10
 70
     0
102
RTVSPropertyOp11
 70
     0
102
RTVSPropertyOp12
 70
     0
102
RTVSPropertyOp13
 70
     0
102
RTVSPropertyOp14
 70
     2
102
RTVSPropertyOp15
 70
     0
102
RTVSPropertyOp16
 70
     0
102
RTVSPropertyOp17
 70
     0
102
RTVSPropertyOp18
 70
     0
102
RTVSPropertyOp19
 70
     0
102
RTVSPropertyOp20
 70
     0
102
RTVSPropertyOp21
 70
     0
102
RTVSPropertyOp22
 70
     0
102
RTVSPropertyOp23
 70
     0
102
RTVSPropertyOp24
 70
     0
102
RTVSPropertyOp25
 70
     0
102
RTVSPropertyOp26
 70
     0
102
RTVSPropertyOp27
 70
     0
102
RTVSPropertyOp28
 70
     0
102
RTVSPropertyOp29
 70
     0
102
RTVSPropertyOp30
 70
     0
102
RTVSPropertyOp31
 70
     0
102
RTVSPropertyOp32
 70
     0
102
RTVSPropertyOp33
 70
     0
102
RTVSPropertyOp34
 70
     0
102
RTVSPropertyOp35
 70
     0
102
RTVSPropertyOp36
 70
     0
102
RTVSPropertyOp37
 70
     0
102
RTVSPropertyOp38
 70
     0
102
RTVSPropertyOp39
 70
     0
102
RTVSPropertyOp40
 70
     0
102
RTVSPropertyOp41
 70
     0
102
RTVSPropertyOp42
 70
     0
102
RTVSPropertyOp43
 70
     0
102
RTVSPropertyOp44
 70
     0
102
RTVSPropertyOp45
 70
     0
102
RTVSPropertyOp46
 70
     0
102
RTVSPropertyOp47
 70
     0
102
RTVSPropertyOp48
 70
     0
102
RTVSPropertyOp49
 70
     0
102
RTVSPropertyOp50
 70
     0
102
RTVSPropertyOp51
 70
     0
102
RTVSPropertyOp52
 70
     0
102
RTVSPropertyOp53
 70
     0
102
RTVSPropertyOp54
 70
     0
102
RTVSPropertyOp55
 70
     0
102
RTVSPropertyOp56
 70
     0
102
RTVSPropertyOp57
 70
     0
102
RTVSPropertyOp58
 70
     0
102
RTVSPropertyOp59
 70
     0
102
RTVSPropertyOp60
 70
     0
102
RTVSPropertyOp61
 70
     0
102
RTVSPropertyOp62
 70
     0
  0
XRECORD
  5
CC
102
{ACAD_REACTORS
330
CB
102
}
330
CB
100
AcDbXrecord
280
     1
102
RTVSPost2010Prop28
280
     0
102
RTVSPost2010PropOp28
 70
     1
102
RTVSPost2010Prop29
280
     1
102
RTVSPost2010PropOp29
 70
     1
102
RTVSPost2010Prop30
280
     1
102
RTVSPost2010PropOp30
 70
     1
102
RTVSPost2010Prop31
280
     0
102
RTVSPost2010PropOp31
 70
     1
102
RTVSPost2010Prop32
280
     0
102
RTVSPost2010PropOp32
 70
     1
102
RTVSPost2010Prop33
280
     0
102
RTVSPost2010PropOp33
 70
     1
102
RTVSPost2010Prop34
280
     0
102
RTVSPost2010PropOp34
 70
     1
102
RTVSPost2010Prop35
280
     0
102
RTVSPost2010PropOp35
 70
     1
102
RTVSPost2010Prop36
280
     0
102
RTVSPost2010PropOp36
 70
     1
102
RTVSPost2010Prop37
 90
       50
102
RTVSPost2010PropOp37
 70
     1
102
RTVSPost2010Prop38
140
0.0
102
RTVSPost2010PropOp38
 70
     1
102
RTVSPost2010Prop39
140
1.0
102
RTVSPost2010PropOp39
 70
     1
102
RTVSPost2010Prop40
 90
        0
102
RTVSPost2010PropOp40
 70
     1
102
RTVSPost2010Prop41ColorIndex
 90
       18
102
RTVSPost2010Prop41ColorRGB
 90
        0
102
RTVSPost2010PropOp41
 70
     1
102
RTVSPost2010Prop42
 90
       50
102
RTVSPost2010PropOp42
 70
     1
102
RTVSPost2010Prop43
 90
        3
102
RTVSPost2010PropOp43
 70
     1
102
RTVSPost2010Prop44ColorIndex
 90
        5
102
RTVSPost2010Prop44ColorRGB
 90
      255
102
RTVSPost2010PropOp44
 70
     1
102
RTVSPost2010Prop45
280
     0
102
RTVSPost2010PropOp45
 70
     1
102
RTVSPost2010Prop46
 90
       50
102
RTVSPost2010PropOp46
 70
     1
102
RTVSPost2010Prop47
 90
       50
102
RTVSPost2010PropOp47
 70
     1
102
RTVSPost2010Prop48
 90
       50
102
RTVSPost2010PropOp48
 70
     1
102
RTVSPost2010Prop49
280
     0
102
RTVSPost2010PropOp49
 70
     1
102
RTVSPost2010Prop50
 90
       50
102
RTVSPost2010PropOp50
 70
     1
102
RTVSPost2010Prop51ColorIndex
 90
      256
102
RTVSPost2010Prop51ColorRGB
 90
-16777216
102
RTVSPost2010PropOp51
 70
     0
102
RTVSPost2010Prop52
140
1.0
102
RTVSPost2010PropOp52
 70
     0
102
RTVSPost2010Prop53
 90
        2
102
RTVSPost2010PropOp53
 70
     1
102
RTVSPost2010Prop54
  1
strokes_ogs.tif
102
RTVSPost2010PropOp54
 70
     1
102
RTVSPost2010Prop55
280
     0
102
RTVSPost2010PropOp55
 70
     1
102
RTVSPost2010Prop56
140
1.0
102
RTVSPost2010PropOp56
 70
     1
102
RTVSPost2010Prop57
140
1.0
102
RTVSPost2010PropOp57
 70
     1
102
RTVSPropertyOp0
 70
     1
102
RTVSPropertyOp1
 70
     1
102
RTVSPropertyOp2
 70
     1
102
RTVSPropertyOp3
 70
     1
102
RTVSPropertyOp4
 70
     1
102
RTVSPropertyOp5
 70
     1
102
RTVSPropertyOp6
 70
     1
102
RTVSPropertyOp7
 70
     1
102
RTVSPropertyOp8
 70
     1
102
RTVSPropertyOp9
 70
     1
102
RTVSPropertyOp10
 70
     1
102
RTVSPropertyOp11
 70
     1
102
RTVSPropertyOp12
 70
     1
102
RTVSPropertyOp13
 70
     1
102
RTVSPropertyOp14
 70
     1
102
RTVSPropertyOp15
 70
     1
102
RTVSPropertyOp16
 70
     1
102
RTVSPropertyOp17
 70
     1
102
RTVSPropertyOp18
 70
     1
102
RTVSPropertyOp19
 70
     1
102
RTVSPropertyOp20
 70
     1
102
RTVSPropertyOp21
 70
     1
102
RTVSPropertyOp22
 70
     1
102
RTVSPropertyOp23
 70
     1
102
RTVSPropertyOp24
 70
     1
102
RTVSPropertyOp25
 70
     1
102
RTVSPropertyOp26
 70
     1
102
RTVSPropertyOp27
 70
     1
102
RTVSPropertyOp28
 70
     1
102
RTVSPropertyOp29
 70
     1
102
RTVSPropertyOp30
 70
     1
102
RTVSPropertyOp31
 70
     1
102
RTVSPropertyOp32
 70
     1
102
RTVSPropertyOp33
 70
     1
102
RTVSPropertyOp34
 70
     1
102
RTVSPropertyOp35
 70
     1
102
RTVSPropertyOp36
 70
     1
102
RTVSPropertyOp37
 70
     1
102
RTVSPropertyOp38
 70
     1
102
RTVSPropertyOp39
 70
     1
102
RTVSPropertyOp40
 70
     1
102
RTVSPropertyOp41
 70
     1
102
RTVSPropertyOp42
 70
     1
102
RTVSPropertyOp43
 70
     1
102
RTVSPropertyOp44
 70
     1
102
RTVSPropertyOp45
 70
     1
102
RTVSPropertyOp46
 70
     1
102
RTVSPropertyOp47
 70
     1
102
RTVSPropertyOp48
 70
     1
102
RTVSPropertyOp49
 70
     1
102
RTVSPropertyOp50
 70
     1
102
RTVSPropertyOp51
 70
     0
102
RTVSPropertyOp52
 70
     0
102
RTVSPropertyOp53
 70
     1
102
RTVSPropertyOp54
 70
     1
102
RTVSPropertyOp55
 70
     1
102
RTVSPropertyOp56
 70
     1
102
RTVSPropertyOp57
 70
     1
102
RTVSPropertyOp58
 70
     1
102
RTVSPropertyOp59
 70
     1
102
RTVSPropertyOp60
 70
     1
102
RTVSPropertyOp61
 70
     1
102
RTVSPropertyOp62
 70
     1
  0
XRECORD
  5
E2
102
{ACAD_REACTORS
330
E1
102
}
330
E1
100
AcDbXrecord
280
     1
102
RTVSPost2010Prop28
280
     0
102
RTVSPost2010PropOp28
 70
     1
102
RTVSPost2010Prop29
280
     1
102
RTVSPost2010PropOp29
 70
     1
102
RTVSPost2010Prop30
280
     1
102
RTVSPost2010PropOp30
 70
     1
102
RTVSPost2010Prop31
280
     0
102
RTVSPost2010PropOp31
 70
     1
102
RTVSPost2010Prop32
280
     0
102
RTVSPost2010PropOp32
 70
     1
102
RTVSPost2010Prop33
280
     0
102
RTVSPost2010PropOp33
 70
     1
102
RTVSPost2010Prop34
280
     0
102
RTVSPost2010PropOp34
 70
     1
102
RTVSPost2010Prop35
280
     0
102
RTVSPost2010PropOp35
 70
     1
102
RTVSPost2010Prop36
280
     0
102
RTVSPost2010PropOp36
 70
     1
102
RTVSPost2010Prop37
 90
       50
102
RTVSPost2010PropOp37
 70
     1
102
RTVSPost2010Prop38
140
0.0
102
RTVSPost2010PropOp38
 70
     1
102
RTVSPost2010Prop39
140
1.0
102
RTVSPost2010PropOp39
 70
     1
102
RTVSPost2010Prop40
 90
        0
102
RTVSPost2010PropOp40
 70
     1
102
RTVSPost2010Prop41ColorIndex
 90
       18
102
RTVSPost2010Prop41ColorRGB
 90
        0
102
RTVSPost2010PropOp41
 70
     1
102
RTVSPost2010Prop42
 90
       50
102
RTVSPost2010PropOp42
 70
     1
102
RTVSPost2010Prop43
 90
        3
102
RTVSPost2010PropOp43
 70
     1
102
RTVSPost2010Prop44ColorIndex
 90
        5
102
RTVSPost2010Prop44ColorRGB
 90
      255
102
RTVSPost2010PropOp44
 70
     1
102
RTVSPost2010Prop45
280
     0
102
RTVSPost2010PropOp45
 70
     1
102
RTVSPost2010Prop46
 90
       50
102
RTVSPost2010PropOp46
 70
     1
102
RTVSPost2010Prop47
 90
       50
102
RTVSPost2010PropOp47
 70
     1
102
RTVSPost2010Prop48
 90
       50
102
RTVSPost2010PropOp48
 70
     1
102
RTVSPost2010Prop49
280
     0
102
RTVSPost2010PropOp49
 70
     1
102
RTVSPost2010Prop50
 90
       50
102
RTVSPost2010PropOp50
 70
     1
102
RTVSPost2010Prop51ColorIndex
 90
      256
102
RTVSPost2010Prop51ColorRGB
 90
-16777216
102
RTVSPost2010PropOp51
 70
     0
102
RTVSPost2010Prop52
140
1.0
102
RTVSPost2010PropOp52
 70
     0
102
RTVSPost2010Prop53
 90
        2
102
RTVSPost2010PropOp53
 70
     1
102
RTVSPost2010Prop54
  1
strokes_ogs.tif
102
RTVSPost2010PropOp54
 70
     1
102
RTVSPost2010Prop55
280
     0
102
RTVSPost2010PropOp55
 70
     1
102
RTVSPost2010Prop56
140
1.0
102
RTVSPost2010PropOp56
 70
     1
102
RTVSPost2010Prop57
140
1.0
102
RTVSPost2010PropOp57
 70
     1
102
RTVSPropertyOp0
 70
     1
102
RTVSPropertyOp1
 70
     1
102
RTVSPropertyOp2
 70
     1
102
RTVSPropertyOp3
 70
     1
102
RTVSPropertyOp4
 70
     1
102
RTVSPropertyOp5
 70
     1
102
RTVSPropertyOp6
 70
     1
102
RTVSPropertyOp7
 70
     1
102
RTVSPropertyOp8
 70
     1
102
RTVSPropertyOp9
 70
     1
102
RTVSPropertyOp10
 70
     1
102
RTVSPropertyOp11
 70
     1
102
RTVSPropertyOp12
 70
     1
102
RTVSPropertyOp13
 70
     1
102
RTVSPropertyOp14
 70
     1
102
RTVSPropertyOp15
 70
     1
102
RTVSPropertyOp16
 70
     1
102
RTVSPropertyOp17
 70
     1
102
RTVSPropertyOp18
 70
     1
102
RTVSPropertyOp19
 70
     1
102
RTVSPropertyOp20
 70
     1
102
RTVSPropertyOp21
 70
     1
102
RTVSPropertyOp22
 70
     1
102
RTVSPropertyOp23
 70
     1
102
RTVSPropertyOp24
 70
     1
102
RTVSPropertyOp25
 70
     1
102
RTVSPropertyOp26
 70
     1
102
RTVSPropertyOp27
 70
     1
102
RTVSPropertyOp28
 70
     1
102
RTVSPropertyOp29
 70
     1
102
RTVSPropertyOp30
 70
     1
102
RTVSPropertyOp31
 70
     1
102
RTVSPropertyOp32
 70
     1
102
RTVSPropertyOp33
 70
     1
102
RTVSPropertyOp34
 70
     1
102
RTVSPropertyOp35
 70
     1
102
RTVSPropertyOp36
 70
     1
102
RTVSPropertyOp37
 70
     1
102
RTVSPropertyOp38
 70
     1
102
RTVSPropertyOp39
 70
     1
102
RTVSPropertyOp40
 70
     1
102
RTVSPropertyOp41
 70
     1
102
RTVSPropertyOp42
 70
     1
102
RTVSPropertyOp43
 70
     1
102
RTVSPropertyOp44
 70
     1
102
RTVSPropertyOp45
 70
     1
102
RTVSPropertyOp46
 70
     1
102
RTVSPropertyOp47
 70
     1
102
RTVSPropertyOp48
 70
     1
102
RTVSPropertyOp49
 70
     1
102
RTVSPropertyOp50
 70
     1
102
RTVSPropertyOp51
 70
     0
102
RTVSPropertyOp52
 70
     0
102
RTVSPropertyOp53
 70
     1
102
RTVSPropertyOp54
 70
     1
102
RTVSPropertyOp55
 70
     1
102
RTVSPropertyOp56
 70
     1
102
RTVSPropertyOp57
 70
     1
102
RTVSPropertyOp58
 70
     1
102
RTVSPropertyOp59
 70
     1
102
RTVSPropertyOp60
 70
     1
102
RTVSPropertyOp61
 70
     1
102
RTVSPropertyOp62
 70
     1
  0
XRECORD
  5
E0
102
{ACAD_REACTORS
330
DF
102
}
330
DF
100
AcDbXrecord
280
     1
102
RTVSPost2010Prop28
280
     0
102
RTVSPost2010PropOp28
 70
     1
102
RTVSPost2010Prop29
280
     1
102
RTVSPost2010PropOp29
 70
     1
102
RTVSPost2010Prop30
280
     1
102
RTVSPost2010PropOp30
 70
     1
102
RTVSPost2010Prop31
280
     0
102
RTVSPost2010PropOp31
 70
     1
102
RTVSPost2010Prop32
280
     0
102
RTVSPost2010PropOp32
 70
     1
102
RTVSPost2010Prop33
280
     0
102
RTVSPost2010PropOp33
 70
     1
102
RTVSPost2010Prop34
280
     0
102
RTVSPost2010PropOp34
 70
     1
102
RTVSPost2010Prop35
280
     0
102
RTVSPost2010PropOp35
 70
     1
102
RTVSPost2010Prop36
280
     0
102
RTVSPost2010PropOp36
 70
     1
102
RTVSPost2010Prop37
 90
       50
102
RTVSPost2010PropOp37
 70
     1
102
RTVSPost2010Prop38
140
0.0
102
RTVSPost2010PropOp38
 70
     1
102
RTVSPost2010Prop39
140
1.0
102
RTVSPost2010PropOp39
 70
     1
102
RTVSPost2010Prop40
 90
        0
102
RTVSPost2010PropOp40
 70
     1
102
RTVSPost2010Prop41ColorIndex
 90
       18
102
RTVSPost2010Prop41ColorRGB
 90
        0
102
RTVSPost2010PropOp41
 70
     1
102
RTVSPost2010Prop42
 90
       50
102
RTVSPost2010PropOp42
 70
     1
102
RTVSPost2010Prop43
 90
        3
102
RTVSPost2010PropOp43
 70
     1
102
RTVSPost2010Prop44ColorIndex
 90
        5
102
RTVSPost2010Prop44ColorRGB
 90
      255
102
RTVSPost2010PropOp44
 70
     1
102
RTVSPost2010Prop45
280
     0
102
RTVSPost2010PropOp45
 70
     1
102
RTVSPost2010Prop46
 90
       50
102
RTVSPost2010PropOp46
 70
     1
102
RTVSPost2010Prop47
 90
       50
102
RTVSPost2010PropOp47
 70
     1
102
RTVSPost2010Prop48
 90
       50
102
RTVSPost2010PropOp48
 70
     1
102
RTVSPost2010Prop49
280
     0
102
RTVSPost2010PropOp49
 70
     1
102
RTVSPost2010Prop50
 90
       50
102
RTVSPost2010PropOp50
 70
     1
102
RTVSPost2010Prop51ColorIndex
 90
      256
102
RTVSPost2010Prop51ColorRGB
 90
-16777216
102
RTVSPost2010PropOp51
 70
     0
102
RTVSPost2010Prop52
140
1.0
102
RTVSPost2010PropOp52
 70
     0
102
RTVSPost2010Prop53
 90
        2
102
RTVSPost2010PropOp53
 70
     1
102
RTVSPost2010Prop54
  1
strokes_ogs.tif
102
RTVSPost2010PropOp54
 70
     1
102
RTVSPost2010Prop55
280
     0
102
RTVSPost2010PropOp55
 70
     1
102
RTVSPost2010Prop56
140
1.0
102
RTVSPost2010PropOp56
 70
     1
102
RTVSPost2010Prop57
140
1.0
102
RTVSPost2010PropOp57
 70
     1
102
RTVSPropertyOp0
 70
     1
102
RTVSPropertyOp1
 70
     1
102
RTVSPropertyOp2
 70
     1
102
RTVSPropertyOp3
 70
     1
102
RTVSPropertyOp4
 70
     1
102
RTVSPropertyOp5
 70
     1
102
RTVSPropertyOp6
 70
     1
102
RTVSPropertyOp7
 70
     1
102
RTVSPropertyOp8
 70
     1
102
RTVSPropertyOp9
 70
     1
102
RTVSPropertyOp10
 70
     1
102
RTVSPropertyOp11
 70
     1
102
RTVSPropertyOp12
 70
     1
102
RTVSPropertyOp13
 70
     1
102
RTVSPropertyOp14
 70
     1
102
RTVSPropertyOp15
 70
     1
102
RTVSPropertyOp16
 70
     1
102
RTVSPropertyOp17
 70
     1
102
RTVSPropertyOp18
 70
     1
102
RTVSPropertyOp19
 70
     1
102
RTVSPropertyOp20
 70
     1
102
RTVSPropertyOp21
 70
     1
102
RTVSPropertyOp22
 70
     1
102
RTVSPropertyOp23
 70
     1
102
RTVSPropertyOp24
 70
     1
102
RTVSPropertyOp25
 70
     1
102
RTVSPropertyOp26
 70
     1
102
RTVSPropertyOp27
 70
     1
102
RTVSPropertyOp28
 70
     1
102
RTVSPropertyOp29
 70
     1
102
RTVSPropertyOp30
 70
     1
102
RTVSPropertyOp31
 70
     1
102
RTVSPropertyOp32
 70
     1
102
RTVSPropertyOp33
 70
     1
102
RTVSPropertyOp34
 70
     1
102
RTVSPropertyOp35
 70
     1
102
RTVSPropertyOp36
 70
     1
102
RTVSPropertyOp37
 70
     1
102
RTVSPropertyOp38
 70
     1
102
RTVSPropertyOp39
 70
     1
102
RTVSPropertyOp40
 70
     1
102
RTVSPropertyOp41
 70
     1
102
RTVSPropertyOp42
 70
     1
102
RTVSPropertyOp43
 70
     1
102
RTVSPropertyOp44
 70
     1
102
RTVSPropertyOp45
 70
     1
102
RTVSPropertyOp46
 70
     1
102
RTVSPropertyOp47
 70
     1
102
RTVSPropertyOp48
 70
     1
102
RTVSPropertyOp49
 70
     1
102
RTVSPropertyOp50
 70
     1
102
RTVSPropertyOp51
 70
     0
102
RTVSPropertyOp52
 70
     0
102
RTVSPropertyOp53
 70
     1
102
RTVSPropertyOp54
 70
     1
102
RTVSPropertyOp55
 70
     1
102
RTVSPropertyOp56
 70
     1
102
RTVSPropertyOp57
 70
     1
102
RTVSPropertyOp58
 70
     1
102
RTVSPropertyOp59
 70
     1
102
RTVSPropertyOp60
 70
     1
102
RTVSPropertyOp61
 70
     1
102
RTVSPropertyOp62
 70
     1
  0
XRECORD
  5
DA
102
{ACAD_REACTORS
330
D9
102
}
330
D9
100
AcDbXrecord
280
     1
102
RTVSPost2010Prop28
280
     0
102
RTVSPost2010PropOp28
 70
     1
102
RTVSPost2010Prop29
280
     1
102
RTVSPost2010PropOp29
 70
     1
102
RTVSPost2010Prop30
280
     1
102
RTVSPost2010PropOp30
 70
     1
102
RTVSPost2010Prop31
280
     0
102
RTVSPost2010PropOp31
 70
     1
102
RTVSPost2010Prop32
280
     0
102
RTVSPost2010PropOp32
 70
     1
102
RTVSPost2010Prop33
280
     0
102
RTVSPost2010PropOp33
 70
     1
102
RTVSPost2010Prop34
280
     0
102
RTVSPost2010PropOp34
 70
     1
102
RTVSPost2010Prop35
280
     0
102
RTVSPost2010PropOp35
 70
     1
102
RTVSPost2010Prop36
280
     0
102
RTVSPost2010PropOp36
 70
     1
102
RTVSPost2010Prop37
 90
       50
102
RTVSPost2010PropOp37
 70
     1
102
RTVSPost2010Prop38
140
0.0
102
RTVSPost2010PropOp38
 70
     1
102
RTVSPost2010Prop39
140
1.0
102
RTVSPost2010PropOp39
 70
     1
102
RTVSPost2010Prop40
 90
        0
102
RTVSPost2010PropOp40
 70
     1
102
RTVSPost2010Prop41ColorIndex
 90
       18
102
RTVSPost2010Prop41ColorRGB
 90
        0
102
RTVSPost2010PropOp41
 70
     1
102
RTVSPost2010Prop42
 90
       50
102
RTVSPost2010PropOp42
 70
     1
102
RTVSPost2010Prop43
 90
        3
102
RTVSPost2010PropOp43
 70
     1
102
RTVSPost2010Prop44ColorIndex
 90
        5
102
RTVSPost2010Prop44ColorRGB
 90
      255
102
RTVSPost2010PropOp44
 70
     1
102
RTVSPost2010Prop45
280
     0
102
RTVSPost2010PropOp45
 70
     1
102
RTVSPost2010Prop46
 90
       50
102
RTVSPost2010PropOp46
 70
     1
102
RTVSPost2010Prop47
 90
       50
102
RTVSPost2010PropOp47
 70
     1
102
RTVSPost2010Prop48
 90
       50
102
RTVSPost2010PropOp48
 70
     1
102
RTVSPost2010Prop49
280
     0
102
RTVSPost2010PropOp49
 70
     1
102
RTVSPost2010Prop50
 90
       50
102
RTVSPost2010PropOp50
 70
     1
102
RTVSPost2010Prop51ColorIndex
 90
      256
102
RTVSPost2010Prop51ColorRGB
 90
-16777216
102
RTVSPost2010PropOp51
 70
     0
102
RTVSPost2010Prop52
140
1.0
102
RTVSPost2010PropOp52
 70
     0
102
RTVSPost2010Prop53
 90
        2
102
RTVSPost2010PropOp53
 70
     1
102
RTVSPost2010Prop54
  1
strokes_ogs.tif
102
RTVSPost2010PropOp54
 70
     1
102
RTVSPost2010Prop55
280
     0
102
RTVSPost2010PropOp55
 70
     1
102
RTVSPost2010Prop56
140
1.0
102
RTVSPost2010PropOp56
 70
     1
102
RTVSPost2010Prop57
140
1.0
102
RTVSPost2010PropOp57
 70
     1
102
RTVSPropertyOp0
 70
     1
102
RTVSPropertyOp1
 70
     1
102
RTVSPropertyOp2
 70
     1
102
RTVSPropertyOp3
 70
     1
102
RTVSPropertyOp4
 70
     1
102
RTVSPropertyOp5
 70
     1
102
RTVSPropertyOp6
 70
     1
102
RTVSPropertyOp7
 70
     1
102
RTVSPropertyOp8
 70
     1
102
RTVSPropertyOp9
 70
     1
102
RTVSPropertyOp10
 70
     1
102
RTVSPropertyOp11
 70
     1
102
RTVSPropertyOp12
 70
     1
102
RTVSPropertyOp13
 70
     1
102
RTVSPropertyOp14
 70
     1
102
RTVSPropertyOp15
 70
     1
102
RTVSPropertyOp16
 70
     1
102
RTVSPropertyOp17
 70
     1
102
RTVSPropertyOp18
 70
     1
102
RTVSPropertyOp19
 70
     1
102
RTVSPropertyOp20
 70
     1
102
RTVSPropertyOp21
 70
     1
102
RTVSPropertyOp22
 70
     1
102
RTVSPropertyOp23
 70
     1
102
RTVSPropertyOp24
 70
     1
102
RTVSPropertyOp25
 70
     1
102
RTVSPropertyOp26
 70
     1
102
RTVSPropertyOp27
 70
     1
102
RTVSPropertyOp28
 70
     1
102
RTVSPropertyOp29
 70
     1
102
RTVSPropertyOp30
 70
     1
102
RTVSPropertyOp31
 70
     1
102
RTVSPropertyOp32
 70
     1
102
RTVSPropertyOp33
 70
     1
102
RTVSPropertyOp34
 70
     1
102
RTVSPropertyOp35
 70
     1
102
RTVSPropertyOp36
 70
     1
102
RTVSPropertyOp37
 70
     1
102
RTVSPropertyOp38
 70
     1
102
RTVSPropertyOp39
 70
     1
102
RTVSPropertyOp40
 70
     1
102
RTVSPropertyOp41
 70
     1
102
RTVSPropertyOp42
 70
     1
102
RTVSPropertyOp43
 70
     1
102
RTVSPropertyOp44
 70
     1
102
RTVSPropertyOp45
 70
     1
102
RTVSPropertyOp46
 70
     1
102
RTVSPropertyOp47
 70
     1
102
RTVSPropertyOp48
 70
     1
102
RTVSPropertyOp49
 70
     1
102
RTVSPropertyOp50
 70
     1
102
RTVSPropertyOp51
 70
     0
102
RTVSPropertyOp52
 70
     0
102
RTVSPropertyOp53
 70
     1
102
RTVSPropertyOp54
 70
     1
102
RTVSPropertyOp55
 70
     1
102
RTVSPropertyOp56
 70
     1
102
RTVSPropertyOp57
 70
     1
102
RTVSPropertyOp58
 70
     1
102
RTVSPropertyOp59
 70
     1
102
RTVSPropertyOp60
 70
     1
102
RTVSPropertyOp61
 70
     1
102
RTVSPropertyOp62
 70
     1
  0
XRECORD
  5
DC
102
{ACAD_REACTORS
330
DB
102
}
330
DB
100
AcDbXrecord
280
     1
102
RTVSPost2010Prop28
280
     0
102
RTVSPost2010PropOp28
 70
     1
102
RTVSPost2010Prop29
280
     1
102
RTVSPost2010PropOp29
 70
     1
102
RTVSPost2010Prop30
280
     1
102
RTVSPost2010PropOp30
 70
     1
102
RTVSPost2010Prop31
280
     0
102
RTVSPost2010PropOp31
 70
     1
102
RTVSPost2010Prop32
280
     0
102
RTVSPost2010PropOp32
 70
     1
102
RTVSPost2010Prop33
280
     0
102
RTVSPost2010PropOp33
 70
     1
102
RTVSPost2010Prop34
280
     0
102
RTVSPost2010PropOp34
 70
     1
102
RTVSPost2010Prop35
280
     0
102
RTVSPost2010PropOp35
 70
     1
102
RTVSPost2010Prop36
280
     0
102
RTVSPost2010PropOp36
 70
     1
102
RTVSPost2010Prop37
 90
       50
102
RTVSPost2010PropOp37
 70
     1
102
RTVSPost2010Prop38
140
0.0
102
RTVSPost2010PropOp38
 70
     1
102
RTVSPost2010Prop39
140
1.0
102
RTVSPost2010PropOp39
 70
     1
102
RTVSPost2010Prop40
 90
        0
102
RTVSPost2010PropOp40
 70
     1
102
RTVSPost2010Prop41ColorIndex
 90
       18
102
RTVSPost2010Prop41ColorRGB
 90
        0
102
RTVSPost2010PropOp41
 70
     1
102
RTVSPost2010Prop42
 90
       50
102
RTVSPost2010PropOp42
 70
     1
102
RTVSPost2010Prop43
 90
        3
102
RTVSPost2010PropOp43
 70
     1
102
RTVSPost2010Prop44ColorIndex
 90
        5
102
RTVSPost2010Prop44ColorRGB
 90
      255
102
RTVSPost2010PropOp44
 70
     1
102
RTVSPost2010Prop45
280
     0
102
RTVSPost2010PropOp45
 70
     1
102
RTVSPost2010Prop46
 90
       50
102
RTVSPost2010PropOp46
 70
     1
102
RTVSPost2010Prop47
 90
       50
102
RTVSPost2010PropOp47
 70
     1
102
RTVSPost2010Prop48
 90
       50
102
RTVSPost2010PropOp48
 70
     1
102
RTVSPost2010Prop49
280
     0
102
RTVSPost2010PropOp49
 70
     1
102
RTVSPost2010Prop50
 90
       50
102
RTVSPost2010PropOp50
 70
     1
102
RTVSPost2010Prop51ColorIndex
 90
      256
102
RTVSPost2010Prop51ColorRGB
 90
-16777216
102
RTVSPost2010PropOp51
 70
     0
102
RTVSPost2010Prop52
140
1.0
102
RTVSPost2010PropOp52
 70
     0
102
RTVSPost2010Prop53
 90
        2
102
RTVSPost2010PropOp53
 70
     1
102
RTVSPost2010Prop54
  1
strokes_ogs.tif
102
RTVSPost2010PropOp54
 70
     1
102
RTVSPost2010Prop55
280
     0
102
RTVSPost2010PropOp55
 70
     1
102
RTVSPost2010Prop56
140
1.0
102
RTVSPost2010PropOp56
 70
     1
102
RTVSPost2010Prop57
140
1.0
102
RTVSPost2010PropOp57
 70
     1
102
RTVSPropertyOp0
 70
     1
102
RTVSPropertyOp1
 70
     1
102
RTVSPropertyOp2
 70
     1
102
RTVSPropertyOp3
 70
     1
102
RTVSPropertyOp4
 70
     1
102
RTVSPropertyOp5
 70
     1
102
RTVSPropertyOp6
 70
     1
102
RTVSPropertyOp7
 70
     1
102
RTVSPropertyOp8
 70
     1
102
RTVSPropertyOp9
 70
     1
102
RTVSPropertyOp10
 70
     1
102
RTVSPropertyOp11
 70
     1
102
RTVSPropertyOp12
 70
     1
102
RTVSPropertyOp13
 70
     1
102
RTVSPropertyOp14
 70
     1
102
RTVSPropertyOp15
 70
     1
102
RTVSPropertyOp16
 70
     1
102
RTVSPropertyOp17
 70
     1
102
RTVSPropertyOp18
 70
     1
102
RTVSPropertyOp19
 70
     1
102
RTVSPropertyOp20
 70
     1
102
RTVSPropertyOp21
 70
     1
102
RTVSPropertyOp22
 70
     1
102
RTVSPropertyOp23
 70
     1
102
RTVSPropertyOp24
 70
     1
102
RTVSPropertyOp25
 70
     1
102
RTVSPropertyOp26
 70
     1
102
RTVSPropertyOp27
 70
     1
102
RTVSPropertyOp28
 70
     1
102
RTVSPropertyOp29
 70
     1
102
RTVSPropertyOp30
 70
     1
102
RTVSPropertyOp31
 70
     1
102
RTVSPropertyOp32
 70
     1
102
RTVSPropertyOp33
 70
     1
102
RTVSPropertyOp34
 70
     1
102
RTVSPropertyOp35
 70
     1
102
RTVSPropertyOp36
 70
     1
102
RTVSPropertyOp37
 70
     1
102
RTVSPropertyOp38
 70
     1
102
RTVSPropertyOp39
 70
     1
102
RTVSPropertyOp40
 70
     1
102
RTVSPropertyOp41
 70
     1
102
RTVSPropertyOp42
 70
     1
102
RTVSPropertyOp43
 70
     1
102
RTVSPropertyOp44
 70
     1
102
RTVSPropertyOp45
 70
     1
102
RTVSPropertyOp46
 70
     1
102
RTVSPropertyOp47
 70
     1
102
RTVSPropertyOp48
 70
     1
102
RTVSPropertyOp49
 70
     1
102
RTVSPropertyOp50
 70
     1
102
RTVSPropertyOp51
 70
     0
102
RTVSPropertyOp52
 70
     0
102
RTVSPropertyOp53
 70
     1
102
RTVSPropertyOp54
 70
     1
102
RTVSPropertyOp55
 70
     1
102
RTVSPropertyOp56
 70
     1
102
RTVSPropertyOp57
 70
     1
102
RTVSPropertyOp58
 70
     1
102
RTVSPropertyOp59
 70
     1
102
RTVSPropertyOp60
 70
     1
102
RTVSPropertyOp61
 70
     1
102
RTVSPropertyOp62
 70
     1
  0
XRECORD
  5
D2
102
{ACAD_REACTORS
330
D1
102
}
330
D1
100
AcDbXrecord
280
     1
102
RTVSPost2010Prop28
280
     0
102
RTVSPost2010PropOp28
 70
     1
102
RTVSPost2010Prop29
280
     1
102
RTVSPost2010PropOp29
 70
     1
102
RTVSPost2010Prop30
280
     1
102
RTVSPost2010PropOp30
 70
     1
102
RTVSPost2010Prop31
280
     0
102
RTVSPost2010PropOp31
 70
     1
102
RTVSPost2010Prop32
280
     0
102
RTVSPost2010PropOp32
 70
     1
102
RTVSPost2010Prop33
280
     0
102
RTVSPost2010PropOp33
 70
     1
102
RTVSPost2010Prop34
280
     0
102
RTVSPost2010PropOp34
 70
     1
102
RTVSPost2010Prop35
280
     0
102
RTVSPost2010PropOp35
 70
     1
102
RTVSPost2010Prop36
280
     0
102
RTVSPost2010PropOp36
 70
     1
102
RTVSPost2010Prop37
 90
       50
102
RTVSPost2010PropOp37
 70
     1
102
RTVSPost2010Prop38
140
0.0
102
RTVSPost2010PropOp38
 70
     1
102
RTVSPost2010Prop39
140
1.0
102
RTVSPost2010PropOp39
 70
     1
102
RTVSPost2010Prop40
 90
        0
102
RTVSPost2010PropOp40
 70
     1
102
RTVSPost2010Prop41ColorIndex
 90
       18
102
RTVSPost2010Prop41ColorRGB
 90
        0
102
RTVSPost2010PropOp41
 70
     1
102
RTVSPost2010Prop42
 90
       50
102
RTVSPost2010PropOp42
 70
     1
102
RTVSPost2010Prop43
 90
        3
102
RTVSPost2010PropOp43
 70
     1
102
RTVSPost2010Prop44ColorIndex
 90
        5
102
RTVSPost2010Prop44ColorRGB
 90
      255
102
RTVSPost2010PropOp44
 70
     1
102
RTVSPost2010Prop45
280
     0
102
RTVSPost2010PropOp45
 70
     1
102
RTVSPost2010Prop46
 90
       50
102
RTVSPost2010PropOp46
 70
     1
102
RTVSPost2010Prop47
 90
       50
102
RTVSPost2010PropOp47
 70
     1
102
RTVSPost2010Prop48
 90
       50
102
RTVSPost2010PropOp48
 70
     1
102
RTVSPost2010Prop49
280
     0
102
RTVSPost2010PropOp49
 70
     1
102
RTVSPost2010Prop50
 90
       50
102
RTVSPost2010PropOp50
 70
     1
102
RTVSPost2010Prop51ColorIndex
 90
      256
102
RTVSPost2010Prop51ColorRGB
 90
-16777216
102
RTVSPost2010PropOp51
 70
     0
102
RTVSPost2010Prop52
140
1.0
102
RTVSPost2010PropOp52
 70
     0
102
RTVSPost2010Prop53
 90
        2
102
RTVSPost2010PropOp53
 70
     1
102
RTVSPost2010Prop54
  1
strokes_ogs.tif
102
RTVSPost2010PropOp54
 70
     1
102
RTVSPost2010Prop55
280
     0
102
RTVSPost2010PropOp55
 70
     1
102
RTVSPost2010Prop56
140
1.0
102
RTVSPost2010PropOp56
 70
     1
102
RTVSPost2010Prop57
140
1.0
102
RTVSPost2010PropOp57
 70
     1
102
RTVSPropertyOp0
 70
     1
102
RTVSPropertyOp1
 70
     1
102
RTVSPropertyOp2
 70
     1
102
RTVSPropertyOp3
 70
     1
102
RTVSPropertyOp4
 70
     1
102
RTVSPropertyOp5
 70
     1
102
RTVSPropertyOp6
 70
     1
102
RTVSPropertyOp7
 70
     1
102
RTVSPropertyOp8
 70
     1
102
RTVSPropertyOp9
 70
     1
102
RTVSPropertyOp10
 70
     1
102
RTVSPropertyOp11
 70
     1
102
RTVSPropertyOp12
 70
     1
102
RTVSPropertyOp13
 70
     1
102
RTVSPropertyOp14
 70
     1
102
RTVSPropertyOp15
 70
     1
102
RTVSPropertyOp16
 70
     1
102
RTVSPropertyOp17
 70
     1
102
RTVSPropertyOp18
 70
     1
102
RTVSPropertyOp19
 70
     1
102
RTVSPropertyOp20
 70
     1
102
RTVSPropertyOp21
 70
     1
102
RTVSPropertyOp22
 70
     1
102
RTVSPropertyOp23
 70
     1
102
RTVSPropertyOp24
 70
     1
102
RTVSPropertyOp25
 70
     1
102
RTVSPropertyOp26
 70
     1
102
RTVSPropertyOp27
 70
     1
102
RTVSPropertyOp28
 70
     1
102
RTVSPropertyOp29
 70
     1
102
RTVSPropertyOp30
 70
     1
102
RTVSPropertyOp31
 70
     1
102
RTVSPropertyOp32
 70
     1
102
RTVSPropertyOp33
 70
     1
102
RTVSPropertyOp34
 70
     1
102
RTVSPropertyOp35
 70
     1
102
RTVSPropertyOp36
 70
     1
102
RTVSPropertyOp37
 70
     1
102
RTVSPropertyOp38
 70
     1
102
RTVSPropertyOp39
 70
     1
102
RTVSPropertyOp40
 70
     1
102
RTVSPropertyOp41
 70
     1
102
RTVSPropertyOp42
 70
     1
102
RTVSPropertyOp43
 70
     1
102
RTVSPropertyOp44
 70
     1
102
RTVSPropertyOp45
 70
     1
102
RTVSPropertyOp46
 70
     1
102
RTVSPropertyOp47
 70
     1
102
RTVSPropertyOp48
 70
     1
102
RTVSPropertyOp49
 70
     1
102
RTVSPropertyOp50
 70
     1
102
RTVSPropertyOp51
 70
     0
102
RTVSPropertyOp52
 70
     0
102
RTVSPropertyOp53
 70
     1
102
RTVSPropertyOp54
 70
     1
102
RTVSPropertyOp55
 70
     1
102
RTVSPropertyOp56
 70
     1
102
RTVSPropertyOp57
 70
     1
102
RTVSPropertyOp58
 70
     1
102
RTVSPropertyOp59
 70
     1
102
RTVSPropertyOp60
 70
     1
102
RTVSPropertyOp61
 70
     1
102
RTVSPropertyOp62
 70
     1
  0
XRECORD
  5
C6
102
{ACAD_REACTORS
330
C5
102
}
330
C5
100
AcDbXrecord
280
     1
102
RTVSPost2010Prop28
280
     0
102
RTVSPost2010PropOp28
 70
     1
102
RTVSPost2010Prop29
280
     1
102
RTVSPost2010PropOp29
 70
     1
102
RTVSPost2010Prop30
280
     1
102
RTVSPost2010PropOp30
 70
     1
102
RTVSPost2010Prop31
280
     0
102
RTVSPost2010PropOp31
 70
     1
102
RTVSPost2010Prop32
280
     0
102
RTVSPost2010PropOp32
 70
     1
102
RTVSPost2010Prop33
280
     0
102
RTVSPost2010PropOp33
 70
     1
102
RTVSPost2010Prop34
280
     0
102
RTVSPost2010PropOp34
 70
     1
102
RTVSPost2010Prop35
280
     0
102
RTVSPost2010PropOp35
 70
     1
102
RTVSPost2010Prop36
280
     0
102
RTVSPost2010PropOp36
 70
     1
102
RTVSPost2010Prop37
 90
       50
102
RTVSPost2010PropOp37
 70
     1
102
RTVSPost2010Prop38
140
0.0
102
RTVSPost2010PropOp38
 70
     1
102
RTVSPost2010Prop39
140
1.0
102
RTVSPost2010PropOp39
 70
     1
102
RTVSPost2010Prop40
 90
        0
102
RTVSPost2010PropOp40
 70
     1
102
RTVSPost2010Prop41ColorIndex
 90
       18
102
RTVSPost2010Prop41ColorRGB
 90
        0
102
RTVSPost2010PropOp41
 70
     1
102
RTVSPost2010Prop42
 90
       50
102
RTVSPost2010PropOp42
 70
     1
102
RTVSPost2010Prop43
 90
        3
102
RTVSPost2010PropOp43
 70
     1
102
RTVSPost2010Prop44ColorIndex
 90
        5
102
RTVSPost2010Prop44ColorRGB
 90
      255
102
RTVSPost2010PropOp44
 70
     1
102
RTVSPost2010Prop45
280
     0
102
RTVSPost2010PropOp45
 70
     1
102
RTVSPost2010Prop46
 90
       50
102
RTVSPost2010PropOp46
 70
     1
102
RTVSPost2010Prop47
 90
       50
102
RTVSPost2010PropOp47
 70
     1
102
RTVSPost2010Prop48
 90
       50
102
RTVSPost2010PropOp48
 70
     1
102
RTVSPost2010Prop49
280
     0
102
RTVSPost2010PropOp49
 70
     1
102
RTVSPost2010Prop50
 90
       50
102
RTVSPost2010PropOp50
 70
     1
102
RTVSPost2010Prop51ColorIndex
 90
      256
102
RTVSPost2010Prop51ColorRGB
 90
-16777216
102
RTVSPost2010PropOp51
 70
     0
102
RTVSPost2010Prop52
140
1.0
102
RTVSPost2010PropOp52
 70
     0
102
RTVSPost2010Prop53
 90
        2
102
RTVSPost2010PropOp53
 70
     1
102
RTVSPost2010Prop54
  1
strokes_ogs.tif
102
RTVSPost2010PropOp54
 70
     1
102
RTVSPost2010Prop55
280
     0
102
RTVSPost2010PropOp55
 70
     1
102
RTVSPost2010Prop56
140
1.0
102
RTVSPost2010PropOp56
 70
     1
102
RTVSPost2010Prop57
140
1.0
102
RTVSPost2010PropOp57
 70
     1
102
RTVSPropertyOp0
 70
     1
102
RTVSPropertyOp1
 70
     1
102
RTVSPropertyOp2
 70
     1
102
RTVSPropertyOp3
 70
     1
102
RTVSPropertyOp4
 70
     1
102
RTVSPropertyOp5
 70
     1
102
RTVSPropertyOp6
 70
     1
102
RTVSPropertyOp7
 70
     1
102
RTVSPropertyOp8
 70
     1
102
RTVSPropertyOp9
 70
     1
102
RTVSPropertyOp10
 70
     1
102
RTVSPropertyOp11
 70
     1
102
RTVSPropertyOp12
 70
     1
102
RTVSPropertyOp13
 70
     1
102
RTVSPropertyOp14
 70
     1
102
RTVSPropertyOp15
 70
     1
102
RTVSPropertyOp16
 70
     1
102
RTVSPropertyOp17
 70
     1
102
RTVSPropertyOp18
 70
     1
102
RTVSPropertyOp19
 70
     1
102
RTVSPropertyOp20
 70
     1
102
RTVSPropertyOp21
 70
     1
102
RTVSPropertyOp22
 70
     1
102
RTVSPropertyOp23
 70
     1
102
RTVSPropertyOp24
 70
     1
102
RTVSPropertyOp25
 70
     1
102
RTVSPropertyOp26
 70
     1
102
RTVSPropertyOp27
 70
     1
102
RTVSPropertyOp28
 70
     1
102
RTVSPropertyOp29
 70
     1
102
RTVSPropertyOp30
 70
     1
102
RTVSPropertyOp31
 70
     1
102
RTVSPropertyOp32
 70
     1
102
RTVSPropertyOp33
 70
     1
102
RTVSPropertyOp34
 70
     1
102
RTVSPropertyOp35
 70
     1
102
RTVSPropertyOp36
 70
     1
102
RTVSPropertyOp37
 70
     1
102
RTVSPropertyOp38
 70
     1
102
RTVSPropertyOp39
 70
     1
102
RTVSPropertyOp40
 70
     1
102
RTVSPropertyOp41
 70
     1
102
RTVSPropertyOp42
 70
     1
102
RTVSPropertyOp43
 70
     1
102
RTVSPropertyOp44
 70
     1
102
RTVSPropertyOp45
 70
     1
102
RTVSPropertyOp46
 70
     1
102
RTVSPropertyOp47
 70
     1
102
RTVSPropertyOp48
 70
     1
102
RTVSPropertyOp49
 70
     1
102
RTVSPropertyOp50
 70
     1
102
RTVSPropertyOp51
 70
     0
102
RTVSPropertyOp52
 70
     0
102
RTVSPropertyOp53
 70
     1
102
RTVSPropertyOp54
 70
     1
102
RTVSPropertyOp55
 70
     1
102
RTVSPropertyOp56
 70
     1
102
RTVSPropertyOp57
 70
     1
102
RTVSPropertyOp58
 70
     1
102
RTVSPropertyOp59
 70
     1
102
RTVSPropertyOp60
 70
     1
102
RTVSPropertyOp61
 70
     1
102
RTVSPropertyOp62
 70
     1
  0
XRECORD
  5
DE
102
{ACAD_REACTORS
330
DD
102
}
330
DD
100
AcDbXrecord
280
     1
102
RTVSPost2010Prop28
280
     0
102
RTVSPost2010PropOp28
 70
     1
102
RTVSPost2010Prop29
280
     1
102
RTVSPost2010PropOp29
 70
     1
102
RTVSPost2010Prop30
280
     1
102
RTVSPost2010PropOp30
 70
     1
102
RTVSPost2010Prop31
280
     0
102
RTVSPost2010PropOp31
 70
     1
102
RTVSPost2010Prop32
280
     0
102
RTVSPost2010PropOp32
 70
     1
102
RTVSPost2010Prop33
280
     0
102
RTVSPost2010PropOp33
 70
     1
102
RTVSPost2010Prop34
280
     0
102
RTVSPost2010PropOp34
 70
     1
102
RTVSPost2010Prop35
280
     0
102
RTVSPost2010PropOp35
 70
     1
102
RTVSPost2010Prop36
280
     0
102
RTVSPost2010PropOp36
 70
     1
102
RTVSPost2010Prop37
 90
       50
102
RTVSPost2010PropOp37
 70
     1
102
RTVSPost2010Prop38
140
0.0
102
RTVSPost2010PropOp38
 70
     1
102
RTVSPost2010Prop39
140
1.0
102
RTVSPost2010PropOp39
 70
     1
102
RTVSPost2010Prop40
 90
        0
102
RTVSPost2010PropOp40
 70
     1
102
RTVSPost2010Prop41ColorIndex
 90
       18
102
RTVSPost2010Prop41ColorRGB
 90
        0
102
RTVSPost2010PropOp41
 70
     1
102
RTVSPost2010Prop42
 90
       50
102
RTVSPost2010PropOp42
 70
     1
102
RTVSPost2010Prop43
 90
        3
102
RTVSPost2010PropOp43
 70
     1
102
RTVSPost2010Prop44ColorIndex
 90
        5
102
RTVSPost2010Prop44ColorRGB
 90
      255
102
RTVSPost2010PropOp44
 70
     1
102
RTVSPost2010Prop45
280
     0
102
RTVSPost2010PropOp45
 70
     1
102
RTVSPost2010Prop46
 90
       50
102
RTVSPost2010PropOp46
 70
     1
102
RTVSPost2010Prop47
 90
       50
102
RTVSPost2010PropOp47
 70
     1
102
RTVSPost2010Prop48
 90
       50
102
RTVSPost2010PropOp48
 70
     1
102
RTVSPost2010Prop49
280
     0
102
RTVSPost2010PropOp49
 70
     1
102
RTVSPost2010Prop50
 90
       50
102
RTVSPost2010PropOp50
 70
     1
102
RTVSPost2010Prop51ColorIndex
 90
      256
102
RTVSPost2010Prop51ColorRGB
 90
-16777216
102
RTVSPost2010PropOp51
 70
     0
102
RTVSPost2010Prop52
140
1.0
102
RTVSPost2010PropOp52
 70
     0
102
RTVSPost2010Prop53
 90
        2
102
RTVSPost2010PropOp53
 70
     1
102
RTVSPost2010Prop54
  1
strokes_ogs.tif
102
RTVSPost2010PropOp54
 70
     1
102
RTVSPost2010Prop55
280
     0
102
RTVSPost2010PropOp55
 70
     1
102
RTVSPost2010Prop56
140
1.0
102
RTVSPost2010PropOp56
 70
     1
102
RTVSPost2010Prop57
140
1.0
102
RTVSPost2010PropOp57
 70
     1
102
RTVSPropertyOp0
 70
     1
102
RTVSPropertyOp1
 70
     1
102
RTVSPropertyOp2
 70
     1
102
RTVSPropertyOp3
 70
     1
102
RTVSPropertyOp4
 70
     1
102
RTVSPropertyOp5
 70
     1
102
RTVSPropertyOp6
 70
     1
102
RTVSPropertyOp7
 70
     1
102
RTVSPropertyOp8
 70
     1
102
RTVSPropertyOp9
 70
     1
102
RTVSPropertyOp10
 70
     1
102
RTVSPropertyOp11
 70
     1
102
RTVSPropertyOp12
 70
     1
102
RTVSPropertyOp13
 70
     1
102
RTVSPropertyOp14
 70
     1
102
RTVSPropertyOp15
 70
     1
102
RTVSPropertyOp16
 70
     1
102
RTVSPropertyOp17
 70
     1
102
RTVSPropertyOp18
 70
     1
102
RTVSPropertyOp19
 70
     1
102
RTVSPropertyOp20
 70
     1
102
RTVSPropertyOp21
 70
     1
102
RTVSPropertyOp22
 70
     1
102
RTVSPropertyOp23
 70
     1
102
RTVSPropertyOp24
 70
     1
102
RTVSPropertyOp25
 70
     1
102
RTVSPropertyOp26
 70
     1
102
RTVSPropertyOp27
 70
     1
102
RTVSPropertyOp28
 70
     1
102
RTVSPropertyOp29
 70
     1
102
RTVSPropertyOp30
 70
     1
102
RTVSPropertyOp31
 70
     1
102
RTVSPropertyOp32
 70
     1
102
RTVSPropertyOp33
 70
     1
102
RTVSPropertyOp34
 70
     1
102
RTVSPropertyOp35
 70
     1
102
RTVSPropertyOp36
 70
     1
102
RTVSPropertyOp37
 70
     1
102
RTVSPropertyOp38
 70
     1
102
RTVSPropertyOp39
 70
     1
102
RTVSPropertyOp40
 70
     1
102
RTVSPropertyOp41
 70
     1
102
RTVSPropertyOp42
 70
     1
102
RTVSPropertyOp43
 70
     1
102
RTVSPropertyOp44
 70
     1
102
RTVSPropertyOp45
 70
     1
102
RTVSPropertyOp46
 70
     1
102
RTVSPropertyOp47
 70
     1
102
RTVSPropertyOp48
 70
     1
102
RTVSPropertyOp49
 70
     1
102
RTVSPropertyOp50
 70
     1
102
RTVSPropertyOp51
 70
     0
102
RTVSPropertyOp52
 70
     0
102
RTVSPropertyOp53
 70
     1
102
RTVSPropertyOp54
 70
     1
102
RTVSPropertyOp55
 70
     1
102
RTVSPropertyOp56
 70
     1
102
RTVSPropertyOp57
 70
     1
102
RTVSPropertyOp58
 70
     1
102
RTVSPropertyOp59
 70
     1
102
RTVSPropertyOp60
 70
     1
102
RTVSPropertyOp61
 70
     1
102
RTVSPropertyOp62
 70
     1
  0
ENDSEC
  0
EOF
