0
SECTION
2
HEADER
9
$INSUNITS
70
4
9
$ACADVER
1
AC1014
9
$HANDSEED
5
FFFF
0
ENDSEC
0
SECTION
2
TABLES
0
TABLE
2
VPORT
5
8
100
AcDbSymbolTable
0
ENDTAB
0
TABLE
2
LTYPE
5
5
100
AcDbSymbolTable
0
LTYPE
5
14
100
AcDbSymbolTableRecord
100
AcDbLinetypeTableRecord
2
BYBLOCK
70
0
0
LTYPE
5
15
100
AcDbSymbolTableRecord
100
AcDbLinetypeTableRecord
2
BYLAYER
70
0
0
ENDTAB
0
TABLE
2
LAYER
5
2
100
AcDbSymbolTable
70
2
0
LAYER
5
50
100
AcDbSymbolTableRecord
100
AcDbLayerTableRecord
2
0
70
0
6
CONTINUOUS
0
ENDTAB
0
TABLE
2
STYLE
5
3
100
AcDbSymbolTable
70
1
0
STYLE
5
11
100
AcDbSymbolTableRecord
100
AcDbTextStyleTableRecord
2
STANDARD
70
0
0
ENDTAB
0
TABLE
2
VIEW
5
6
100
AcDbSymbolTable
70
0
0
ENDTAB
0
TABLE
2
UCS
5
7
100
AcDbSymbolTable
70
0
0
ENDTAB
0
TABLE
2
APPID
5
9
100
AcDbSymbolTable
70
2
0
APPID
5
12
100
AcDbSymbolTableRecord
100
AcDbRegAppTableRecord
2
ACAD
70
0
0
ENDTAB
0
TABLE
2
DIMSTYLE
5
A
100
AcDbSymbolTable
70
1
0
ENDTAB
0
TABLE
2
BLOCK_RECORD
5
1
100
AcDbSymbolTable
70
1
0
BLOCK_RECORD
5
1F
100
AcDbSymbolTableRecord
100
AcDbBlockTableRecord
2
*MODEL_SPACE
0
BLOCK_RECORD
5
1B
100
AcDbSymbolTableRecord
100
AcDbBlockTableRecord
2
*PAPER_SPACE
0
ENDTAB
0
ENDSEC
0
SECTION
2
BLOCKS
0
BLOCK
5
20
100
AcDbEntity
100
AcDbBlockBegin
2
*MODEL_SPACE
0
ENDBLK
5
21
100
AcDbEntity
100
AcDbBlockEnd
0
BLOCK
5
1C
100
AcDbEntity
100
AcDbBlockBegin
2
*PAPER_SPACE
0
ENDBLK
5
1D
100
AcDbEntity
100
AcDbBlockEnd
0
ENDSEC
0
SECTION
2
ENTITIES
0
LINE
5
100
100
AcDbEntity
8
0
100
AcDbLine
10
796.73889583333346
20
3.0165881657768079
30
-1.077583333333294
11
886.70982354045077
21
3.0165881657768079
31
-1.077583333333294
0
LINE
5
101
100
AcDbEntity
8
0
100
AcDbLine
10
608.19679063374292
20
10.839796462515023
30
-1.077583333333294
11
605.20950959783238
21
10.839796462515023
31
-1.077583333333294
0
LINE
5
102
100
AcDbEntity
8
0
100
AcDbLine
10
987.98450959693446
20
-85.867598694707937
30
-1.0775833333332585
11
988.67454533097828
21
-85.177604652019483
31
-1.0775833333332585
0
LINE
5
103
100
AcDbEntity
8
0
100
AcDbLine
10
910.87992348513353
20
-8.7271361030312722
30
-1.077583333333294
11
912.98471915622542
21
-6.615829152834154
31
-1.077583333333294
0
LINE
5
104
100
AcDbEntity
8
0
100
AcDbLine
10
797.03184062326454
20
-177.87451504525887
30
-1.077583333333223
11
784.61386360803829
21
-177.87451504525887
31
-1.077583333333223
0
LINE
5
105
100
AcDbEntity
8
0
100
AcDbLine
10
988.67454533097828
20
-166.3914747562647
30
-1.077583333333223
11
988.67454533097828
21
-177.87451504525887
31
-1.077583333333223
0
LINE
5
106
100
AcDbEntity
8
0
100
AcDbLine
10
781.74088673332017
20
15.027456816609215
30
-1.0775833333333296
11
778.7264186570319
21
15.027456816609215
31
-1.0775833333333296
0
LINE
5
107
100
AcDbEntity
8
0
100
AcDbLine
10
694.53221849858278
20
128.53265420169376
30
-1.0775833333333651
11
693.5601645949987
21
127.56076085768723
31
-1.0775833333333651
0
LINE
5
108
100
AcDbEntity
8
0
100
AcDbLine
10
784.61386360803829
20
-177.87451504525887
30
-1.077583333333223
11
775.87963039989916
21
-169.16400440177068
31
-1.077583333333223
0
LINE
5
109
100
AcDbEntity
8
0
100
AcDbLine
10
617.12945009611485
20
-10.398530138346489
30
-1.077583333333294
11
608.19679063374292
21
-1.4668268191573919
31
-1.077583333333294
0
LINE
5
110
100
AcDbEntity
8
0
100
AcDbLine
10
772.09175817393714
20
53.258138610232308
30
-1.0775833333333296
11
769.97078571449833
21
51.137516483672016
31
-1.0775833333333296
0
LINE
5
111
100
AcDbEntity
8
0
100
AcDbLine
10
796.73889583333346
20
-4.4408920985006262e-14
30
-1.077583333333294
11
796.73889583333346
21
3.0165881657768079
31
-1.077583333333294
0
LINE
5
112
100
AcDbEntity
8
0
100
AcDbLine
10
608.2064408291792
20
128.53265420169376
30
-1.0775833333333651
11
620.21004229509981
21
128.53265420169376
31
-1.0775833333333651
0
LINE
5
113
100
AcDbEntity
8
0
100
AcDbLine
10
778.7264186570319
20
44.351298397496379
30
-1.0775833333333296
11
778.7264186570319
21
29.997121729859686
31
-1.0775833333333296
0
LINE
5
114
100
AcDbEntity
8
0
100
AcDbLine
10
781.74088673332017
20
29.997121729859686
30
-1.0775833333333296
11
781.74088673332017
21
15.027456816609215
31
-1.0775833333333296
0
LINE
5
115
100
AcDbEntity
8
0
100
AcDbLine
10
900.71531618719655
20
-4.4408920985006262e-14
30
-1.077583333333294
11
902.12578959807172
21
-4.4408920985006262e-14
31
-1.077583333333294
0
LINE
5
116
100
AcDbEntity
8
0
100
AcDbLine
10
605.20950959783238
20
115.83255017216021
30
-1.0775833333333651
11
608.19679063374292
21
115.83255017216021
31
-1.0775833333333651
0
LINE
5
117
100
AcDbEntity
8
0
100
AcDbLine
10
778.7264186570319
20
-4.4408920985006262e-14
30
-1.077583333333294
11
781.74088673332017
21
-4.4408920985006262e-14
31
-1.077583333333294
0
LINE
5
118
100
AcDbEntity
8
0
100
AcDbLine
10
902.12578959807172
20
-4.4408920985006262e-14
30
-1.077583333333294
11
910.87992348513353
21
-8.7271361030312722
31
-1.077583333333294
0
LINE
5
119
100
AcDbEntity
8
0
100
AcDbLine
10
991.70428817124116
20
-106.45465973431936
30
-1.0775833333332585
11
991.70428817124116
21
-166.3914747562647
31
-1.077583333333223
0
LINE
5
120
100
AcDbEntity
8
0
100
AcDbLine
10
781.74088673332017
20
-4.4408920985006262e-14
30
-1.077583333333294
11
796.73889583333346
21
-4.4408920985006262e-14
31
-1.077583333333294
0
LINE
5
121
100
AcDbEntity
8
0
100
AcDbLine
10
912.98471915622542
20
-6.615829152834154
30
-1.077583333333294
11
981.77412602332254
21
-75.409392466857284
31
-1.0775833333332585
0
LINE
5
122
100
AcDbEntity
8
0
100
AcDbLine
10
991.70428817124116
20
-166.3914747562647
30
-1.077583333333223
11
988.67454533097828
21
-166.3914747562647
31
-1.077583333333223
0
LINE
5
123
100
AcDbEntity
8
0
100
AcDbLine
10
778.7264186570319
20
29.997121729859686
30
-1.0775833333333296
11
781.74088673332017
21
29.997121729859686
31
-1.0775833333333296
0
LINE
5
124
100
AcDbEntity
8
0
100
AcDbLine
10
680.2110681793414
20
128.53265420169376
30
-1.0775833333333651
11
694.53221849858278
21
128.53265420169376
31
-1.0775833333333651
0
LINE
5
125
100
AcDbEntity
8
0
100
AcDbLine
10
605.20950959783238
20
10.839796462515023
30
-1.077583333333294
11
605.20950959783238
21
115.83255017216021
31
-1.0775833333333651
0
LINE
5
126
100
AcDbEntity
8
0
100
AcDbLine
10
886.70982354045077
20
-4.4408920985006262e-14
30
-1.077583333333294
11
886.70982354045077
21
3.0165881657768079
31
-1.077583333333294
0
LINE
5
127
100
AcDbEntity
8
0
100
AcDbLine
10
703.31046471164063
20
122.05079494015851
30
-1.0775833333333651
11
772.09175817393714
21
53.258138610232308
31
-1.0775833333333296
0
LINE
5
128
100
AcDbEntity
8
0
100
AcDbLine
10
988.67454533097828
20
-85.177604652019483
30
-1.0775833333332585
11
988.67454533097828
21
-106.45465973431936
31
-1.0775833333332585
0
LINE
5
129
100
AcDbEntity
8
0
100
AcDbLine
10
977.04013536975572
20
-180.93924539265925
30
-1.077583333333223
11
797.03184062326454
21
-180.93924539265925
31
-1.077583333333223
0
LINE
5
130
100
AcDbEntity
8
0
100
AcDbLine
10
620.21004229509981
20
128.53265420169376
30
-1.0775833333333651
11
620.21004229509981
21
131.53552921686301
31
-1.0775833333333651
0
LINE
5
131
100
AcDbEntity
8
0
100
AcDbLine
10
777.74098801441767
20
43.36603052397048
30
-1.0775833333333296
11
778.7264186570319
21
44.351298397496379
31
-1.0775833333333296
0
LINE
5
132
100
AcDbEntity
8
0
100
AcDbLine
10
769.97078571449833
20
51.137516483672016
30
-1.0775833333333296
11
777.74098801441767
21
43.36603052397048
31
-1.0775833333333296
0
LINE
5
133
100
AcDbEntity
8
0
100
AcDbLine
10
977.04013536975572
20
-177.87451504525887
30
-1.077583333333223
11
977.04013536975572
21
-180.93924539265925
31
-1.077583333333223
0
LINE
5
134
100
AcDbEntity
8
0
100
AcDbLine
10
701.18949225220194
20
119.93017281359823
30
-1.0775833333333651
11
703.31046471164063
21
122.05079494015851
31
-1.0775833333333651
0
LINE
5
135
100
AcDbEntity
8
0
100
AcDbLine
10
775.87963039989916
20
-169.16400440177068
30
-1.077583333333223
11
773.7680925994207
21
-171.28129285155507
31
-1.077583333333223
0
LINE
5
136
100
AcDbEntity
8
0
100
AcDbLine
10
620.21004229509981
20
131.53552921686301
30
-1.0775833333333651
11
680.2110681793414
21
131.53552921686301
31
-1.0775833333333651
0
LINE
5
137
100
AcDbEntity
8
0
100
AcDbLine
10
693.5601645949987
20
127.56076085768723
30
-1.0775833333333651
11
701.18949225220194
21
119.93017281359823
31
-1.0775833333333651
0
LINE
5
138
100
AcDbEntity
8
0
100
AcDbLine
10
988.67454533097828
20
-177.87451504525887
30
-1.077583333333223
11
977.04013536975572
21
-177.87451504525887
31
-1.077583333333223
0
LINE
5
139
100
AcDbEntity
8
0
100
AcDbLine
10
797.03184062326454
20
-180.93924539265925
30
-1.077583333333223
11
797.03184062326454
21
-177.87451504525887
31
-1.077583333333223
0
LINE
5
140
100
AcDbEntity
8
0
100
AcDbLine
10
778.7264186570319
20
15.027456816609215
30
-1.0775833333333296
11
778.7264186570319
21
-4.4408920985006262e-14
31
-1.077583333333294
0
LINE
5
141
100
AcDbEntity
8
0
100
AcDbLine
10
773.7680925994207
20
-171.28129285155507
30
-1.077583333333223
11
614.9990067793791
21
-12.529201520075164
31
-1.077583333333294
0
LINE
5
142
100
AcDbEntity
8
0
100
AcDbLine
10
900.71531618719655
20
-4.4408920985006262e-14
30
-1.077583333333294
11
886.70982354045077
21
-4.4408920985006262e-14
31
-1.077583333333294
0
LINE
5
143
100
AcDbEntity
8
0
100
AcDbLine
10
979.65040232438764
20
-77.532987852263815
30
-1.0775833333332585
11
987.98450959693446
21
-85.867598694707937
31
-1.0775833333332585
0
LINE
5
144
100
AcDbEntity
8
0
100
AcDbLine
10
614.9990067793791
20
-12.529201520075164
30
-1.077583333333294
11
617.12945009611485
21
-10.398530138346489
31
-1.077583333333294
0
LINE
5
145
100
AcDbEntity
8
0
100
AcDbLine
10
608.19679063374292
20
-1.4668268191573919
30
-1.077583333333294
11
608.19679063374292
21
10.839796462515023
31
-1.077583333333294
0
LINE
5
146
100
AcDbEntity
8
0
100
AcDbLine
10
988.67454533097828
20
-106.45465973431936
30
-1.0775833333332585
11
991.70428817124116
21
-106.45465973431936
31
-1.0775833333332585
0
LINE
5
147
100
AcDbEntity
8
0
100
AcDbLine
10
680.2110681793414
20
131.53552921686301
30
-1.0775833333333651
11
680.2110681793414
21
128.53265420169376
31
-1.0775833333333651
0
LINE
5
148
100
AcDbEntity
8
0
100
AcDbLine
10
981.77412602332254
20
-75.409392466857284
30
-1.0775833333332585
11
979.65040232438764
21
-77.532987852263815
31
-1.0775833333332585
0
LINE
5
149
100
AcDbEntity
8
0
100
AcDbLine
10
608.19679063374292
20
115.83255017216021
30
-1.0775833333333651
11
608.2064408291792
21
128.53265420169376
31
-1.0775833333333651
0
ENDSEC
0
SECTION
2
OBJECTS
0
DICTIONARY
5
C
100
AcDbDictionary
3
ACAD_GROUP
350
D
3
ACAD_MLINESTYLE
350
17
0
DICTIONARY
5
D
100
AcDbDictionary
0
DICTIONARY
5
1A
330
C
100
AcDbDictionary
0
DICTIONARY
5
17
100
AcDbDictionary
0
ENDSEC
0
EOF
