  0
SECTION
  2
HEADER
  9
$ACADVER
  1
AC1006
  0
ENDSEC
  0
SECTION
  2
TABLES
  0
TABLE
  2
LTYPE
 70
    25
  0
LTYPE
  2
CONTINUOUS
 70
    64
  3
Solid line
 72
    64
 73
     0
 40
0.000000
  0
LTYPE
  2
DASHDOT
 70
    64
  3
__ . __ . __ . __ . __ . __ . __ . __ . __ . __
 72
    65
 73
     4
 40
1.000000
 49
0.500000
 49
-0.250000
 49
0.000000
 49
-0.250000
  0
LTYPE
  2
DASHED
 70
    64
  3
__ __ __ __ __ __ __ __ __ __ __ __ __ __ __ __
 72
    65
 73
     2
 40
0.750000
 49
0.500000
 49
-0.250000
  0
LTYPE
  2
DIVIDE
 70
    64
  3
____ . . ____ . . ____ . . ____ . . ____ . . __
 72
    65
 73
     6
 40
1.250000
 49
0.500000
 49
-0.250000
 49
0.000000
 49
-0.250000
 49
0.000000
 49
-0.250000
  0
LTYPE
  2
DOT
 70
    64
  3
. . . . . . . . . . . . . . . . . . . . . . . . 
 72
    65
 73
     2
 40
0.250000
 49
0.000000
 49
-0.250000
  0
ENDTAB
  0
ENDSEC
  0
SECTION
  2
ENTITIES
  0
ARC
  8
0
 62
     7
  6
CONTINUOUS
 10
397.995012
 20
193.326947
 30
0.000000
 40
9.999993
 50
179.999957
 51
270.000043
  0
ARC
  8
0
 62
     7
  6
CONTINUOUS
 10
397.995026
 20
193.326947
 30
0.000000
 40
9.999993
 50
269.999957
 51
360.000043
  0
ARC
  8
0
 62
     7
  6
CONTINUOUS
 10
397.995026
 20
193.326961
 30
0.000000
 40
9.999993
 50
359.999957
 51
450.000043
  0
ARC
  8
0
 62
     7
  6
CONTINUOUS
 10
397.995012
 20
193.326961
 30
0.000000
 40
9.999993
 50
89.999957
 51
180.000043
  0
LINE
  8
0
 62
     7
  6
CONTINUOUS
 10
486.516431
 20
473.798165
 30
0.000000
 11
486.312991
 21
444.274030
 31
0.000000
  0
ARC
  8
0
 62
     7
  6
CONTINUOUS
 10
489.012953
 20
444.255373
 30
0.000000
 40
2.700027
 50
179.604093
 51
269.604765
  0
ARC
  8
0
 62
     7
  6
CONTINUOUS
 10
489.012967
 20
444.255355
 30
0.000000
 40
2.700008
 50
269.604472
 51
359.605144
  0
LINE
  8
0
 62
     7
  6
CONTINUOUS
 10
491.712911
 20
444.236748
 30
0.000000
 11
491.940036
 21
477.165188
 31
0.000000
  0
ARC
  8
0
 62
     7
  6
CONTINUOUS
 10
515.355240
 20
433.358436
 30
0.000000
 40
49.671957
 50
87.246756
 51
118.125007
  0
LINE
  8
0
 62
     7
  6
CONTINUOUS
 10
517.741217
 20
482.973055
 30
0.000000
 11
517.471820
 21
444.059897
 31
0.000000
  0
ARC
  8
0
 62
     7
  6
CONTINUOUS
 10
520.171779
 20
444.041205
 30
0.000000
 40
2.700024
 50
179.603344
 51
359.603344
  0
LINE
  8
0
 62
     7
  6
CONTINUOUS
 10
522.871738
 20
444.022513
 30
0.000000
 11
523.141134
 21
482.936266
 31
0.000000
  0
ARC
  8
0
 62
     7
  6
CONTINUOUS
 10
524.859568
 20
433.292217
 30
0.000000
 40
49.673782
 50
61.083777
 51
91.982508
  0
LINE
  8
0
 62
     7
  6
CONTINUOUS
 10
548.878344
 20
476.773052
 30
0.000000
 11
548.650326
 21
443.844510
 31
0.000000
  0
ARC
  8
0
 62
     7
  6
CONTINUOUS
 10
551.351382
 20
443.825606
 30
0.000000
 40
2.701122
 50
179.599010
 51
269.602616
  0
ARC
  8
0
 62
     7
  6
CONTINUOUS
 10
551.351264
 20
443.825320
 30
0.000000
 40
2.700836
 50
269.605066
 51
359.608673
  0
LINE
  8
0
 62
     7
  6
CONTINUOUS
 10
554.052037
 20
443.806874
 30
0.000000
 11
554.254599
 21
473.329027
 31
0.000000
  0
ARC
  8
0
 62
     7
  6
CONTINUOUS
 10
524.880312
 20
433.288316
 30
0.000000
 40
49.659916
 50
35.561990
 51
53.735837
  0
ARC
  8
0
 62
     7
  6
CONTINUOUS
 10
299.918843
 20
467.655105
 30
0.000000
 40
265.415844
 50
347.871209
 51
358.815772
  0
LINE
  8
0
 62
     7
  6
CONTINUOUS
 10
559.410016
 20
411.888615
 30
0.000000
 11
570.294971
 21
389.213538
 31
0.000000
  0
LINE
  8
0
 62
     7
  6
CONTINUOUS
 10
570.294971
 20
389.213538
 30
0.000000
 11
590.207404
 21
347.695217
 31
0.000000
  0
LINE
  8
0
 62
     7
  6
CONTINUOUS
 10
590.207404
 20
347.695217
 30
0.000000
 11
593.548152
 21
347.671449
 31
0.000000
  0
LINE
  8
0
 62
     7
  6
CONTINUOUS
 10
593.548152
 20
347.671449
 30
0.000000
 11
595.120664
 21
343.659903
 31
0.000000
  0
LINE
  8
0
 62
     7
  6
CONTINUOUS
 10
595.120664
 20
343.659903
 30
0.000000
 11
609.600806
 21
343.561088
 31
0.000000
  0
ARC
  8
0
 62
     7
  6
CONTINUOUS
 10
609.916210
 20
338.526202
 30
0.000000
 40
5.044755
 50
9.547588
 51
93.584533
  0
LINE
  8
0
 62
     7
  6
CONTINUOUS
 10
614.891086
 20
339.362959
 30
0.000000
 11
614.874825
 21
337.064751
 31
0.000000
  0
LINE
  8
0
 62
     7
  6
CONTINUOUS
 10
614.874825
 20
337.064751
 30
0.000000
 11
599.475228
 21
337.169542
 31
0.000000
  0
ARC
  8
0
 62
     7
  6
CONTINUOUS
 10
599.456576
 20
334.469580
 30
0.000000
 40
2.700026
 50
89.604186
 51
179.610140
  0
ARC
  8
0
 62
     7
  6
CONTINUOUS
 10
599.456429
 20
334.469442
 30
0.000000
 40
2.699881
 50
179.607189
 51
269.613143
  0
LINE
  8
0
 62
     7
  6
CONTINUOUS
 10
599.438200
 20
331.769623
 30
0.000000
 11
614.837579
 21
331.664834
 31
0.000000
  0
LINE
  8
0
 62
     7
  6
CONTINUOUS
 10
614.837579
 20
331.664834
 30
0.000000
 11
614.822315
 21
329.363960
 31
0.000000
  0
ARC
  8
0
 62
     7
  6
CONTINUOUS
 10
609.857755
 20
330.272972
 30
0.000000
 40
5.047094
 50
265.629268
 51
349.624068
  0
LINE
  8
0
 62
     7
  6
CONTINUOUS
 10
609.473118
 20
325.240556
 30
0.000000
 11
594.993840
 21
325.340806
 31
0.000000
  0
LINE
  8
0
 62
     7
  6
CONTINUOUS
 10
594.993840
 20
325.340806
 30
0.000000
 11
593.366033
 21
321.352450
 31
0.000000
  0
LINE
  8
0
 62
     7
  6
CONTINUOUS
 10
593.366033
 20
321.352450
 30
0.000000
 11
582.027173
 21
321.430624
 31
0.000000
  0
ARC
  8
0
 62
     7
  6
CONTINUOUS
 10
582.095406
 20
331.430063
 30
0.000000
 40
9.999672
 50
179.604063
 51
269.609039
  0
LINE
  8
0
 62
     7
  6
CONTINUOUS
 10
572.095973
 20
331.499164
 30
0.000000
 11
572.208521
 21
347.819185
 31
0.000000
  0
LINE
  8
0
 62
     7
  6
CONTINUOUS
 10
572.208521
 20
347.819185
 30
0.000000
 11
535.667479
 21
405.712773
 31
0.000000
  0
ARC
  8
0
 62
     7
  6
CONTINUOUS
 10
518.620955
 20
449.690001
 30
0.000000
 40
47.165460
 50
271.536046
 51
291.187408
  0
ARC
  8
0
 62
     7
  6
CONTINUOUS
 10
521.812811
 20
449.664893
 30
0.000000
 40
47.162809
 50
247.821586
 51
267.657666
  0
LINE
  8
0
 62
     7
  6
CONTINUOUS
 10
504.009231
 20
405.991525
 30
0.000000
 11
466.809991
 21
348.548286
 31
0.000000
  0
LINE
  8
0
 62
     7
  6
CONTINUOUS
 10
466.809991
 20
348.548286
 30
0.000000
 11
466.698334
 21
332.227380
 31
0.000000
  0
ARC
  8
0
 62
     7
  6
CONTINUOUS
 10
456.698017
 20
332.297388
 30
0.000000
 40
10.000562
 50
269.603904
 51
359.598903
  0
LINE
  8
0
 62
     7
  6
CONTINUOUS
 10
456.628882
 20
322.297065
 30
0.000000
 11
445.309710
 21
322.375286
 31
0.000000
  0
LINE
  8
0
 62
     7
  6
CONTINUOUS
 10
445.309710
 20
322.375286
 30
0.000000
 11
443.737197
 21
326.386832
 31
0.000000
  0
LINE
  8
0
 62
     7
  6
CONTINUOUS
 10
443.737197
 20
326.386832
 30
0.000000
 11
429.238012
 21
326.485618
 31
0.000000
  0
ARC
  8
0
 62
     7
  6
CONTINUOUS
 10
428.922937
 20
331.522868
 30
0.000000
 40
5.047094
 50
189.584335
 51
273.579134
  0
LINE
  8
0
 62
     7
  6
CONTINUOUS
 10
423.946292
 20
330.682531
 30
0.000000
 11
423.962816
 21
332.983395
 31
0.000000
  0
LINE
  8
0
 62
     7
  6
CONTINUOUS
 10
423.962816
 20
332.983395
 30
0.000000
 11
439.362173
 21
332.875427
 31
0.000000
  0
ARC
  8
0
 62
     7
  6
CONTINUOUS
 10
439.381245
 20
335.575240
 30
0.000000
 40
2.699881
 50
269.595263
 51
359.601217
  0
ARC
  8
0
 62
     7
  6
CONTINUOUS
 10
439.381100
 20
335.575380
 30
0.000000
 40
2.700027
 50
359.598276
 51
449.604230
  0
LINE
  8
0
 62
     7
  6
CONTINUOUS
 10
439.399750
 20
338.275342
 30
0.000000
 11
424.000175
 21
338.383312
 31
0.000000
  0
LINE
  8
0
 62
     7
  6
CONTINUOUS
 10
424.000175
 20
338.383312
 30
0.000000
 11
424.015666
 21
340.681525
 31
0.000000
  0
ARC
  8
0
 62
     7
  6
CONTINUOUS
 10
428.978508
 20
339.776118
 30
0.000000
 40
5.044756
 50
85.623884
 51
169.660829
  0
LINE
  8
0
 62
     7
  6
CONTINUOUS
 10
429.363440
 20
344.806167
 30
0.000000
 11
443.864021
 21
344.705929
 31
0.000000
  0
LINE
  8
0
 62
     7
  6
CONTINUOUS
 10
443.864021
 20
344.705929
 30
0.000000
 11
445.491829
 21
348.694283
 31
0.000000
  0
LINE
  8
0
 62
     7
  6
CONTINUOUS
 10
445.491829
 20
348.694283
 30
0.000000
 11
448.811106
 21
348.672256
 31
0.000000
  0
LINE
  8
0
 62
     7
  6
CONTINUOUS
 10
448.811106
 20
348.672256
 30
0.000000
 11
480.512528
 21
412.434309
 31
0.000000
  0
ARC
  8
0
 62
     7
  6
CONTINUOUS
 10
740.738815
 20
464.711532
 30
0.000000
 40
265.425373
 50
180.414470
 51
191.359033
  0
ARC
  8
0
 62
     7
  6
CONTINUOUS
 10
515.300865
 20
433.320805
 30
0.000000
 40
49.668504
 50
125.417557
 51
143.605068
  0
ARC
  8
0
 62
     7
  6
CONTINUOUS
 10
399.725963
 20
51.129529
 30
0.000000
 40
2.700000
 50
180.000000
 51
360.000000
  0
LINE
  8
0
 62
     7
  6
CONTINUOUS
 10
402.425963
 20
51.129529
 30
0.000000
 11
402.425963
 21
77.329529
 31
0.000000
  0
LINE
  8
0
 62
     7
  6
CONTINUOUS
 10
402.425963
 20
77.329529
 30
0.000000
 11
407.845963
 21
77.329529
 31
0.000000
  0
LINE
  8
0
 62
     7
  6
CONTINUOUS
 10
407.845963
 20
77.329529
 30
0.000000
 11
425.845963
 21
97.949529
 31
0.000000
  0
ARC
  8
0
 62
     7
  6
CONTINUOUS
 10
428.855963
 20
95.329532
 30
0.000000
 40
3.990549
 50
41.037320
 51
138.962680
  0
LINE
  8
0
 62
     7
  6
CONTINUOUS
 10
431.865963
 20
97.949529
 30
0.000000
 11
449.845963
 21
77.329529
 31
0.000000
  0
LINE
  8
0
 62
     7
  6
CONTINUOUS
 10
449.845963
 20
77.329529
 30
0.000000
 11
455.285963
 21
77.329529
 31
0.000000
  0
LINE
  8
0
 62
     7
  6
CONTINUOUS
 10
455.285963
 20
77.329529
 30
0.000000
 11
455.285963
 21
51.129529
 31
0.000000
  0
ARC
  8
0
 62
     7
  6
CONTINUOUS
 10
457.985963
 20
51.129529
 30
0.000000
 40
2.700000
 50
180.000000
 51
360.000000
  0
LINE
  8
0
 62
     7
  6
CONTINUOUS
 10
460.685963
 20
51.129529
 30
0.000000
 11
460.685963
 21
77.329529
 31
0.000000
  0
LINE
  8
0
 62
     7
  6
CONTINUOUS
 10
460.685963
 20
77.329529
 30
0.000000
 11
467.845963
 21
77.329529
 31
0.000000
  0
ARC
  8
0
 62
     7
  6
CONTINUOUS
 10
467.845966
 20
73.329532
 30
0.000000
 40
3.999997
 50
359.999957
 51
450.000043
  0
LINE
  8
0
 62
     7
  6
CONTINUOUS
 10
471.845963
 20
73.329529
 30
0.000000
 11
471.845963
 21
43.329529
 31
0.000000
  0
LINE
  8
0
 62
     7
  6
CONTINUOUS
 10
471.845963
 20
43.329529
 30
0.000000
 11
465.865963
 21
19.329529
 31
0.000000
  0
LINE
  8
0
 62
     7
  6
CONTINUOUS
 10
465.865963
 20
19.329529
 30
0.000000
 11
446.825963
 21
19.329529
 31
0.000000
  0
LINE
  8
0
 62
     7
  6
CONTINUOUS
 10
446.825963
 20
19.329529
 30
0.000000
 11
431.545963
 21
19.329529
 31
0.000000
  0
LINE
  8
0
 62
     7
  6
CONTINUOUS
 10
431.545963
 20
19.329529
 30
0.000000
 11
431.545963
 21
41.329529
 31
0.000000
  0
ARC
  8
0
 62
     7
  6
CONTINUOUS
 10
428.845963
 20
41.329529
 30
0.000000
 40
2.700000
 50
0.000000
 51
180.000000
  0
LINE
  8
0
 62
     7
  6
CONTINUOUS
 10
426.145963
 20
41.329529
 30
0.000000
 11
426.145963
 21
19.329529
 31
0.000000
  0
LINE
  8
0
 62
     7
  6
CONTINUOUS
 10
426.145963
 20
19.329529
 30
0.000000
 11
409.335963
 21
19.329529
 31
0.000000
  0
LINE
  8
0
 62
     7
  6
CONTINUOUS
 10
409.335963
 20
19.329529
 30
0.000000
 11
391.825963
 21
19.329529
 31
0.000000
  0
LINE
  8
0
 62
     7
  6
CONTINUOUS
 10
391.825963
 20
19.329529
 30
0.000000
 11
385.845963
 21
43.329529
 31
0.000000
  0
LINE
  8
0
 62
     7
  6
CONTINUOUS
 10
385.845963
 20
43.329529
 30
0.000000
 11
385.845963
 21
73.329529
 31
0.000000
  0
ARC
  8
0
 62
     7
  6
CONTINUOUS
 10
389.845960
 20
73.329532
 30
0.000000
 40
3.999997
 50
89.999957
 51
180.000043
  0
LINE
  8
0
 62
     7
  6
CONTINUOUS
 10
389.845963
 20
77.329529
 30
0.000000
 11
397.025963
 21
77.329529
 31
0.000000
  0
LINE
  8
0
 62
     7
  6
CONTINUOUS
 10
397.025963
 20
77.329529
 30
0.000000
 11
397.025963
 21
51.129529
 31
0.000000
  0
LINE
  8
0
 62
     7
  6
CONTINUOUS
 10
222.941794
 20
22.805865
 30
0.000000
 11
219.381809
 21
22.805967
 31
0.000000
  0
LINE
  8
0
 62
     7
  6
CONTINUOUS
 10
219.381809
 20
22.805967
 30
0.000000
 11
218.581809
 21
26.805967
 31
0.000000
  0
LINE
  8
0
 62
     7
  6
CONTINUOUS
 10
218.581809
 20
26.805967
 30
0.000000
 11
210.001809
 21
26.805967
 31
0.000000
  0
LINE
  8
0
 62
     7
  6
CONTINUOUS
 10
210.001809
 20
26.805967
 30
0.000000
 11
204.581809
 21
26.805967
 31
0.000000
  0
LINE
  8
0
 62
     7
  6
CONTINUOUS
 10
204.581809
 20
26.805967
 30
0.000000
 11
204.581809
 21
33.105967
 31
0.000000
  0
LINE
  8
0
 62
     7
  6
CONTINUOUS
 10
204.581809
 20
33.105967
 30
0.000000
 11
218.581809
 21
33.105967
 31
0.000000
  0
ARC
  8
0
 62
     7
  6
CONTINUOUS
 10
218.581809
 20
35.805967
 30
0.000000
 40
2.700000
 50
270.000000
 51
450.000000
  0
LINE
  8
0
 62
     7
  6
CONTINUOUS
 10
218.581809
 20
38.505967
 30
0.000000
 11
204.581809
 21
38.505967
 31
0.000000
  0
LINE
  8
0
 62
     7
  6
CONTINUOUS
 10
204.581809
 20
38.505967
 30
0.000000
 11
204.581809
 21
44.805967
 31
0.000000
  0
LINE
  8
0
 62
     7
  6
CONTINUOUS
 10
204.581809
 20
44.805967
 30
0.000000
 11
218.581809
 21
44.805967
 31
0.000000
  0
LINE
  8
0
 62
     7
  6
CONTINUOUS
 10
218.581809
 20
44.805967
 30
0.000000
 11
219.381809
 21
48.805967
 31
0.000000
  0
LINE
  8
0
 62
     7
  6
CONTINUOUS
 10
219.381809
 20
48.805967
 30
0.000000
 11
222.941809
 21
48.805967
 31
0.000000
  0
ARC
  8
0
 62
     7
  6
CONTINUOUS
 10
224.675974
 20
37.009846
 30
0.000000
 40
11.922911
 50
6.530837
 51
98.363231
  0
ARC
  8
0
 62
     7
  6
CONTINUOUS
 10
221.821839
 20
35.964537
 30
0.000000
 40
14.894535
 50
352.288779
 51
369.278103
  0
ARC
  8
0
 62
     7
  6
CONTINUOUS
 10
224.675796
 20
34.601959
 30
0.000000
 40
11.922860
 50
261.637526
 51
356.942347
  0
ARC
  8
0
 62
     7
  6
CONTINUOUS
 10
216.154556
 20
152.154063
 30
0.000000
 40
16.000089
 50
270.003191
 51
360.003276
  0
ARC
  8
0
 62
     7
  6
CONTINUOUS
 10
216.153830
 20
152.154055
 30
0.000000
 40
16.000815
 50
0.003306
 51
89.998305
  0
ARC
  8
0
 62
     7
  6
CONTINUOUS
 10
216.152934
 20
152.152471
 30
0.000000
 40
16.002399
 50
89.995098
 51
208.835744
  0
ARC
  8
0
 62
     7
  6
CONTINUOUS
 10
216.150961
 20
152.156670
 30
0.000000
 40
16.002697
 50
208.852320
 51
270.016060
  0
ARC
  8
0
 62
     7
  6
CONTINUOUS
 10
216.153281
 20
152.154069
 30
0.000000
 40
10.000003
 50
226.220138
 51
270.012665
  0
ARC
  8
0
 62
     7
  6
CONTINUOUS
 10
216.154368
 20
152.153899
 30
0.000000
 40
9.999833
 50
270.006443
 51
359.998508
  0
ARC
  8
0
 62
     7
  6
CONTINUOUS
 10
216.153829
 20
152.154082
 30
0.000000
 40
10.000372
 50
359.997459
 51
449.997545
  0
ARC
  8
0
 62
     7
  6
CONTINUOUS
 10
216.154258
 20
152.153898
 30
0.000000
 40
10.000556
 50
90.000000
 51
226.215424
  0
ARC
  8
0
 62
     7
  6
CONTINUOUS
 10
177.174136
 20
164.828308
 30
0.000000
 40
16.001815
 50
46.816811
 51
90.013007
  0
ARC
  8
0
 62
     7
  6
CONTINUOUS
 10
177.170491
 20
164.830135
 30
0.000000
 40
15.999988
 50
89.999955
 51
180.000041
  0
ARC
  8
0
 62
     7
  6
CONTINUOUS
 10
177.170553
 20
164.830051
 30
0.000000
 40
16.000050
 50
179.999737
 51
269.999823
  0
ARC
  8
0
 62
     7
  6
CONTINUOUS
 10
177.172523
 20
164.832144
 30
0.000000
 40
16.002143
 50
269.992766
 51
388.836177
  0
ARC
  8
0
 62
     7
  6
CONTINUOUS
 10
177.176020
 20
164.826665
 30
0.000000
 40
16.001724
 50
28.859401
 51
46.825757
  0
ARC
  8
0
 62
     7
  6
CONTINUOUS
 10
382.015080
 20
171.048852
 30
0.000000
 40
4.005495
 50
349.617180
 51
423.295640
  0
ARC
  8
0
 62
     7
  6
CONTINUOUS
 10
397.994999
 20
193.331267
 30
0.000000
 40
23.471581
 50
124.102084
 51
232.833690
  0
ARC
  8
0
 62
     7
  6
CONTINUOUS
 10
382.010943
 20
215.614947
 30
0.000000
 40
4.011126
 50
314.757510
 51
370.514273
  0
ARC
  8
0
 62
     7
  6
CONTINUOUS
 10
509.400757
 20
259.806912
 30
0.000000
 40
130.872826
 50
196.185234
 51
199.394963
  0
ARC
  8
0
 62
     7
  6
CONTINUOUS
 10
527.588481
 20
266.206860
 30
0.000000
 40
150.127495
 50
188.866633
 51
196.596111
  0
ARC
  8
0
 62
     7
  6
CONTINUOUS
 10
452.720683
 20
255.557603
 30
0.000000
 40
74.519910
 50
184.734407
 51
189.649172
  0
ARC
  8
0
 62
     7
  6
CONTINUOUS
 10
452.715049
 20
255.581272
 30
0.000000
 40
74.516253
 50
173.383752
 51
184.752901
  0
ARC
  8
0
 62
     7
  6
CONTINUOUS
 10
420.196378
 20
260.343436
 30
0.000000
 40
41.677070
 50
168.928343
 51
174.736204
  0
ARC
  8
0
 62
     7
  6
CONTINUOUS
 10
418.409454
 20
260.614590
 30
0.000000
 40
39.871408
 50
160.891281
 51
168.817626
  0
ARC
  8
0
 62
     7
  6
CONTINUOUS
 10
407.840968
 20
265.743244
 30
0.000000
 40
28.240379
 50
151.110210
 51
163.705108
  0
ARC
  8
0
 62
     7
  6
CONTINUOUS
 10
398.005062
 20
271.706946
 30
0.000000
 40
16.753905
 50
27.283981
 51
152.716165
  0
ARC
  8
0
 62
     7
  6
CONTINUOUS
 10
373.987166
 20
259.836510
 30
0.000000
 40
43.543552
 50
5.707527
 51
26.678644
  0
ARC
  8
0
 62
     7
  6
CONTINUOUS
 10
343.295257
 20
255.573894
 30
0.000000
 40
74.516714
 50
350.337718
 51
366.621909
  0
ARC
  8
0
 62
     7
  6
CONTINUOUS
 10
268.421364
 20
266.206047
 30
0.000000
 40
150.127451
 50
343.404208
 51
351.133685
  0
ARC
  8
0
 62
     7
  6
CONTINUOUS
 10
286.639615
 20
259.895069
 30
0.000000
 40
130.868305
 50
340.386918
 51
343.773998
  0
ARC
  8
0
 62
     7
  6
CONTINUOUS
 10
411.913086
 20
214.952769
 30
0.000000
 40
2.240691
 50
153.088304
 51
244.689172
  0
ARC
  8
0
 62
     7
  6
CONTINUOUS
 10
397.994999
 20
193.329492
 30
0.000000
 40
23.495410
 50
304.241299
 51
416.522979
  0
ARC
  8
0
 62
     7
  6
CONTINUOUS
 10
411.987016
 20
171.728659
 30
0.000000
 40
2.310424
 50
109.510491
 51
206.247978
  0
ARC
  8
0
 62
     7
  6
CONTINUOUS
 10
286.632888
 20
126.772171
 30
0.000000
 40
130.876631
 50
16.227981
 51
19.614832
  0
ARC
  8
0
 62
     7
  6
CONTINUOUS
 10
268.421553
 20
120.467107
 30
0.000000
 40
150.127489
 50
8.866611
 51
16.596088
  0
ARC
  8
0
 62
     7
  6
CONTINUOUS
 10
343.295484
 20
131.092275
 30
0.000000
 40
74.517899
 50
353.368708
 51
369.668177
  0
ARC
  8
0
 62
     7
  6
CONTINUOUS
 10
373.993218
 20
126.840865
 30
0.000000
 40
43.539865
 50
333.313703
 51
354.260955
  0
ARC
  8
0
 62
     7
  6
CONTINUOUS
 10
398.005111
 20
114.966961
 30
0.000000
 40
16.754025
 50
207.283765
 51
332.715950
  0
ARC
  8
0
 62
     7
  6
CONTINUOUS
 10
407.824971
 20
120.951129
 30
0.000000
 40
28.236349
 50
196.382808
 51
208.941832
  0
ARC
  8
0
 62
     7
  6
CONTINUOUS
 10
418.435487
 20
125.969114
 30
0.000000
 40
39.873032
 50
190.055870
 51
199.001155
  0
ARC
  8
0
 62
     7
  6
CONTINUOUS
 10
420.166494
 20
126.434073
 30
0.000000
 40
41.658923
 50
185.436847
 51
190.269831
  0
ARC
  8
0
 62
     7
  6
CONTINUOUS
 10
452.714521
 20
131.091230
 30
0.000000
 40
74.517954
 50
170.331027
 51
186.630495
  0
ARC
  8
0
 62
     7
  6
CONTINUOUS
 10
527.588634
 20
120.467706
 30
0.000000
 40
150.127457
 50
163.404147
 51
171.133625
  0
ARC
  8
0
 62
     7
  6
CONTINUOUS
 10
509.409001
 20
126.859300
 30
0.000000
 40
130.882892
 50
160.603037
 51
163.812537
  0
ARC
  8
0
 62
     7
  6
CONTINUOUS
 10
177.170334
 20
164.829970
 30
0.000000
 40
9.999831
 50
89.999032
 51
179.999117
  0
ARC
  8
0
 62
     7
  6
CONTINUOUS
 10
177.170496
 20
164.830117
 30
0.000000
 40
9.999993
 50
179.999957
 51
270.000043
  0
ARC
  8
0
 62
     7
  6
CONTINUOUS
 10
177.170577
 20
164.830309
 30
0.000000
 40
10.000185
 50
269.999575
 51
406.214999
  0
ARC
  8
0
 62
     7
  6
CONTINUOUS
 10
177.171634
 20
164.830449
 30
0.000000
 40
9.999352
 50
46.218815
 51
90.006482
  0
LINE
  8
0
 62
     7
  6
CONTINUOUS
 10
237.920396
 20
195.059788
 30
0.000000
 11
234.360411
 21
195.059890
 31
0.000000
  0
LINE
  8
0
 62
     7
  6
CONTINUOUS
 10
234.360411
 20
195.059890
 30
0.000000
 11
233.560411
 21
199.059890
 31
0.000000
  0
LINE
  8
0
 62
     7
  6
CONTINUOUS
 10
233.560411
 20
199.059890
 30
0.000000
 11
224.980411
 21
199.059890
 31
0.000000
  0
LINE
  8
0
 62
     7
  6
CONTINUOUS
 10
224.980411
 20
199.059890
 30
0.000000
 11
219.560411
 21
199.059890
 31
0.000000
  0
LINE
  8
0
 62
     7
  6
CONTINUOUS
 10
219.560411
 20
199.059890
 30
0.000000
 11
219.560411
 21
205.359890
 31
0.000000
  0
LINE
  8
0
 62
     7
  6
CONTINUOUS
 10
219.560411
 20
205.359890
 30
0.000000
 11
233.560411
 21
205.359890
 31
0.000000
  0
ARC
  8
0
 62
     7
  6
CONTINUOUS
 10
233.560411
 20
208.059890
 30
0.000000
 40
2.700000
 50
270.000000
 51
450.000000
  0
LINE
  8
0
 62
     7
  6
CONTINUOUS
 10
233.560411
 20
210.759890
 30
0.000000
 11
219.560411
 21
210.759890
 31
0.000000
  0
LINE
  8
0
 62
     7
  6
CONTINUOUS
 10
219.560411
 20
210.759890
 30
0.000000
 11
219.560411
 21
217.059890
 31
0.000000
  0
LINE
  8
0
 62
     7
  6
CONTINUOUS
 10
219.560411
 20
217.059890
 30
0.000000
 11
233.560411
 21
217.059890
 31
0.000000
  0
LINE
  8
0
 62
     7
  6
CONTINUOUS
 10
233.560411
 20
217.059890
 30
0.000000
 11
234.360411
 21
221.059890
 31
0.000000
  0
LINE
  8
0
 62
     7
  6
CONTINUOUS
 10
234.360411
 20
221.059890
 30
0.000000
 11
237.920411
 21
221.059889
 31
0.000000
  0
ARC
  8
0
 62
     7
  6
CONTINUOUS
 10
239.654577
 20
209.263768
 30
0.000000
 40
11.922911
 50
6.530839
 51
98.363234
  0
ARC
  8
0
 62
     7
  6
CONTINUOUS
 10
236.800441
 20
208.218460
 30
0.000000
 40
14.894535
 50
352.288779
 51
369.278103
  0
ARC
  8
0
 62
     7
  6
CONTINUOUS
 10
239.654398
 20
206.855882
 30
0.000000
 40
11.922860
 50
261.637526
 51
356.942347
  0
LINE
  8
0
 62
     7
  6
CONTINUOUS
 10
124.354538
 20
136.797861
 30
0.000000
 11
122.754541
 21
136.798064
 31
0.000000
  0
LINE
  8
0
 62
     7
  6
CONTINUOUS
 10
122.754541
 20
136.798064
 30
0.000000
 11
122.754527
 21
144.798064
 31
0.000000
  0
LINE
  8
0
 62
     7
  6
CONTINUOUS
 10
122.754527
 20
144.798064
 30
0.000000
 11
108.754527
 21
144.798038
 31
0.000000
  0
LINE
  8
0
 62
     7
  6
CONTINUOUS
 10
108.754527
 20
144.798038
 30
0.000000
 11
108.754516
 21
151.098064
 31
0.000000
  0
LINE
  8
0
 62
     7
  6
CONTINUOUS
 10
108.754516
 20
151.098064
 30
0.000000
 11
122.754511
 21
151.098064
 31
0.000000
  0
ARC
  8
0
 62
     7
  6
CONTINUOUS
 10
122.754511
 20
153.798064
 30
0.000000
 40
2.700000
 50
270.000000
 51
450.000000
  0
LINE
  8
0
 62
     7
  6
CONTINUOUS
 10
122.754511
 20
156.498064
 30
0.000000
 11
108.754506
 21
156.498064
 31
0.000000
  0
LINE
  8
0
 62
     7
  6
CONTINUOUS
 10
108.754506
 20
156.498064
 30
0.000000
 11
108.754495
 21
162.798038
 31
0.000000
  0
LINE
  8
0
 62
     7
  6
CONTINUOUS
 10
108.754495
 20
162.798038
 30
0.000000
 11
115.274495
 21
162.798050
 31
0.000000
  0
LINE
  8
0
 62
     7
  6
CONTINUOUS
 10
115.274495
 20
162.798050
 30
0.000000
 11
122.754495
 21
162.798064
 31
0.000000
  0
LINE
  8
0
 62
     7
  6
CONTINUOUS
 10
122.754495
 20
162.798064
 30
0.000000
 11
122.754481
 21
170.778064
 31
0.000000
  0
LINE
  8
0
 62
     7
  6
CONTINUOUS
 10
122.754481
 20
170.778064
 30
0.000000
 11
124.334481
 21
170.778066
 31
0.000000
  0
ARC
  8
0
 62
     7
  6
CONTINUOUS
 10
124.846776
 20
134.322027
 30
0.000000
 40
36.459638
 50
36.870267
 51
90.805090
  0
ARC
  8
0
 62
     7
  6
CONTINUOUS
 10
150.814507
 20
153.797945
 30
0.000000
 40
3.999902
 50
323.132166
 51
396.871893
  0
ARC
  8
0
 62
     7
  6
CONTINUOUS
 10
124.831474
 20
173.255776
 30
0.000000
 40
36.461034
 50
269.250509
 51
323.167344
  0
ARC
  8
0
 62
     7
  6
CONTINUOUS
 10
258.126484
 20
98.121757
 30
0.000000
 40
7.999995
 50
90.065099
 51
180.065185
  0
LINE
  8
0
 62
     7
  6
CONTINUOUS
 10
250.126494
 20
98.112656
 30
0.000000
 11
250.190611
 21
46.112696
 31
0.000000
  0
LINE
  8
0
 62
     7
  6
CONTINUOUS
 10
250.190611
 20
46.112696
 30
0.000000
 11
261.490603
 21
46.126478
 31
0.000000
  0
LINE
  8
0
 62
     7
  6
CONTINUOUS
 10
261.490603
 20
46.126478
 30
0.000000
 11
261.455771
 21
74.126457
 31
0.000000
  0
LINE
  8
0
 62
     7
  6
CONTINUOUS
 10
261.455771
 20
74.126457
 30
0.000000
 11
266.855769
 21
74.131712
 31
0.000000
  0
LINE
  8
0
 62
     7
  6
CONTINUOUS
 10
266.855769
 20
74.131712
 30
0.000000
 11
266.890602
 21
46.131752
 31
0.000000
  0
LINE
  8
0
 62
     7
  6
CONTINUOUS
 10
266.890602
 20
46.131752
 30
0.000000
 11
298.370577
 21
46.171515
 31
0.000000
  0
LINE
  8
0
 62
     7
  6
CONTINUOUS
 10
298.370577
 20
46.171515
 30
0.000000
 11
334.490552
 21
46.213747
 31
0.000000
  0
LINE
  8
0
 62
     7
  6
CONTINUOUS
 10
334.490552
 20
46.213747
 30
0.000000
 11
334.455721
 21
74.213711
 31
0.000000
  0
LINE
  8
0
 62
     7
  6
CONTINUOUS
 10
334.455721
 20
74.213711
 30
0.000000
 11
339.855716
 21
74.220956
 31
0.000000
  0
LINE
  8
0
 62
     7
  6
CONTINUOUS
 10
339.855716
 20
74.220956
 30
0.000000
 11
339.890548
 21
46.220980
 31
0.000000
  0
LINE
  8
0
 62
     7
  6
CONTINUOUS
 10
339.890548
 20
46.220980
 30
0.000000
 11
351.190539
 21
46.234771
 31
0.000000
  0
LINE
  8
0
 62
     7
  6
CONTINUOUS
 10
351.190539
 20
46.234771
 30
0.000000
 11
351.130194
 21
95.234733
 31
0.000000
  0
ARC
  8
0
 62
     7
  6
CONTINUOUS
 10
343.132780
 20
95.225493
 30
0.000000
 40
7.997420
 50
0.066196
 51
105.750338
  0
LINE
  8
0
 62
     7
  6
CONTINUOUS
 10
340.961911
 20
102.922639
 30
0.000000
 11
339.117336
 21
106.220084
 31
0.000000
  0
LINE
  8
0
 62
     7
  6
CONTINUOUS
 10
339.117336
 20
106.220084
 30
0.000000
 11
326.997147
 21
106.205421
 31
0.000000
  0
ARC
  8
0
 62
     7
  6
CONTINUOUS
 10
290.171941
 20
133.406632
 30
0.000000
 40
45.782111
 50
295.269176
 51
323.548296
  0
ARC
  8
0
 62
     7
  6
CONTINUOUS
 10
295.624854
 20
120.905782
 30
0.000000
 40
32.152298
 50
254.801949
 51
295.991122
  0
ARC
  8
0
 62
     7
  6
CONTINUOUS
 10
297.786761
 20
115.232851
 30
0.000000
 40
27.477889
 50
199.326978
 51
247.329486
  0
LINE
  8
0
 62
     7
  6
CONTINUOUS
 10
271.857383
 20
106.138803
 30
0.000000
 11
258.117394
 21
106.121747
 31
0.000000
  0
LINE
  8
0
 62
     7
  6
CONTINUOUS
 10
358.911412
 20
225.183632
 30
0.000000
 11
352.913309
 21
225.191197
 31
0.000000
  0
ARC
  8
0
 62
     7
  6
CONTINUOUS
 10
335.716775
 20
233.685719
 30
0.000000
 40
19.180137
 50
276.419360
 51
333.712144
  0
LINE
  8
0
 62
     7
  6
CONTINUOUS
 10
337.861205
 20
214.625837
 30
0.000000
 11
270.982148
 21
214.692751
 31
0.000000
  0
LINE
  8
0
 62
     7
  6
CONTINUOUS
 10
270.982148
 20
214.692751
 30
0.000000
 11
257.430469
 21
243.286842
 31
0.000000
  0
LINE
  8
0
 62
     7
  6
CONTINUOUS
 10
257.430469
 20
243.286842
 30
0.000000
 11
207.231644
 21
243.336876
 31
0.000000
  0
LINE
  8
0
 62
     7
  6
CONTINUOUS
 10
207.231644
 20
243.336876
 30
0.000000
 11
207.244027
 21
256.336731
 31
0.000000
  0
ARC
  8
0
 62
     7
  6
CONTINUOUS
 10
204.544171
 20
256.339475
 30
0.000000
 40
2.699858
 50
359.941759
 51
449.949083
  0
ARC
  8
0
 62
     7
  6
CONTINUOUS
 10
204.544000
 20
256.339301
 30
0.000000
 40
2.700032
 50
89.945466
 51
179.952789
  0
LINE
  8
0
 62
     7
  6
CONTINUOUS
 10
201.843969
 20
256.341526
 30
0.000000
 11
201.797437
 21
211.302799
 31
0.000000
  0
ARC
  8
0
 62
     7
  6
CONTINUOUS
 10
197.798873
 20
211.305348
 30
0.000000
 40
3.998564
 50
269.935027
 51
359.963476
  0
LINE
  8
0
 62
     7
  6
CONTINUOUS
 10
197.794339
 20
207.306786
 30
0.000000
 11
155.653664
 21
207.348047
 31
0.000000
  0
LINE
  8
0
 62
     7
  6
CONTINUOUS
 10
155.653664
 20
207.348047
 30
0.000000
 11
101.794800
 21
207.402775
 31
0.000000
  0
ARC
  8
0
 62
     7
  6
CONTINUOUS
 10
127.038099
 20
168.518887
 30
0.000000
 40
46.359259
 50
122.991508
 51
162.316345
  0
ARC
  8
0
 62
     7
  6
CONTINUOUS
 10
55.801959
 20
190.530447
 30
0.000000
 40
28.204999
 50
257.694359
 51
343.672043
  0
ARC
  8
0
 62
     7
  6
CONTINUOUS
 10
64.110743
 20
207.825779
 30
0.000000
 40
47.082827
 50
178.026510
 51
252.293251
  0
LINE
  8
0
 62
     7
  6
CONTINUOUS
 10
17.055843
 20
209.447174
 30
0.000000
 11
17.068926
 21
222.787384
 31
0.000000
  0
LINE
  8
0
 62
     7
  6
CONTINUOUS
 10
17.068926
 20
222.787384
 30
0.000000
 11
121.070573
 21
222.682318
 31
0.000000
  0
LINE
  8
0
 62
     7
  6
CONTINUOUS
 10
121.070573
 20
222.682318
 30
0.000000
 11
121.075024
 21
228.082376
 31
0.000000
  0
LINE
  8
0
 62
     7
  6
CONTINUOUS
 10
121.075024
 20
228.082376
 30
0.000000
 11
19.167050
 21
228.185345
 31
0.000000
  0
ARC
  8
0
 62
     7
  6
CONTINUOUS
 10
61.390932
 20
206.481268
 30
0.000000
 40
47.475501
 50
139.807895
 51
152.795761
  0
ARC
  8
0
 62
     7
  6
CONTINUOUS
 10
54.357321
 20
215.758719
 30
0.000000
 40
36.205159
 50
133.468902
 51
143.843118
  0
ARC
  8
0
 62
     7
  6
CONTINUOUS
 10
48.582537
 20
224.258925
 30
0.000000
 40
26.115933
 50
100.470224
 51
137.106138
  0
LINE
  8
0
 62
     7
  6
CONTINUOUS
 10
43.836632
 20
249.940014
 30
0.000000
 11
60.457672
 21
250.583334
 31
0.000000
  0
LINE
  8
0
 62
     7
  6
CONTINUOUS
 10
60.457672
 20
250.583334
 30
0.000000
 11
57.926210
 21
259.325435
 31
0.000000
  0
ARC
  8
0
 62
     7
  6
CONTINUOUS
 10
53.387735
 20
274.675427
 30
0.000000
 40
16.006874
 50
126.477982
 51
286.471172
  0
ARC
  8
0
 62
     7
  6
CONTINUOUS
 10
53.387396
 20
274.676105
 30
0.000000
 40
16.006127
 50
326.484186
 51
486.478452
  0
LINE
  8
0
 62
     7
  6
CONTINUOUS
 10
66.732240
 20
265.838048
 30
0.000000
 11
76.685252
 21
258.306335
 31
0.000000
  0
ARC
  8
0
 62
     7
  6
CONTINUOUS
 10
206.259357
 20
-62.606820
 30
0.000000
 40
346.084819
 50
100.875059
 51
111.987225
  0
ARC
  8
0
 62
     7
  6
CONTINUOUS
 10
164.387196
 20
179.201246
 30
0.000000
 40
100.819997
 50
90.272718
 51
103.433968
  0
LINE
  8
0
 62
     7
  6
CONTINUOUS
 10
163.907313
 20
280.020101
 30
0.000000
 11
233.586427
 21
279.950240
 31
0.000000
  0
LINE
  8
0
 62
     7
  6
CONTINUOUS
 10
233.586427
 20
279.950240
 30
0.000000
 11
233.592862
 21
285.350308
 31
0.000000
  0
LINE
  8
0
 62
     7
  6
CONTINUOUS
 10
233.592862
 20
285.350308
 30
0.000000
 11
189.648289
 21
285.393704
 31
0.000000
  0
ARC
  8
0
 62
     7
  6
CONTINUOUS
 10
203.668576
 20
284.116736
 30
0.000000
 40
14.078320
 50
97.273469
 51
174.795858
  0
LINE
  8
0
 62
     7
  6
CONTINUOUS
 10
201.886186
 20
298.081770
 30
0.000000
 11
270.845245
 21
298.013057
 31
0.000000
  0
LINE
  8
0
 62
     7
  6
CONTINUOUS
 10
270.845245
 20
298.013057
 30
0.000000
 11
270.799274
 21
252.012322
 31
0.000000
  0
LINE
  8
0
 62
     7
  6
CONTINUOUS
 10
270.799274
 20
252.012322
 30
0.000000
 11
276.199333
 21
252.007881
 31
0.000000
  0
LINE
  8
0
 62
     7
  6
CONTINUOUS
 10
276.199333
 20
252.007881
 30
0.000000
 11
276.245313
 21
298.006614
 31
0.000000
  0
LINE
  8
0
 62
     7
  6
CONTINUOUS
 10
276.245313
 20
298.006614
 30
0.000000
 11
293.045591
 21
297.990261
 31
0.000000
  0
ARC
  8
0
 62
     7
  6
CONTINUOUS
 10
293.043072
 20
295.990228
 30
0.000000
 40
2.000035
 50
359.927751
 51
449.927837
  0
LINE
  8
0
 62
     7
  6
CONTINUOUS
 10
295.043105
 20
295.987706
 30
0.000000
 11
295.036587
 21
289.767606
 31
0.000000
  0
ARC
  8
0
 62
     7
  6
CONTINUOUS
 10
284.703552
 20
219.139538
 30
0.000000
 40
71.379938
 50
19.690719
 51
81.676557
  0
LINE
  8
0
 62
     7
  6
CONTINUOUS
 10
351.909558
 20
243.190491
 30
0.000000
 11
358.930096
 21
243.183917
 31
0.000000
  0
ARC
  8
0
 62
     7
  6
CONTINUOUS
 10
358.927058
 20
239.183861
 30
0.000000
 40
4.000057
 50
359.956399
 51
449.956484
  0
LINE
  8
0
 62
     7
  6
CONTINUOUS
 10
362.927114
 20
239.180817
 30
0.000000
 11
362.924036
 21
236.880765
 31
0.000000
  0
LINE
  8
0
 62
     7
  6
CONTINUOUS
 10
362.924036
 20
236.880765
 30
0.000000
 11
352.923894
 21
236.891367
 31
0.000000
  0
LINE
  8
0
 62
     7
  6
CONTINUOUS
 10
352.923894
 20
236.891367
 30
0.000000
 11
352.919429
 21
231.491309
 31
0.000000
  0
LINE
  8
0
 62
     7
  6
CONTINUOUS
 10
352.919429
 20
231.491309
 30
0.000000
 11
362.919501
 21
231.480706
 31
0.000000
  0
LINE
  8
0
 62
     7
  6
CONTINUOUS
 10
362.919501
 20
231.480706
 30
0.000000
 11
362.916511
 21
229.180654
 31
0.000000
  0
ARC
  8
0
 62
     7
  6
CONTINUOUS
 10
358.916449
 20
229.183692
 30
0.000000
 40
4.000063
 50
269.927846
 51
359.956490
  0
ARC
  8
0
 62
     7
  6
CONTINUOUS
 10
257.904812
 20
166.352565
 30
0.000000
 40
7.999995
 50
90.065099
 51
180.065185
  0
LINE
  8
0
 62
     7
  6
CONTINUOUS
 10
249.904822
 20
166.343464
 30
0.000000
 11
249.968939
 21
114.343504
 31
0.000000
  0
LINE
  8
0
 62
     7
  6
CONTINUOUS
 10
249.968939
 20
114.343504
 30
0.000000
 11
261.268931
 21
114.357286
 31
0.000000
  0
LINE
  8
0
 62
     7
  6
CONTINUOUS
 10
261.268931
 20
114.357286
 30
0.000000
 11
261.234099
 21
142.357264
 31
0.000000
  0
LINE
  8
0
 62
     7
  6
CONTINUOUS
 10
261.234099
 20
142.357264
 30
0.000000
 11
266.634097
 21
142.362520
 31
0.000000
  0
LINE
  8
0
 62
     7
  6
CONTINUOUS
 10
266.634097
 20
142.362520
 30
0.000000
 11
266.668930
 21
114.362559
 31
0.000000
  0
LINE
  8
0
 62
     7
  6
CONTINUOUS
 10
266.668930
 20
114.362559
 30
0.000000
 11
298.148905
 21
114.402322
 31
0.000000
  0
LINE
  8
0
 62
     7
  6
CONTINUOUS
 10
298.148905
 20
114.402322
 30
0.000000
 11
334.268880
 21
114.444555
 31
0.000000
  0
LINE
  8
0
 62
     7
  6
CONTINUOUS
 10
334.268880
 20
114.444555
 30
0.000000
 11
334.234049
 21
142.444519
 31
0.000000
  0
LINE
  8
0
 62
     7
  6
CONTINUOUS
 10
334.234049
 20
142.444519
 30
0.000000
 11
339.634044
 21
142.451763
 31
0.000000
  0
LINE
  8
0
 62
     7
  6
CONTINUOUS
 10
339.634044
 20
142.451763
 30
0.000000
 11
339.668876
 21
114.451788
 31
0.000000
  0
LINE
  8
0
 62
     7
  6
CONTINUOUS
 10
339.668876
 20
114.451788
 30
0.000000
 11
350.968867
 21
114.465578
 31
0.000000
  0
LINE
  8
0
 62
     7
  6
CONTINUOUS
 10
350.968867
 20
114.465578
 30
0.000000
 11
350.908522
 21
163.465541
 31
0.000000
  0
ARC
  8
0
 62
     7
  6
CONTINUOUS
 10
342.911108
 20
163.456301
 30
0.000000
 40
7.997420
 50
0.066196
 51
105.750338
  0
LINE
  8
0
 62
     7
  6
CONTINUOUS
 10
340.740239
 20
171.153447
 30
0.000000
 11
338.895664
 21
174.450891
 31
0.000000
  0
LINE
  8
0
 62
     7
  6
CONTINUOUS
 10
338.895664
 20
174.450891
 30
0.000000
 11
326.775475
 21
174.436228
 31
0.000000
  0
ARC
  8
0
 62
     7
  6
CONTINUOUS
 10
289.950271
 20
201.637440
 30
0.000000
 40
45.782110
 50
295.269174
 51
323.548294
  0
ARC
  8
0
 62
     7
  6
CONTINUOUS
 10
295.403181
 20
189.136590
 30
0.000000
 40
32.152298
 50
254.801951
 51
295.991125
  0
ARC
  8
0
 62
     7
  6
CONTINUOUS
 10
297.565089
 20
183.463658
 30
0.000000
 40
27.477889
 50
199.326978
 51
247.329486
  0
LINE
  8
0
 62
     7
  6
CONTINUOUS
 10
271.635711
 20
174.369610
 30
0.000000
 11
257.895722
 21
174.352555
 31
0.000000
  0
ARC
  8
0
 62
     7
  6
CONTINUOUS
 10
52.416250
 20
113.685934
 30
0.000000
 40
43.376173
 50
162.009218
 51
204.869191
  0
ARC
  8
0
 62
     7
  6
CONTINUOUS
 10
44.010846
 20
110.877718
 30
0.000000
 40
34.583299
 50
206.504729
 51
220.099945
  0
ARC
  8
0
 62
     7
  6
CONTINUOUS
 10
20.226890
 20
90.300498
 30
0.000000
 40
3.164191
 50
212.469009
 51
263.037604
  0
ARC
  8
0
 62
     7
  6
CONTINUOUS
 10
19.345841
 20
83.185717
 30
0.000000
 40
4.004942
 50
305.920651
 51
442.864306
  0
ARC
  8
0
 62
     7
  6
CONTINUOUS
 10
18.286971
 20
81.711533
 30
0.000000
 40
3.840211
 50
257.507315
 51
332.568497
  0
ARC
  8
0
 62
     7
  6
CONTINUOUS
 10
43.484417
 20
55.206251
 30
0.000000
 40
34.573102
 50
138.837311
 51
148.606737
  0
ARC
  8
0
 62
     7
  6
CONTINUOUS
 10
36.070091
 20
59.436347
 30
0.000000
 40
26.041860
 50
148.053765
 51
161.037747
  0
ARC
  8
0
 62
     7
  6
CONTINUOUS
 10
51.833528
 20
52.084186
 30
0.000000
 40
43.377567
 50
158.618627
 51
196.909366
  0
ARC
  8
0
 62
     7
  6
CONTINUOUS
 10
47.274983
 20
47.627183
 30
0.000000
 40
37.834029
 50
192.454946
 51
211.744076
  0
ARC
  8
0
 62
     7
  6
CONTINUOUS
 10
52.631392
 20
50.154171
 30
0.000000
 40
43.723790
 50
210.867147
 51
228.473570
  0
ARC
  8
0
 62
     7
  6
CONTINUOUS
 10
42.809607
 20
37.940323
 30
0.000000
 40
28.078255
 50
226.954634
 51
327.598043
  0
ARC
  8
0
 62
     7
  6
CONTINUOUS
 10
-37.014989
 20
97.847033
 30
0.000000
 40
127.814827
 50
324.096945
 51
344.417221
  0
ARC
  8
0
 62
     7
  6
CONTINUOUS
 10
89.951499
 20
62.433708
 30
0.000000
 40
3.997893
 50
78.195653
 51
164.351260
  0
LINE
  8
0
 62
     7
  6
CONTINUOUS
 10
90.769349
 20
66.347053
 30
0.000000
 11
138.478545
 21
56.474311
 31
0.000000
  0
LINE
  8
0
 62
     7
  6
CONTINUOUS
 10
138.478545
 20
56.474311
 30
0.000000
 11
186.187539
 21
46.600630
 31
0.000000
  0
ARC
  8
0
 62
     7
  6
CONTINUOUS
 10
186.605260
 20
48.558033
 30
0.000000
 40
2.001478
 50
257.953446
 51
359.472470
  0
LINE
  8
0
 62
     7
  6
CONTINUOUS
 10
188.606654
 20
48.539605
 30
0.000000
 11
188.893958
 21
78.957685
 31
0.000000
  0
LINE
  8
0
 62
     7
  6
CONTINUOUS
 10
188.893958
 20
78.957685
 30
0.000000
 11
108.897938
 21
79.716010
 31
0.000000
  0
LINE
  8
0
 62
     7
  6
CONTINUOUS
 10
108.897938
 20
79.716010
 30
0.000000
 11
108.948425
 21
85.115382
 31
0.000000
  0
LINE
  8
0
 62
     7
  6
CONTINUOUS
 10
108.948425
 20
85.115382
 30
0.000000
 11
188.944446
 21
84.357055
 31
0.000000
  0
LINE
  8
0
 62
     7
  6
CONTINUOUS
 10
188.944446
 20
84.357055
 30
0.000000
 11
189.231349
 21
114.636285
 31
0.000000
  0
ARC
  8
0
 62
     7
  6
CONTINUOUS
 10
187.232231
 20
114.655766
 30
0.000000
 40
1.999213
 50
359.441684
 51
461.028422
  0
LINE
  8
0
 62
     7
  6
CONTINUOUS
 10
186.849790
 20
116.618058
 30
0.000000
 11
135.797951
 21
107.061049
 31
0.000000
  0
LINE
  8
0
 62
     7
  6
CONTINUOUS
 10
135.797951
 20
107.061049
 30
0.000000
 11
91.077022
 21
98.685054
 31
0.000000
  0
ARC
  8
0
 62
     7
  6
CONTINUOUS
 10
90.332855
 20
102.611999
 30
0.000000
 40
3.996834
 50
194.530252
 51
280.730471
  0
ARC
  8
0
 62
     7
  6
CONTINUOUS
 10
-37.287303
 20
69.609343
 30
0.000000
 40
127.821526
 50
14.498117
 51
34.816801
  0
ARC
  8
0
 62
     7
  6
CONTINUOUS
 10
43.672947
 20
127.995843
 30
0.000000
 40
28.070719
 50
31.325033
 51
132.004489
  0
ARC
  8
0
 62
     7
  6
CONTINUOUS
 10
53.229590
 20
115.553110
 30
0.000000
 40
43.729181
 50
130.399142
 51
147.982098
  0
ARC
  8
0
 62
     7
  6
CONTINUOUS
 10
47.945128
 20
118.224931
 30
0.000000
 40
37.835823
 50
147.169866
 51
166.459905
  0
ARC
  8
0
 62
     7
  6
CONTINUOUS
 10
51.005516
 20
350.008080
 30
0.000000
 40
44.697190
 50
90.011460
 51
268.596181
  0
LINE
  8
0
 62
     7
  6
CONTINUOUS
 10
49.910488
 20
305.324306
 30
0.000000
 11
181.250486
 21
305.344748
 31
0.000000
  0
LINE
  8
0
 62
     7
  6
CONTINUOUS
 10
181.250486
 20
305.344748
 30
0.000000
 11
312.590484
 21
305.365190
 31
0.000000
  0
LINE
  8
0
 62
     7
  6
CONTINUOUS
 10
312.590484
 20
305.365190
 30
0.000000
 11
368.010484
 21
305.373264
 31
0.000000
  0
ARC
  8
0
 62
     7
  6
CONTINUOUS
 10
368.003514
 20
350.050098
 30
0.000000
 40
44.676834
 50
270.008939
 51
448.621150
  0
ARC
  8
0
 62
     7
  6
CONTINUOUS
 10
367.203160
 20
350.432480
 30
0.000000
 40
44.321211
 50
87.574848
 51
90.005932
  0
LINE
  8
0
 62
     7
  6
CONTINUOUS
 10
367.198572
 20
394.753691
 30
0.000000
 11
352.036572
 21
394.751331
 31
0.000000
  0
ARC
  8
0
 62
     7
  6
CONTINUOUS
 10
352.036882
 20
392.751333
 30
0.000000
 40
1.999998
 50
90.008881
 51
180.008967
  0
LINE
  8
0
 62
     7
  6
CONTINUOUS
 10
350.036884
 20
392.751020
 30
0.000000
 11
350.043383
 21
350.991020
 31
0.000000
  0
ARC
  8
0
 62
     7
  6
CONTINUOUS
 10
347.343384
 20
350.990600
 30
0.000000
 40
2.700000
 50
180.008913
 51
360.008913
  0
LINE
  8
0
 62
     7
  6
CONTINUOUS
 10
344.643384
 20
350.990180
 30
0.000000
 11
344.636884
 21
392.750179
 31
0.000000
  0
ARC
  8
0
 62
     7
  6
CONTINUOUS
 10
342.636885
 20
392.749869
 30
0.000000
 40
1.999999
 50
0.008867
 51
90.008952
  0
LINE
  8
0
 62
     7
  6
CONTINUOUS
 10
342.636573
 20
394.749868
 30
0.000000
 11
296.036573
 21
394.742615
 31
0.000000
  0
ARC
  8
0
 62
     7
  6
CONTINUOUS
 10
296.036883
 20
392.742616
 30
0.000000
 40
1.999999
 50
90.008867
 51
180.008952
  0
LINE
  8
0
 62
     7
  6
CONTINUOUS
 10
294.036884
 20
392.742304
 30
0.000000
 11
294.043384
 21
350.982304
 31
0.000000
  0
ARC
  8
0
 62
     7
  6
CONTINUOUS
 10
291.343384
 20
350.981884
 30
0.000000
 40
2.700000
 50
180.008913
 51
360.008913
  0
LINE
  8
0
 62
     7
  6
CONTINUOUS
 10
288.643384
 20
350.981464
 30
0.000000
 11
288.636884
 21
392.741463
 31
0.000000
  0
ARC
  8
0
 62
     7
  6
CONTINUOUS
 10
286.636885
 20
392.741153
 30
0.000000
 40
1.999999
 50
0.008867
 51
90.008952
  0
LINE
  8
0
 62
     7
  6
CONTINUOUS
 10
286.636573
 20
394.741152
 30
0.000000
 11
266.684573
 21
394.738046
 31
0.000000
  0
LINE
  8
0
 62
     7
  6
CONTINUOUS
 10
266.684573
 20
394.738046
 30
0.000000
 11
241.796574
 21
394.734473
 31
0.000000
  0
ARC
  8
0
 62
     7
  6
CONTINUOUS
 10
241.796730
 20
392.732021
 30
0.000000
 40
2.002452
 50
90.004459
 51
177.084809
  0
ARC
  8
0
 62
     7
  6
CONTINUOUS
 10
207.726952
 20
394.546853
 30
0.000000
 40
32.115633
 50
183.075280
 51
356.942491
  0
ARC
  8
0
 62
     7
  6
CONTINUOUS
 10
173.658517
 20
392.721916
 30
0.000000
 40
2.001652
 50
2.920877
 51
90.055578
  0
LINE
  8
0
 62
     7
  6
CONTINUOUS
 10
173.656575
 20
394.723567
 30
0.000000
 11
128.876575
 21
394.716597
 31
0.000000
  0
ARC
  8
0
 62
     7
  6
CONTINUOUS
 10
128.876885
 20
392.716598
 30
0.000000
 40
1.999999
 50
90.008867
 51
180.008952
  0
LINE
  8
0
 62
     7
  6
CONTINUOUS
 10
126.876886
 20
392.716286
 30
0.000000
 11
126.883386
 21
350.956286
 31
0.000000
  0
ARC
  8
0
 62
     7
  6
CONTINUOUS
 10
124.183386
 20
350.955866
 30
0.000000
 40
2.700000
 50
180.008913
 51
360.008913
  0
LINE
  8
0
 62
     7
  6
CONTINUOUS
 10
121.483386
 20
350.955446
 30
0.000000
 11
121.476887
 21
392.715445
 31
0.000000
  0
ARC
  8
0
 62
     7
  6
CONTINUOUS
 10
119.476888
 20
392.715135
 30
0.000000
 40
1.999999
 50
0.008881
 51
90.008967
  0
LINE
  8
0
 62
     7
  6
CONTINUOUS
 10
119.476575
 20
394.715134
 30
0.000000
 11
76.398576
 21
394.708429
 31
0.000000
  0
ARC
  8
0
 62
     7
  6
CONTINUOUS
 10
76.398886
 20
392.708430
 30
0.000000
 40
1.999999
 50
90.008867
 51
180.008952
  0
LINE
  8
0
 62
     7
  6
CONTINUOUS
 10
74.398887
 20
392.708118
 30
0.000000
 11
74.405387
 21
350.948119
 31
0.000000
  0
ARC
  8
0
 62
     7
  6
CONTINUOUS
 10
71.704387
 20
350.947699
 30
0.000000
 40
2.701000
 50
180.008920
 51
360.008920
  0
LINE
  8
0
 62
     7
  6
CONTINUOUS
 10
69.003387
 20
350.947278
 30
0.000000
 11
68.996887
 21
392.707277
 31
0.000000
  0
ARC
  8
0
 62
     7
  6
CONTINUOUS
 10
66.996888
 20
392.706967
 30
0.000000
 40
1.999999
 50
0.008867
 51
90.008952
  0
LINE
  8
0
 62
     7
  6
CONTINUOUS
 10
66.996576
 20
394.706966
 30
0.000000
 11
50.996576
 21
394.705269
 31
0.000000
  0
ARC
  8
0
 62
     7
  6
CONTINUOUS
 10
51.222336
 20
447.436546
 30
0.000000
 40
44.703502
 50
88.598881
 51
178.598966
  0
ARC
  8
0
 62
     7
  6
CONTINUOUS
 10
51.222334
 20
447.436479
 30
0.000000
 40
44.703502
 50
178.598881
 51
268.598966
  0
LINE
  8
0
 62
     7
  6
CONTINUOUS
 10
50.129324
 20
402.746341
 30
0.000000
 11
144.135323
 21
402.760972
 31
0.000000
  0
LINE
  8
0
 62
     7
  6
CONTINUOUS
 10
144.135323
 20
402.760972
 30
0.000000
 11
205.289323
 21
402.770491
 31
0.000000
  0
LINE
  8
0
 62
     7
  6
CONTINUOUS
 10
205.289323
 20
402.770491
 30
0.000000
 11
205.282845
 21
444.390490
 31
0.000000
  0
ARC
  8
0
 62
     7
  6
CONTINUOUS
 10
207.982845
 20
444.390911
 30
0.000000
 40
2.700000
 50
0.008923
 51
180.008923
  0
LINE
  8
0
 62
     7
  6
CONTINUOUS
 10
210.682844
 20
444.391331
 30
0.000000
 11
210.689322
 21
402.771331
 31
0.000000
  0
LINE
  8
0
 62
     7
  6
CONTINUOUS
 10
210.689322
 20
402.771331
 30
0.000000
 11
292.189321
 21
402.784016
 31
0.000000
  0
LINE
  8
0
 62
     7
  6
CONTINUOUS
 10
292.189321
 20
402.784016
 30
0.000000
 11
367.129321
 21
402.795680
 31
0.000000
  0
ARC
  8
0
 62
     7
  6
CONTINUOUS
 10
368.222401
 20
447.465817
 30
0.000000
 40
44.683509
 50
268.598250
 51
358.598336
  0
ARC
  8
0
 62
     7
  6
CONTINUOUS
 10
368.222409
 20
447.465877
 30
0.000000
 40
44.683502
 50
358.598258
 51
448.598344
  0
ARC
  8
0
 62
     7
  6
CONTINUOUS
 10
367.416554
 20
447.854164
 30
0.000000
 40
44.322539
 50
87.544590
 51
90.389294
  0
LINE
  8
0
 62
     7
  6
CONTINUOUS
 10
367.115409
 20
492.175680
 30
0.000000
 11
350.255409
 21
492.173055
 31
0.000000
  0
LINE
  8
0
 62
     7
  6
CONTINUOUS
 10
350.255409
 20
492.173055
 30
0.000000
 11
350.262220
 21
448.413055
 31
0.000000
  0
ARC
  8
0
 62
     7
  6
CONTINUOUS
 10
347.562220
 20
448.412635
 30
0.000000
 40
2.700000
 50
180.008913
 51
360.008913
  0
LINE
  8
0
 62
     7
  6
CONTINUOUS
 10
344.862220
 20
448.412215
 30
0.000000
 11
344.855409
 21
492.172214
 31
0.000000
  0
LINE
  8
0
 62
     7
  6
CONTINUOUS
 10
344.855409
 20
492.172214
 30
0.000000
 11
294.255410
 21
492.164339
 31
0.000000
  0
LINE
  8
0
 62
     7
  6
CONTINUOUS
 10
294.255410
 20
492.164339
 30
0.000000
 11
294.262221
 21
448.404339
 31
0.000000
  0
ARC
  8
0
 62
     7
  6
CONTINUOUS
 10
291.562233
 20
448.398981
 30
0.000000
 40
2.699993
 50
270.113615
 51
360.113701
  0
ARC
  8
0
 62
     7
  6
CONTINUOUS
 10
291.564692
 20
448.401454
 30
0.000000
 40
2.702463
 50
180.061293
 51
270.061378
  0
LINE
  8
0
 62
     7
  6
CONTINUOUS
 10
288.862231
 20
448.398563
 30
0.000000
 11
288.775415
 21
492.161096
 31
0.000000
  0
ARC
  8
0
 62
     7
  6
CONTINUOUS
 10
289.483293
 20
446.764417
 30
0.000000
 40
45.402198
 50
90.893351
 51
177.586228
  0
ARC
  8
0
 62
     7
  6
CONTINUOUS
 10
242.122582
 20
448.756624
 30
0.000000
 40
2.000400
 50
269.996995
 51
357.706391
  0
LINE
  8
0
 62
     7
  6
CONTINUOUS
 10
242.122477
 20
446.756224
 30
0.000000
 11
242.082477
 21
446.756218
 31
0.000000
  0
ARC
  8
0
 62
     7
  6
CONTINUOUS
 10
242.082164
 20
448.756216
 30
0.000000
 40
1.999998
 50
180.008881
 51
270.008967
  0
LINE
  8
0
 62
     7
  6
CONTINUOUS
 10
240.082166
 20
448.755906
 30
0.000000
 11
240.075467
 21
491.795906
 31
0.000000
  0
LINE
  8
0
 62
     7
  6
CONTINUOUS
 10
240.075467
 20
491.795906
 30
0.000000
 11
175.875411
 21
492.145914
 31
0.000000
  0
LINE
  8
0
 62
     7
  6
CONTINUOUS
 10
175.875411
 20
492.145914
 30
0.000000
 11
175.882166
 21
448.745914
 31
0.000000
  0
ARC
  8
0
 62
     7
  6
CONTINUOUS
 10
173.882168
 20
448.745601
 30
0.000000
 40
1.999998
 50
270.008881
 51
360.008967
  0
LINE
  8
0
 62
     7
  6
CONTINUOUS
 10
173.882478
 20
446.745603
 30
0.000000
 11
173.802477
 21
446.745791
 31
0.000000
  0
ARC
  8
0
 62
     7
  6
CONTINUOUS
 10
173.800109
 20
448.745643
 30
0.000000
 40
1.999854
 50
182.303431
 51
270.067847
  0
ARC
  8
0
 62
     7
  6
CONTINUOUS
 10
126.441249
 20
446.739451
 30
0.000000
 40
45.401485
 50
2.431070
 51
89.123947
  0
LINE
  8
0
 62
     7
  6
CONTINUOUS
 10
127.135411
 20
492.135629
 30
0.000000
 11
127.122223
 21
448.378325
 31
0.000000
  0
ARC
  8
0
 62
     7
  6
CONTINUOUS
 10
124.412223
 20
448.377903
 30
0.000000
 40
2.710000
 50
180.008922
 51
360.008922
  0
LINE
  8
0
 62
     7
  6
CONTINUOUS
 10
121.702223
 20
448.377481
 30
0.000000
 11
121.695412
 21
492.137481
 31
0.000000
  0
LINE
  8
0
 62
     7
  6
CONTINUOUS
 10
121.695412
 20
492.137481
 30
0.000000
 11
74.615413
 21
492.130153
 31
0.000000
  0
LINE
  8
0
 62
     7
  6
CONTINUOUS
 10
74.615413
 20
492.130153
 30
0.000000
 11
74.622224
 21
448.370153
 31
0.000000
  0
ARC
  8
0
 62
     7
  6
CONTINUOUS
 10
71.922224
 20
448.369733
 30
0.000000
 40
2.700000
 50
180.008913
 51
360.008913
  0
LINE
  8
0
 62
     7
  6
CONTINUOUS
 10
69.222224
 20
448.369313
 30
0.000000
 11
69.215413
 21
492.129312
 31
0.000000
  0
LINE
  8
0
 62
     7
  6
CONTINUOUS
 10
69.215413
 20
492.129312
 30
0.000000
 11
52.315413
 21
492.126682
 31
0.000000
  0
ARC
  8
0
 62
     7
  6
CONTINUOUS
 10
459.168896
 20
268.097438
 30
0.000000
 40
2.662053
 50
150.829100
 51
245.542171
  0
ARC
  8
0
 62
     7
  6
CONTINUOUS
 10
459.166978
 20
268.103513
 30
0.000000
 40
2.666792
 50
245.633723
 51
340.346794
  0
LINE
  8
0
 62
     7
  6
CONTINUOUS
 10
461.678418
 20
267.206601
 30
0.000000
 11
476.978398
 21
292.983932
 31
0.000000
  0
ARC
  8
0
 62
     7
  6
CONTINUOUS
 10
478.613679
 20
289.329796
 30
0.000000
 40
4.003355
 50
17.463891
 51
114.109244
  0
LINE
  8
0
 62
     7
  6
CONTINUOUS
 10
482.432505
 20
290.531222
 30
0.000000
 11
486.319884
 21
278.082435
 31
0.000000
  0
LINE
  8
0
 62
     7
  6
CONTINUOUS
 10
486.319884
 20
278.082435
 30
0.000000
 11
503.853243
 21
276.829063
 31
0.000000
  0
LINE
  8
0
 62
     7
  6
CONTINUOUS
 10
503.853243
 20
276.829063
 30
0.000000
 11
523.985491
 21
275.391917
 31
0.000000
  0
LINE
  8
0
 62
     7
  6
CONTINUOUS
 10
523.985491
 20
275.391917
 30
0.000000
 11
544.427408
 21
294.847806
 31
0.000000
  0
ARC
  8
0
 62
     7
  6
CONTINUOUS
 10
547.423468
 20
292.202109
 30
0.000000
 40
3.997010
 50
24.283083
 51
138.553599
  0
LINE
  8
0
 62
     7
  6
CONTINUOUS
 10
551.066841
 20
293.845860
 30
0.000000
 11
549.886349
 21
289.962240
 31
0.000000
  0
LINE
  8
0
 62
     7
  6
CONTINUOUS
 10
549.886349
 20
289.962240
 30
0.000000
 11
539.614317
 21
265.659142
 31
0.000000
  0
ARC
  8
0
 62
     7
  6
CONTINUOUS
 10
542.042613
 20
264.519359
 30
0.000000
 40
2.682485
 50
154.855780
 51
245.261870
  0
ARC
  8
0
 62
     7
  6
CONTINUOUS
 10
542.047209
 20
264.506776
 30
0.000000
 40
2.672997
 50
245.059511
 51
335.465601
  0
LINE
  8
0
 62
     7
  6
CONTINUOUS
 10
544.478867
 20
263.396842
 30
0.000000
 11
556.019630
 21
288.444300
 31
0.000000
  0
LINE
  8
0
 62
     7
  6
CONTINUOUS
 10
556.019630
 20
288.444300
 30
0.000000
 11
559.772331
 21
300.790046
 31
0.000000
  0
ARC
  8
0
 62
     7
  6
CONTINUOUS
 10
581.494521
 20
286.055538
 30
0.000000
 40
26.248034
 50
127.566258
 51
145.850329
  0
ARC
  8
0
 62
     7
  6
CONTINUOUS
 10
553.237957
 20
289.937564
 30
0.000000
 40
20.893929
 50
331.707475
 51
414.092958
  0
ARC
  8
0
 62
     7
  6
CONTINUOUS
 10
547.995794
 20
291.253347
 30
0.000000
 40
26.167126
 50
328.305113
 51
334.612244
  0
ARC
  8
0
 62
     7
  6
CONTINUOUS
 10
538.852913
 20
295.185817
 30
0.000000
 40
36.042011
 50
314.584389
 51
330.622975
  0
LINE
  8
0
 62
     7
  6
CONTINUOUS
 10
564.152928
 20
269.516072
 30
0.000000
 11
540.804514
 21
235.203331
 31
0.000000
  0
ARC
  8
0
 62
     7
  6
CONTINUOUS
 10
528.251481
 20
241.197456
 30
0.000000
 40
13.910721
 50
251.418641
 51
334.475332
  0
LINE
  8
0
 62
     7
  6
CONTINUOUS
 10
523.818817
 20
228.011871
 30
0.000000
 11
529.759620
 21
239.647600
 31
0.000000
  0
LINE
  8
0
 62
     7
  6
CONTINUOUS
 10
529.759620
 20
239.647600
 30
0.000000
 11
519.215908
 21
259.700803
 31
0.000000
  0
LINE
  8
0
 62
     7
  6
CONTINUOUS
 10
519.215908
 20
259.700803
 30
0.000000
 11
481.550302
 21
262.391320
 31
0.000000
  0
LINE
  8
0
 62
     7
  6
CONTINUOUS
 10
481.550302
 20
262.391320
 30
0.000000
 11
449.749140
 21
244.695079
 31
0.000000
  0
LINE
  8
0
 62
     7
  6
CONTINUOUS
 10
449.749140
 20
244.695079
 30
0.000000
 11
444.013013
 21
233.457568
 31
0.000000
  0
ARC
  8
0
 62
     7
  6
CONTINUOUS
 10
444.782578
 20
241.773340
 30
0.000000
 40
8.351305
 50
159.798567
 51
264.712750
  0
LINE
  8
0
 62
     7
  6
CONTINUOUS
 10
436.945008
 20
244.657227
 30
0.000000
 11
445.486321
 21
272.757832
 31
0.000000
  0
LINE
  8
0
 62
     7
  6
CONTINUOUS
 10
445.486321
 20
272.757832
 30
0.000000
 11
454.027945
 21
300.858322
 31
0.000000
  0
ARC
  8
0
 62
     7
  6
CONTINUOUS
 10
474.059550
 20
292.570480
 30
0.000000
 40
21.678412
 50
88.654803
 51
157.523247
  0
ARC
  8
0
 62
     7
  6
CONTINUOUS
 10
454.438969
 20
307.694963
 30
0.000000
 40
21.167726
 50
345.801027
 51
378.019261
  0
LINE
  8
0
 62
     7
  6
CONTINUOUS
 10
474.960015
 20
302.502731
 30
0.000000
 11
464.608641
 21
286.319352
 31
0.000000
  0
LINE
  8
0
 62
     7
  6
CONTINUOUS
 10
464.608641
 20
286.319352
 30
0.000000
 11
456.720638
 21
269.124272
 31
0.000000
  0
LINE
  8
0
 62
     7
  6
CONTINUOUS
 10
456.720638
 20
269.124272
 30
0.000000
 11
456.844472
 21
269.394966
 31
0.000000
  0
ARC
  8
0
 62
     7
  6
CONTINUOUS
 10
515.521482
 20
53.013886
 30
0.000000
 40
2.662053
 50
157.248703
 51
251.961775
  0
ARC
  8
0
 62
     7
  6
CONTINUOUS
 10
515.518897
 20
53.019710
 30
0.000000
 40
2.666793
 50
252.053332
 51
346.766404
  0
LINE
  8
0
 62
     7
  6
CONTINUOUS
 10
518.114873
 20
52.409223
 30
0.000000
 11
530.436780
 21
79.735598
 31
0.000000
  0
ARC
  8
0
 62
     7
  6
CONTINUOUS
 10
532.470373
 20
76.287214
 30
0.000000
 40
4.003355
 50
23.883493
 51
120.528846
  0
LINE
  8
0
 62
     7
  6
CONTINUOUS
 10
536.130923
 20
77.908085
 30
0.000000
 11
541.385813
 21
65.971999
 31
0.000000
  0
LINE
  8
0
 62
     7
  6
CONTINUOUS
 10
541.385813
 20
65.971999
 30
0.000000
 11
558.949371
 21
66.686874
 31
0.000000
  0
LINE
  8
0
 62
     7
  6
CONTINUOUS
 10
558.949371
 20
66.686874
 30
0.000000
 11
579.116070
 21
67.509706
 31
0.000000
  0
LINE
  8
0
 62
     7
  6
CONTINUOUS
 10
579.116070
 20
67.509706
 30
0.000000
 11
597.254467
 21
89.129191
 31
0.000000
  0
ARC
  8
0
 62
     7
  6
CONTINUOUS
 10
600.527554
 20
86.835069
 30
0.000000
 40
3.997010
 50
30.702691
 51
144.973208
  0
LINE
  8
0
 62
     7
  6
CONTINUOUS
 10
603.964296
 20
88.875876
 30
0.000000
 11
603.225429
 21
84.884617
 31
0.000000
  0
LINE
  8
0
 62
     7
  6
CONTINUOUS
 10
603.225429
 20
84.884617
 30
0.000000
 11
595.735111
 21
59.585401
 31
0.000000
  0
ARC
  8
0
 62
     7
  6
CONTINUOUS
 10
598.275618
 20
58.724270
 30
0.000000
 40
2.682485
 50
161.275384
 51
251.681474
  0
ARC
  8
0
 62
     7
  6
CONTINUOUS
 10
598.281593
 20
58.712280
 30
0.000000
 40
2.672997
 50
251.479122
 51
341.885212
  0
LINE
  8
0
 62
     7
  6
CONTINUOUS
 10
600.822104
 20
57.881187
 30
0.000000
 11
609.489973
 21
84.061952
 31
0.000000
  0
LINE
  8
0
 62
     7
  6
CONTINUOUS
 10
609.489973
 20
84.061952
 30
0.000000
 11
611.838777
 21
96.749871
 31
0.000000
  0
ARC
  8
0
 62
     7
  6
CONTINUOUS
 10
635.072218
 20
84.536488
 30
0.000000
 40
26.248038
 50
133.985869
 51
152.269940
  0
ARC
  8
0
 62
     7
  6
CONTINUOUS
 10
606.558781
 20
85.234836
 30
0.000000
 40
20.893930
 50
338.127082
 51
420.512565
  0
ARC
  8
0
 62
     7
  6
CONTINUOUS
 10
601.202377
 20
85.956255
 30
0.000000
 40
26.167124
 50
334.724701
 51
341.031832
  0
ARC
  8
0
 62
     7
  6
CONTINUOUS
 10
591.677133
 20
88.841800
 30
0.000000
 40
36.042009
 50
321.004001
 51
337.042587
  0
LINE
  8
0
 62
     7
  6
CONTINUOUS
 10
619.688619
 20
66.161785
 30
0.000000
 11
600.323079
 21
29.453632
 31
0.000000
  0
ARC
  8
0
 62
     7
  6
CONTINUOUS
 10
587.178560
 20
34.006630
 30
0.000000
 40
13.910721
 50
257.838247
 51
340.894938
  0
LINE
  8
0
 62
     7
  6
CONTINUOUS
 10
584.247957
 20
20.408111
 30
0.000000
 11
588.850530
 21
32.635115
 31
0.000000
  0
LINE
  8
0
 62
     7
  6
CONTINUOUS
 10
588.850530
 20
32.635115
 30
0.000000
 11
576.130802
 21
51.383697
 31
0.000000
  0
LINE
  8
0
 62
     7
  6
CONTINUOUS
 10
576.130802
 20
51.383697
 30
0.000000
 11
538.400545
 21
49.845990
 31
0.000000
  0
LINE
  8
0
 62
     7
  6
CONTINUOUS
 10
538.400545
 20
49.845990
 30
0.000000
 11
508.777385
 21
28.705054
 31
0.000000
  0
LINE
  8
0
 62
     7
  6
CONTINUOUS
 10
508.777385
 20
28.705054
 30
0.000000
 11
504.333680
 21
16.896655
 31
0.000000
  0
ARC
  8
0
 62
     7
  6
CONTINUOUS
 10
504.168641
 20
25.246329
 30
0.000000
 40
8.351305
 50
166.218174
 51
271.132357
  0
LINE
  8
0
 62
     7
  6
CONTINUOUS
 10
496.057771
 20
27.235822
 30
0.000000
 11
501.403626
 21
56.115224
 31
0.000000
  0
LINE
  8
0
 62
     7
  6
CONTINUOUS
 10
501.403626
 20
56.115224
 30
0.000000
 11
506.749804
 21
84.994546
 31
0.000000
  0
ARC
  8
0
 62
     7
  6
CONTINUOUS
 10
527.582462
 20
78.998384
 30
0.000000
 40
21.678413
 50
95.074409
 51
163.942853
  0
ARC
  8
0
 62
     7
  6
CONTINUOUS
 10
506.393853
 20
91.834276
 30
0.000000
 40
21.167726
 50
352.220632
 51
384.438866
  0
LINE
  8
0
 62
     7
  6
CONTINUOUS
 10
527.366765
 20
88.969038
 30
0.000000
 11
518.889745
 21
71.729757
 31
0.000000
  0
LINE
  8
0
 62
     7
  6
CONTINUOUS
 10
518.889745
 20
71.729757
 30
0.000000
 11
512.973767
 21
53.760545
 31
0.000000
  0
LINE
  8
0
 62
     7
  6
CONTINUOUS
 10
512.973767
 20
53.760545
 30
0.000000
 11
513.066558
 21
54.043387
 31
0.000000
  0
ARC
  8
0
 62
     7
  6
CONTINUOUS
 10
581.575494
 20
139.854560
 30
0.000000
 40
2.662053
 50
336.321453
 51
431.034524
  0
ARC
  8
0
 62
     7
  6
CONTINUOUS
 10
581.577985
 20
139.848696
 30
0.000000
 40
2.666792
 50
71.126078
 51
165.839150
  0
LINE
  8
0
 62
     7
  6
CONTINUOUS
 10
578.992229
 20
140.501113
 30
0.000000
 11
566.229717
 21
113.377719
 31
0.000000
  0
ARC
  8
0
 62
     7
  6
CONTINUOUS
 10
564.252195
 20
116.858561
 30
0.000000
 40
4.003355
 50
202.956245
 51
299.601598
  0
LINE
  8
0
 62
     7
  6
CONTINUOUS
 10
560.565894
 20
115.297140
 30
0.000000
 11
555.504851
 21
127.316702
 31
0.000000
  0
LINE
  8
0
 62
     7
  6
CONTINUOUS
 10
555.504851
 20
127.316702
 30
0.000000
 11
537.932025
 21
126.886149
 31
0.000000
  0
LINE
  8
0
 62
     7
  6
CONTINUOUS
 10
537.932025
 20
126.886149
 30
0.000000
 11
517.754651
 21
126.389779
 31
0.000000
  0
LINE
  8
0
 62
     7
  6
CONTINUOUS
 10
517.754651
 20
126.389779
 30
0.000000
 11
499.268765
 21
105.066655
 31
0.000000
  0
ARC
  8
0
 62
     7
  6
CONTINUOUS
 10
496.033232
 20
107.413444
 30
0.000000
 40
3.997010
 50
209.775441
 51
324.045958
  0
LINE
  8
0
 62
     7
  6
CONTINUOUS
 10
492.563914
 20
105.428521
 30
0.000000
 11
493.367274
 21
109.407300
 31
0.000000
  0
LINE
  8
0
 62
     7
  6
CONTINUOUS
 10
493.367274
 20
109.407300
 30
0.000000
 11
501.266024
 21
134.581989
 31
0.000000
  0
ARC
  8
0
 62
     7
  6
CONTINUOUS
 10
498.739785
 20
135.484120
 30
0.000000
 40
2.682485
 50
340.348141
 51
430.754231
  0
ARC
  8
0
 62
     7
  6
CONTINUOUS
 10
498.734005
 20
135.496204
 30
0.000000
 40
2.672997
 50
70.551877
 51
160.957966
  0
LINE
  8
0
 62
     7
  6
CONTINUOUS
 10
496.207276
 20
136.368301
 30
0.000000
 11
487.116864
 21
110.331236
 31
0.000000
  0
LINE
  8
0
 62
     7
  6
CONTINUOUS
 10
487.116864
 20
110.331236
 30
0.000000
 11
484.563041
 21
97.682988
 31
0.000000
  0
ARC
  8
0
 62
     7
  6
CONTINUOUS
 10
461.530291
 20
110.270756
 30
0.000000
 40
26.248038
 50
313.058616
 51
331.342687
  0
ARC
  8
0
 62
     7
  6
CONTINUOUS
 10
490.028691
 20
109.111069
 30
0.000000
 40
20.893929
 50
157.199833
 51
239.585316
  0
ARC
  8
0
 62
     7
  6
CONTINUOUS
 10
495.372722
 20
108.303065
 30
0.000000
 40
26.167126
 50
153.797457
 51
160.104588
  0
ARC
  8
0
 62
     7
  6
CONTINUOUS
 10
504.850017
 20
105.263750
 30
0.000000
 40
36.042008
 50
140.076749
 51
156.115335
  0
LINE
  8
0
 62
     7
  6
CONTINUOUS
 10
477.209229
 20
128.394101
 30
0.000000
 11
497.166274
 21
164.784059
 31
0.000000
  0
ARC
  8
0
 62
     7
  6
CONTINUOUS
 10
510.235391
 20
160.018941
 30
0.000000
 40
13.910721
 50
76.910998
 51
159.967688
  0
LINE
  8
0
 62
     7
  6
CONTINUOUS
 10
513.385673
 20
173.568254
 30
0.000000
 11
508.585835
 21
161.417334
 31
0.000000
  0
LINE
  8
0
 62
     7
  6
CONTINUOUS
 10
508.585835
 20
161.417334
 30
0.000000
 11
521.000493
 21
142.465366
 31
0.000000
  0
LINE
  8
0
 62
     7
  6
CONTINUOUS
 10
521.000493
 20
142.465366
 30
0.000000
 11
558.750693
 21
143.392290
 31
0.000000
  0
LINE
  8
0
 62
     7
  6
CONTINUOUS
 10
558.750693
 20
143.392290
 30
0.000000
 11
588.712094
 21
164.051071
 31
0.000000
  0
LINE
  8
0
 62
     7
  6
CONTINUOUS
 10
588.712094
 20
164.051071
 30
0.000000
 11
593.346311
 21
175.786012
 31
0.000000
  0
ARC
  8
0
 62
     7
  6
CONTINUOUS
 10
593.376207
 20
167.434761
 30
0.000000
 40
8.351304
 50
345.290923
 51
450.205106
  0
LINE
  8
0
 62
     7
  6
CONTINUOUS
 10
601.453818
 20
165.314272
 30
0.000000
 11
595.641313
 21
136.525162
 31
0.000000
  0
LINE
  8
0
 62
     7
  6
CONTINUOUS
 10
595.641313
 20
136.525162
 30
0.000000
 11
589.828486
 21
107.736138
 31
0.000000
  0
ARC
  8
0
 62
     7
  6
CONTINUOUS
 10
569.095591
 20
114.068646
 30
0.000000
 40
21.678413
 50
274.147161
 51
343.015605
  0
ARC
  8
0
 62
     7
  6
CONTINUOUS
 10
590.073705
 20
100.891542
 30
0.000000
 40
21.167726
 50
171.293382
 51
203.511616
  0
LINE
  8
0
 62
     7
  6
CONTINUOUS
 10
569.149907
 20
104.095807
 30
0.000000
 11
577.904797
 21
121.195649
 31
0.000000
  0
LINE
  8
0
 62
     7
  6
CONTINUOUS
 10
577.904797
 20
121.195649
 30
0.000000
 11
584.110793
 21
139.066771
 31
0.000000
  0
LINE
  8
0
 62
     7
  6
CONTINUOUS
 10
584.110793
 20
139.066771
 30
0.000000
 11
584.013437
 21
138.785466
 31
0.000000
  0
ARC
  8
0
 62
     7
  6
CONTINUOUS
 10
479.725843
 20
191.652740
 30
0.000000
 40
2.662053
 50
155.152614
 51
249.865685
  0
ARC
  8
0
 62
     7
  6
CONTINUOUS
 10
479.723473
 20
191.658654
 30
0.000000
 40
2.666793
 50
249.957230
 51
344.670301
  0
LINE
  8
0
 62
     7
  6
CONTINUOUS
 10
482.295383
 20
190.953626
 30
0.000000
 11
495.608521
 21
217.811038
 31
0.000000
  0
ARC
  8
0
 62
     7
  6
CONTINUOUS
 10
497.514626
 20
214.290581
 30
0.000000
 40
4.003355
 50
21.787398
 51
118.432751
  0
LINE
  8
0
 62
     7
  6
CONTINUOUS
 10
501.232012
 20
215.776481
 30
0.000000
 11
506.046818
 21
203.656182
 31
0.000000
  0
LINE
  8
0
 62
     7
  6
CONTINUOUS
 10
506.046818
 20
203.656182
 30
0.000000
 11
523.624770
 21
203.728182
 31
0.000000
  0
LINE
  8
0
 62
     7
  6
CONTINUOUS
 10
523.624770
 20
203.728182
 30
0.000000
 11
543.808071
 21
203.812857
 31
0.000000
  0
LINE
  8
0
 62
     7
  6
CONTINUOUS
 10
543.808071
 20
203.812857
 30
0.000000
 11
562.725075
 21
224.754456
 31
0.000000
  0
ARC
  8
0
 62
     7
  6
CONTINUOUS
 10
565.912062
 20
222.342154
 30
0.000000
 40
3.997010
 50
28.606592
 51
142.877108
  0
LINE
  8
0
 62
     7
  6
CONTINUOUS
 10
569.421149
 20
224.255894
 30
0.000000
 11
568.536794
 21
220.294331
 31
0.000000
  0
LINE
  8
0
 62
     7
  6
CONTINUOUS
 10
568.536794
 20
220.294331
 30
0.000000
 11
560.126157
 21
195.286005
 31
0.000000
  0
ARC
  8
0
 62
     7
  6
CONTINUOUS
 10
562.633468
 20
194.332530
 30
0.000000
 40
2.682485
 50
159.179300
 51
249.585390
  0
ARC
  8
0
 62
     7
  6
CONTINUOUS
 10
562.639001
 20
194.320329
 30
0.000000
 40
2.672997
 50
249.383029
 51
339.789119
  0
LINE
  8
0
 62
     7
  6
CONTINUOUS
 10
565.147414
 20
193.396872
 30
0.000000
 11
574.767057
 21
219.243087
 31
0.000000
  0
LINE
  8
0
 62
     7
  6
CONTINUOUS
 10
574.767057
 20
219.243087
 30
0.000000
 11
577.578357
 21
231.836609
 31
0.000000
  0
ARC
  8
0
 62
     7
  6
CONTINUOUS
 10
600.349539
 20
218.781622
 30
0.000000
 40
26.248036
 50
131.889774
 51
150.173845
  0
ARC
  8
0
 62
     7
  6
CONTINUOUS
 10
571.880727
 20
220.522397
 30
0.000000
 40
20.893929
 50
336.030993
 51
418.416477
  0
ARC
  8
0
 62
     7
  6
CONTINUOUS
 10
566.554285
 20
221.439249
 30
0.000000
 40
26.167131
 50
332.628614
 51
338.935745
  0
ARC
  8
0
 62
     7
  6
CONTINUOUS
 10
557.140962
 20
224.671252
 30
0.000000
 40
36.042010
 50
318.907910
 51
334.946496
  0
LINE
  8
0
 62
     7
  6
CONTINUOUS
 10
584.304172
 20
200.981877
 30
0.000000
 11
563.608971
 21
165.006590
 31
0.000000
  0
ARC
  8
0
 62
     7
  6
CONTINUOUS
 10
550.639776
 20
170.037309
 30
0.000000
 40
13.910721
 50
255.742159
 51
338.798849
  0
LINE
  8
0
 62
     7
  6
CONTINUOUS
 10
547.213761
 20
156.555077
 30
0.000000
 11
552.260463
 21
168.605559
 31
0.000000
  0
LINE
  8
0
 62
     7
  6
CONTINUOUS
 10
552.260463
 20
168.605559
 30
0.000000
 11
540.234984
 21
187.806825
 31
0.000000
  0
LINE
  8
0
 62
     7
  6
CONTINUOUS
 10
540.234984
 20
187.806825
 30
0.000000
 11
502.473731
 21
187.650150
 31
0.000000
  0
LINE
  8
0
 62
     7
  6
CONTINUOUS
 10
502.473731
 20
187.650150
 30
0.000000
 11
472.097151
 21
167.606842
 31
0.000000
  0
LINE
  8
0
 62
     7
  6
CONTINUOUS
 10
472.097151
 20
167.606842
 30
0.000000
 11
467.224521
 21
155.968874
 31
0.000000
  0
ARC
  8
0
 62
     7
  6
CONTINUOUS
 10
467.364986
 20
164.318997
 30
0.000000
 40
8.351305
 50
164.122085
 51
269.036268
  0
LINE
  8
0
 62
     7
  6
CONTINUOUS
 10
459.332310
 20
166.603818
 30
0.000000
 11
465.730867
 21
195.268369
 31
0.000000
  0
LINE
  8
0
 62
     7
  6
CONTINUOUS
 10
465.730867
 20
195.268369
 30
0.000000
 11
472.129743
 21
223.932830
 31
0.000000
  0
ARC
  8
0
 62
     7
  6
CONTINUOUS
 10
492.729148
 20
217.178715
 30
0.000000
 40
21.678413
 50
92.978319
 51
161.846763
  0
ARC
  8
0
 62
     7
  6
CONTINUOUS
 10
472.024195
 20
230.781002
 30
0.000000
 40
21.167728
 50
350.124543
 51
382.342778
  0
LINE
  8
0
 62
     7
  6
CONTINUOUS
 10
492.878278
 20
227.150586
 30
0.000000
 11
483.776394
 21
210.232891
 31
0.000000
  0
LINE
  8
0
 62
     7
  6
CONTINUOUS
 10
483.776394
 20
210.232891
 30
0.000000
 11
477.207142
 21
192.492082
 31
0.000000
  0
LINE
  8
0
 62
     7
  6
CONTINUOUS
 10
477.207142
 20
192.492082
 30
0.000000
 11
477.310216
 21
192.771342
 31
0.000000
  0
ENDSEC
  0
EOF
