  0
SECTION
  2
HEADER
  9
$ACADVER
  1
AC1009
  9
$LIMMIN
 10
.510795
 20
.423915
  9
$LIMMAX
 10
17.5192
 20
13.18022
  0
ENDSEC
  0
SECTION
  2
TABLES
  0
TABLE
  2
LTYPE
 70
     4
  0
LTYPE
  2
CONTINUOUS
 70
     0
  3
Solid line
 72
    65
 73
     0
 40
0.000000
  0
LTYPE
  2
HIDDEN
 70
     0
  3
 _ _ _ _ _ _ _ _ _ _ _
 72
    65
 73
     2
 40
0.375000
 49
0.250000
 49
-0.125000
  0
LTYPE
  2
DASHED
 70
     0
  3
 ___ ___ ___ ___ ___ ___ ___ 
 72
    65
 73
     2
 40
0.750000
 49
0.500000
 49
-0.250000
  0
LTYPE
  2
CENTER
 70
     0
  3
___ _ ___ _ ___ _ ___
 72
    65
 73
     4
 40
2.000000
 49
1.250000
 49
-0.250000
 49
0.250000
 49
-0.250000
  0
LTYPE
  2
BORDER
 70
     0
  3
___ ___ . ___ ___ . ___ ___
 72
    65
 73
     6
 40
1.750000
 49
0.500000
 49
-0.250000
 49
0.500000
 49
-0.250000
 49
0.000000
 49
-0.250000
  0
LTYPE
  2
DOT
 70
     0
  3
.................
 72
    65
 73
     2
 40
0.250000
 49
0.000000
 49
-0.250000
  0
LTYPE
  2
DASHDOT
 70
     0
  3
__ . __ . __ . __
 72
    65
 73
     4
 40
1.000000
 49
0.500000
 49
-0.250000
 49
0.000000
 49
-0.250000
  0
LTYPE
  2
DIVIDE
 70
     0
  3
___ .. ___ .. ___ .. ___
 72
    65
 73
     6
 40
1.250000
 49
0.500000
 49
-0.250000
 49
0.000000
 49
-0.250000
 49
0.000000
 49
-0.250000
  0
ENDTAB
  0
TABLE
  2
LAYER
 70
     8
  0
LAYER
  2
BLACK
 70
     0
 62
     0
  6
CONTINUOUS
  0
LAYER
  2
WHITE
 70
     0
 62
     7
  6
CONTINUOUS
  0
LAYER
  2
RED
 70
     0
 62
     1
  6
CONTINUOUS
  0
LAYER
  2
YELLOW
 70
     0
 62
     2
  6
CONTINUOUS
  0
LAYER
  2
GREEN
 70
     0
 62
     3
  6
CONTINUOUS
  0
LAYER
  2
CYAN
 70
     0
 62
     4
  6
CONTINUOUS
  0
LAYER
  2
BLUE
 70
     0
 62
     5
  6
CONTINUOUS
  0
LAYER
  2
MAGENTA
 70
     0
 62
     6
  6
CONTINUOUS
  0
ENDTAB
  0
ENDSEC
  0
SECTION
  2
BLOCKS
  0
ENDSEC
  0
SECTION
  2
ENTITIES
 0
LINE
 8
WHITE
 10
15.715
 20
9.744
 30
0.0000
 11
15.772
 21
9.661999
 31
0.0000
 6
CONTINUOUS
 0
ARC
 8
WHITE
 10
15.8046
 20
9.685299
 30
 0
 40
.04007
 50
215.5543
 51
315.1002
 6
CONTINUOUS
 0
CIRCLE
 8
WHITE
 10
15.6413
 20
9.848699
 30
 0
 40
.271104
 6
CONTINUOUS
 0
LINE
 8
WHITE
 10
15.833
 20
9.656999
 30
0.0000
 11
15.823
 21
9.656999
 31
0.0000
 6
CONTINUOUS
 0
LINE
 8
WHITE
 10
12.07
 20
9.024999
 30
0.0000
 11
12.17
 21
9.024999
 31
0.0000
 6
CONTINUOUS
 0
ARC
 8
WHITE
 10
12.17
 20
9.064999
 30
 0
 40
.039999
 50
270
 51
0
 6
CONTINUOUS
 0
LINE
 8
WHITE
 10
12.21
 20
9.064999
 30
0.0000
 11
12.21
 21
9.678
 31
0.0000
 6
CONTINUOUS
 0
ARC
 8
WHITE
 10
12.1551
 20
9.6772
 30
 0
 40
.054905
 50
.834852
 51
86.97063
 6
CONTINUOUS
 0
ARC
 8
WHITE
 10
12.1104
 20
8.738699
 30
 0
 40
.994439
 50
87.25642
 51
168.203
 6
CONTINUOUS
 0
LINE
 8
WHITE
 10
11.137
 20
8.942
 30
0.0000
 11
11.137
 21
8.453
 31
0.0000
 6
CONTINUOUS
 0
ARC
 8
WHITE
 10
11.2517
 20
8.452699
 30
 0
 40
.1147
 50
179.8501
 51
270.1496
 6
CONTINUOUS
 0
LINE
 8
WHITE
 10
11.252
 20
8.338
 30
0.0000
 11
12.096
 21
8.338
 31
0.0000
 6
CONTINUOUS
 0
ARC
 8
WHITE
 10
12.0953
 20
8.4527
 30
 0
 40
.114702
 50
270.3497
 51
.149584
 6
CONTINUOUS
 0
LINE
 8
WHITE
 10
12.21
 20
8.453
 30
0.0000
 11
12.21
 21
9.064999
 31
0.0000
 6
CONTINUOUS
 0
LINE
 8
WHITE
 10
12.21
 20
9.064999
 30
0.0000
 11
12.203
 21
9.057999
 31
0.0000
 6
CONTINUOUS
 0
LINE
 8
WHITE
 10
11.714
 20
7.818999
 30
0.0000
 11
11.714
 21
7.919
 31
0.0000
 6
CONTINUOUS
 0
ARC
 8
WHITE
 10
11.674
 20
7.919
 30
 0
 40
.039999
 50
0
 51
90
 6
CONTINUOUS
 0
LINE
 8
WHITE
 10
11.674
 20
7.959
 30
0.0000
 11
11.252
 21
7.959
 31
0.0000
 6
CONTINUOUS
 0
ARC
 8
WHITE
 10
11.2517
 20
7.8443
 30
 0
 40
.1147
 50
89.85014
 51
180.1501
 6
CONTINUOUS
 0
LINE
 8
WHITE
 10
11.137
 20
7.843999
 30
0.0000
 11
11.137
 21
7.151
 31
0.0000
 6
CONTINUOUS
 0
ARC
 8
WHITE
 10
11.2517
 20
7.1517
 30
 0
 40
.114702
 50
180.3497
 51
270.1496
 6
CONTINUOUS
 0
LINE
 8
WHITE
 10
11.252
 20
7.037
 30
0.0000
 11
11.756
 21
7.037
 31
0.0000
 6
CONTINUOUS
 0
ARC
 8
WHITE
 10
11.7563
 20
7.1517
 30
 0
 40
.1147
 50
269.8501
 51
327.4598
 6
CONTINUOUS
 0
LINE
 8
WHITE
 10
11.853
 20
7.09
 30
0.0000
 11
12.192
 21
7.620999
 31
0.0000
 6
CONTINUOUS
 0
ARC
 8
WHITE
 10
12.0953
 20
7.682699
 30
 0
 40
.114707
 50
327.4598
 51
.150062
 6
CONTINUOUS
 0
LINE
 8
WHITE
 10
12.21
 20
7.683
 30
0.0000
 11
12.21
 21
7.843999
 31
0.0000
 6
CONTINUOUS
 0
ARC
 8
WHITE
 10
12.0953
 20
7.844299
 30
 0
 40
.1147
 50
359.8501
 51
89.65034
 6
CONTINUOUS
 0
LINE
 8
WHITE
 10
12.096
 20
7.959
 30
0.0000
 11
11.674
 21
7.959
 31
0.0000
 6
CONTINUOUS
 0
LINE
 8
WHITE
 10
11.674
 20
7.959
 30
0.0000
 11
11.681
 21
7.952
 31
0.0000
 6
CONTINUOUS
 0
LINE
 8
WHITE
 10
15.855
 20
5.249
 30
0.0000
 11
15.912
 21
5.166999
 31
0.0000
 6
CONTINUOUS
 0
ARC
 8
WHITE
 10
15.9446
 20
5.190299
 30
 0
 40
.04007
 50
215.5543
 51
315.1007
 6
CONTINUOUS
 0
CIRCLE
 8
WHITE
 10
15.7813
 20
5.3537
 30
 0
 40
.271104
 6
CONTINUOUS
 0
LINE
 8
WHITE
 10
15.973
 20
5.162
 30
0.0000
 11
15.963
 21
5.162
 31
0.0000
 6
CONTINUOUS
 0
LINE
 8
WHITE
 10
15.879
 20
1.44
 30
0.0000
 11
15.937
 21
1.358
 31
0.0000
 6
CONTINUOUS
 0
ARC
 8
WHITE
 10
15.9696
 20
1.3811
 30
 0
 40
.039954
 50
215.321
 51
315.3037
 6
CONTINUOUS
 0
CIRCLE
 8
WHITE
 10
15.8059
 20
1.5451
 30
 0
 40
.27167
 6
CONTINUOUS
 0
LINE
 8
WHITE
 10
15.998
 20
1.353
 30
0.0000
 11
15.988
 21
1.353
 31
0.0000
 6
CONTINUOUS
 0
LINE
 8
WHITE
 10
12.996
 20
2.209
 30
0.0000
 11
13.052
 21
2.125
 31
0.0000
 6
CONTINUOUS
 0
ARC
 8
WHITE
 10
13.085
 20
2.1475
 30
 0
 40
.03994
 50
214.2869
 51
314.4928
 6
CONTINUOUS
 0
CIRCLE
 8
WHITE
 10
12.9426
 20
2.289399
 30
 0
 40
.240981
 6
CONTINUOUS
 0
LINE
 8
WHITE
 10
13.113
 20
2.118999
 30
0.0000
 11
13.103
 21
2.118999
 31
0.0000
 6
CONTINUOUS
 0
LINE
 8
WHITE
 10
4.189
 20
4.967
 30
0.0000
 11
4.189
 21
5.066999
 31
0.0000
 6
CONTINUOUS
 0
ARC
 8
WHITE
 10
4.149
 20
5.066999
 30
 0
 40
.039999
 50
0
 51
90
 6
CONTINUOUS
 0
LINE
 8
WHITE
 10
4.149
 20
5.106999
 30
0.0000
 11
3.726999
 21
5.106999
 31
0.0000
 6
CONTINUOUS
 0
ARC
 8
WHITE
 10
3.7267
 20
4.9923
 30
 0
 40
.1147
 50
89.85014
 51
180.1498
 6
CONTINUOUS
 0
LINE
 8
WHITE
 10
3.611999
 20
4.992
 30
0.0000
 11
3.611999
 21
4.298999
 31
0.0000
 6
CONTINUOUS
 0
ARC
 8
WHITE
 10
3.7267
 20
4.299699
 30
 0
 40
.114702
 50
180.3497
 51
270.1498
 6
CONTINUOUS
 0
LINE
 8
WHITE
 10
3.726999
 20
4.184999
 30
0.0000
 11
4.230999
 21
4.184999
 31
0.0000
 6
CONTINUOUS
 0
ARC
 8
WHITE
 10
4.231299
 20
4.299699
 30
 0
 40
.1147
 50
269.8501
 51
327.46
 6
CONTINUOUS
 0
LINE
 8
WHITE
 10
4.328
 20
4.237999
 30
0.0000
 11
4.666999
 21
4.769
 31
0.0000
 6
CONTINUOUS
 0
ARC
 8
WHITE
 10
4.570299
 20
4.830699
 30
 0
 40
.114707
 50
327.4598
 51
.149822
 6
CONTINUOUS
 0
LINE
 8
WHITE
 10
4.684999
 20
4.830999
 30
0.0000
 11
4.684999
 21
4.992
 31
0.0000
 6
CONTINUOUS
 0
ARC
 8
WHITE
 10
4.5703
 20
4.9923
 30
 0
 40
.1147
 50
359.8501
 51
90.14983
 6
CONTINUOUS
 0
LINE
 8
WHITE
 10
4.57
 20
5.106999
 30
0.0000
 11
4.149
 21
5.106999
 31
0.0000
 6
CONTINUOUS
 0
LINE
 8
WHITE
 10
4.149
 20
5.106999
 30
0.0000
 11
4.156
 21
5.099999
 31
0.0000
 6
CONTINUOUS
 0
LINE
 8
WHITE
 10
4.545
 20
6.172999
 30
0.0000
 11
4.644999
 21
6.172999
 31
0.0000
 6
CONTINUOUS
 0
ARC
 8
WHITE
 10
4.644999
 20
6.212999
 30
 0
 40
.039999
 50
270
 51
0
 6
CONTINUOUS
 0
LINE
 8
WHITE
 10
4.684999
 20
6.212999
 30
0.0000
 11
4.684999
 21
6.826
 31
0.0000
 6
CONTINUOUS
 0
ARC
 8
WHITE
 10
4.630099
 20
6.8252
 30
 0
 40
.054905
 50
.834852
 51
86.97063
 6
CONTINUOUS
 0
ARC
 8
WHITE
 10
4.5854
 20
5.8867
 30
 0
 40
.994439
 50
87.25642
 51
168.203
 6
CONTINUOUS
 0
LINE
 8
WHITE
 10
3.611999
 20
6.09
 30
0.0000
 11
3.611999
 21
5.600999
 31
0.0000
 6
CONTINUOUS
 0
ARC
 8
WHITE
 10
3.7267
 20
5.600699
 30
 0
 40
.1147
 50
179.8501
 51
270.1498
 6
CONTINUOUS
 0
LINE
 8
WHITE
 10
3.726999
 20
5.486
 30
0.0000
 11
4.57
 21
5.486
 31
0.0000
 6
CONTINUOUS
 0
ARC
 8
WHITE
 10
4.5703
 20
5.600699
 30
 0
 40
.1147
 50
269.8501
 51
.149823
 6
CONTINUOUS
 0
LINE
 8
WHITE
 10
4.684999
 20
5.600999
 30
0.0000
 11
4.684999
 21
6.212999
 31
0.0000
 6
CONTINUOUS
 0
LINE
 8
WHITE
 10
4.684999
 20
6.212999
 30
0.0000
 11
4.677999
 21
6.205999
 31
0.0000
 6
CONTINUOUS
 0
LINE
 8
WHITE
 10
4.691999
 20
7.355
 30
0.0000
 11
4.723
 21
7.26
 31
0.0000
 6
CONTINUOUS
 0
ARC
 8
WHITE
 10
4.761199
 20
7.2719
 30
 0
 40
.04001
 50
197.3028
 51
288.6617
 6
CONTINUOUS
 0
LINE
 8
WHITE
 10
4.774
 20
7.234
 30
0.0000
 11
5.072999
 21
7.330999
 31
0.0000
 6
CONTINUOUS
 0
LINE
 8
WHITE
 10
5.072999
 20
7.330999
 30
0.0000
 11
5.247
 21
7.356999
 31
0.0000
 6
CONTINUOUS
 0
ARC
 8
WHITE
 10
5.3591
 20
6.237799
 30
 0
 40
1.124799
 50
77.73806
 51
95.71972
 6
CONTINUOUS
 0
ARC
 8
WHITE
 10
5.514999
 20
7.136799
 30
 0
 40
.216723
 50
34.32065
 51
67.48182
 6
CONTINUOUS
 0
ARC
 8
WHITE
 10
5.666499
 20
7.239999
 30
 0
 40
.033425
 50
286.5359
 51
34.64094
 6
CONTINUOUS
 0
LINE
 8
WHITE
 10
5.676
 20
7.208
 30
0.0000
 11
5.275
 21
7.093999
 31
0.0000
 6
CONTINUOUS
 0
ARC
 8
WHITE
 10
5.2866
 20
7.055699
 30
 0
 40
.040018
 50
106.8501
 51
195.4931
 6
CONTINUOUS
 0
LINE
 8
WHITE
 10
5.248
 20
7.045
 30
0.0000
 11
5.256
 21
7.015999
 31
0.0000
 6
CONTINUOUS
 0
ARC
 8
WHITE
 10
5.2946
 20
7.026399
 30
 0
 40
.039976
 50
195.0791
 51
286.5353
 6
CONTINUOUS
 0
LINE
 8
WHITE
 10
5.306
 20
6.987999
 30
0.0000
 11
5.725999
 21
7.107999
 31
0.0000
 6
CONTINUOUS
 0
ARC
 8
WHITE
 10
5.7353
 20
7.075899
 30
 0
 40
.03342
 50
12.25117
 51
106.1573
 6
CONTINUOUS
 0
ARC
 8
WHITE
 10
4.339
 20
6.7298
 30
 0
 40
1.472002
 50
.046697
 51
13.88331
 6
CONTINUOUS
 0
LINE
 8
WHITE
 10
5.810999
 20
6.730999
 30
0.0000
 11
5.810999
 21
4.025
 31
0.0000
 6
CONTINUOUS
 0
ARC
 8
WHITE
 10
5.777599
 20
4.0244
 30
 0
 40
.033405
 50
268.9711
 51
1.029154
 6
CONTINUOUS
 0
LINE
 8
WHITE
 10
5.776999
 20
3.990999
 30
0.0000
 11
4.901
 21
3.990999
 31
0.0000
 6
CONTINUOUS
 0
ARC
 8
WHITE
 10
4.901
 20
3.950999
 30
 0
 40
.039999
 50
90
 51
180
 6
CONTINUOUS
 0
LINE
 8
WHITE
 10
4.861
 20
3.950999
 30
0.0000
 11
4.861
 21
3.921
 31
0.0000
 6
CONTINUOUS
 0
ARC
 8
WHITE
 10
4.901
 20
3.921
 30
 0
 40
.039999
 50
180
 51
270
 6
CONTINUOUS
 0
LINE
 8
WHITE
 10
4.901
 20
3.881
 30
0.0000
 11
5.776999
 21
3.881
 31
0.0000
 6
CONTINUOUS
 0
ARC
 8
WHITE
 10
5.777599
 20
3.847599
 30
 0
 40
.033405
 50
358.9707
 51
91.02914
 6
CONTINUOUS
 0
LINE
 8
WHITE
 10
5.810999
 20
3.846999
 30
0.0000
 11
5.810999
 21
3.790999
 31
0.0000
 6
CONTINUOUS
 0
ARC
 8
WHITE
 10
5.617099
 20
3.790899
 30
 0
 40
.1939
 50
269.9706
 51
.029549
 6
CONTINUOUS
 0
LINE
 8
WHITE
 10
5.617
 20
3.596999
 30
0.0000
 11
3.612999
 21
3.596999
 31
0.0000
 6
CONTINUOUS
 0
ARC
 8
WHITE
 10
3.613699
 20
4.075699
 30
 0
 40
.4787
 50
179.9641
 51
269.9162
 6
CONTINUOUS
 0
LINE
 8
WHITE
 10
3.134999
 20
4.076
 30
0.0000
 11
3.134999
 21
5.544
 31
0.0000
 6
CONTINUOUS
 0
ARC
 8
WHITE
 10
3.257699
 20
5.5443
 30
 0
 40
.1227
 50
90.32687
 51
180.1401
 6
CONTINUOUS
 0
LINE
 8
WHITE
 10
3.256999
 20
5.666999
 30
0.0000
 11
3.290999
 21
5.666999
 31
0.0000
 6
CONTINUOUS
 0
ARC
 8
WHITE
 10
3.290999
 20
5.738999
 30
 0
 40
.071999
 50
270
 51
0
 6
CONTINUOUS
 0
LINE
 8
WHITE
 10
3.362999
 20
5.738999
 30
0.0000
 11
3.362999
 21
5.801
 31
0.0000
 6
CONTINUOUS
 0
ARC
 8
WHITE
 10
4.5647
 20
5.9024
 30
 0
 40
1.20597
 50
112.8187
 51
184.8232
 6
CONTINUOUS
 0
LINE
 8
WHITE
 10
4.097
 20
7.013999
 30
0.0000
 11
4.774
 21
7.234
 31
0.0000
 6
CONTINUOUS
 0
LINE
 8
WHITE
 10
4.774
 20
7.234
 30
0.0000
 11
4.764999
 21
7.237999
 31
0.0000
 6
CONTINUOUS
 0
LINE
 8
WHITE
 10
12.173
 20
10.192
 30
0.0000
 11
12.204
 21
10.097
 31
0.0000
 6
CONTINUOUS
 0
ARC
 8
WHITE
 10
12.2422
 20
10.1089
 30
 0
 40
.04001
 50
197.3028
 51
288.6604
 6
CONTINUOUS
 0
LINE
 8
WHITE
 10
12.255
 20
10.071
 30
0.0000
 11
12.598
 21
10.183
 31
0.0000
 6
CONTINUOUS
 0
LINE
 8
WHITE
 10
12.598
 20
10.183
 30
0.0000
 11
12.772
 21
10.209
 31
0.0000
 6
CONTINUOUS
 0
ARC
 8
WHITE
 10
12.8841
 20
9.089799
 30
 0
 40
1.124799
 50
77.73804
 51
95.71972
 6
CONTINUOUS
 0
ARC
 8
WHITE
 10
13.04
 20
9.9888
 30
 0
 40
.216723
 50
34.32065
 51
67.48182
 6
CONTINUOUS
 0
ARC
 8
WHITE
 10
13.1915
 20
10.092
 30
 0
 40
.033425
 50
286.5359
 51
34.64094
 6
CONTINUOUS
 0
LINE
 8
WHITE
 10
13.201
 20
10.06
 30
0.0000
 11
12.8
 21
9.946
 31
0.0000
 6
CONTINUOUS
 0
ARC
 8
WHITE
 10
12.8116
 20
9.9077
 30
 0
 40
.040018
 50
106.8501
 51
195.4938
 6
CONTINUOUS
 0
LINE
 8
WHITE
 10
12.773
 20
9.897
 30
0.0000
 11
12.781
 21
9.868
 31
0.0000
 6
CONTINUOUS
 0
ARC
 8
WHITE
 10
12.8196
 20
9.878399
 30
 0
 40
.039976
 50
195.0791
 51
286.5353
 6
CONTINUOUS
 0
LINE
 8
WHITE
 10
12.831
 20
9.84
 30
0.0000
 11
13.252
 21
9.96
 31
0.0000
 6
CONTINUOUS
 0
ARC
 8
WHITE
 10
13.2604
 20
9.927599
 30
 0
 40
.033471
 50
12.78978
 51
104.5345
 6
CONTINUOUS
 0
ARC
 8
WHITE
 10
11.864
 20
9.5818
 30
 0
 40
1.472002
 50
.046697
 51
13.88331
 6
CONTINUOUS
 0
LINE
 8
WHITE
 10
13.336
 20
9.583
 30
0.0000
 11
13.336
 21
6.876999
 31
0.0000
 6
CONTINUOUS
 0
ARC
 8
WHITE
 10
13.3026
 20
6.876399
 30
 0
 40
.033405
 50
268.9695
 51
1.029154
 6
CONTINUOUS
 0
LINE
 8
WHITE
 10
13.302
 20
6.842999
 30
0.0000
 11
12.426
 21
6.842999
 31
0.0000
 6
CONTINUOUS
 0
ARC
 8
WHITE
 10
12.426
 20
6.802999
 30
 0
 40
.039999
 50
90
 51
180
 6
CONTINUOUS
 0
LINE
 8
WHITE
 10
12.386
 20
6.802999
 30
0.0000
 11
12.386
 21
6.772999
 31
0.0000
 6
CONTINUOUS
 0
ARC
 8
WHITE
 10
12.426
 20
6.772999
 30
 0
 40
.039999
 50
180
 51
270
 6
CONTINUOUS
 0
LINE
 8
WHITE
 10
12.426
 20
6.732999
 30
0.0000
 11
13.302
 21
6.732999
 31
0.0000
 6
CONTINUOUS
 0
ARC
 8
WHITE
 10
13.3026
 20
6.699599
 30
 0
 40
.033405
 50
358.9711
 51
91.02914
 6
CONTINUOUS
 0
LINE
 8
WHITE
 10
13.336
 20
6.698999
 30
0.0000
 11
13.336
 21
6.643
 31
0.0000
 6
CONTINUOUS
 0
ARC
 8
WHITE
 10
13.1421
 20
6.642899
 30
 0
 40
.1939
 50
269.9704
 51
.029549
 6
CONTINUOUS
 0
LINE
 8
WHITE
 10
13.142
 20
6.448999
 30
0.0000
 11
11.138
 21
6.448999
 31
0.0000
 6
CONTINUOUS
 0
ARC
 8
WHITE
 10
11.1387
 20
6.9277
 30
 0
 40
.4787
 50
179.9641
 51
269.9162
 6
CONTINUOUS
 0
LINE
 8
WHITE
 10
10.66
 20
6.927999
 30
0.0000
 11
10.66
 21
8.395999
 31
0.0000
 6
CONTINUOUS
 0
ARC
 8
WHITE
 10
10.7827
 20
8.3963
 30
 0
 40
.1227
 50
90.32687
 51
180.1401
 6
CONTINUOUS
 0
LINE
 8
WHITE
 10
10.782
 20
8.519
 30
0.0000
 11
10.816
 21
8.519
 31
0.0000
 6
CONTINUOUS
 0
ARC
 8
WHITE
 10
10.816
 20
8.590999
 30
 0
 40
.071999
 50
270
 51
0
 6
CONTINUOUS
 0
LINE
 8
WHITE
 10
10.888
 20
8.590999
 30
0.0000
 11
10.888
 21
8.652999
 31
0.0000
 6
CONTINUOUS
 0
ARC
 8
WHITE
 10
12.0897
 20
8.753999
 30
 0
 40
1.205936
 50
112.7675
 51
184.8043
 6
CONTINUOUS
 0
LINE
 8
WHITE
 10
11.623
 20
9.866
 30
0.0000
 11
12.255
 21
10.071
 31
0.0000
 6
CONTINUOUS
 0
LINE
 8
WHITE
 10
12.255
 20
10.071
 30
0.0000
 11
12.246
 21
10.076
 31
0.0000
 6
CONTINUOUS
 0
LINE
 8
WHITE
 10
.833999
 20
4.57
 30
0.0000
 11
.934
 21
4.57
 31
0.0000
 6
CONTINUOUS
 0
LINE
 8
WHITE
 10
.934
 20
4.57
 30
0.0000
 11
1.026
 21
4.57
 31
0.0000
 6
CONTINUOUS
 0
ARC
 8
WHITE
 10
1.026
 20
4.61
 30
 0
 40
.039999
 50
270
 51
0
 6
CONTINUOUS
 0
LINE
 8
WHITE
 10
1.065999
 20
4.61
 30
0.0000
 11
1.065999
 21
4.82
 31
0.0000
 6
CONTINUOUS
 0
ARC
 8
WHITE
 10
1.146
 20
4.82
 30
 0
 40
.079999
 50
90
 51
180
 6
CONTINUOUS
 0
LINE
 8
WHITE
 10
1.146
 20
4.9
 30
0.0000
 11
1.218999
 21
4.9
 31
0.0000
 6
CONTINUOUS
 0
ARC
 8
WHITE
 10
1.2186
 20
4.8666
 30
 0
 40
.033402
 50
358.9711
 51
89.31386
 6
CONTINUOUS
 0
LINE
 8
WHITE
 10
1.251999
 20
4.866
 30
0.0000
 11
1.251999
 21
4.61
 31
0.0000
 6
CONTINUOUS
 0
ARC
 8
WHITE
 10
1.291999
 20
4.61
 30
 0
 40
.039999
 50
180
 51
270.0002
 6
CONTINUOUS
 0
LINE
 8
WHITE
 10
1.292
 20
4.57
 30
0.0000
 11
1.361999
 21
4.57
 31
0.0000
 6
CONTINUOUS
 0
LINE
 8
WHITE
 10
1.361999
 20
4.57
 30
0.0000
 11
1.363
 21
4.866
 31
0.0000
 6
CONTINUOUS
 0
ARC
 8
WHITE
 10
1.396499
 20
4.8665
 30
 0
 40
.033503
 50
90.85504
 51
180.8551
 6
CONTINUOUS
 0
LINE
 8
WHITE
 10
1.396
 20
4.9
 30
0.0000
 11
1.468999
 21
4.9
 31
0.0000
 6
CONTINUOUS
 0
ARC
 8
WHITE
 10
1.468999
 20
4.82
 30
 0
 40
.079999
 50
0
 51
90
 6
CONTINUOUS
 0
LINE
 8
WHITE
 10
1.549
 20
4.82
 30
0.0000
 11
1.549
 21
4.61
 31
0.0000
 6
CONTINUOUS
 0
ARC
 8
WHITE
 10
1.588999
 20
4.61
 30
 0
 40
.039999
 50
180
 51
270
 6
CONTINUOUS
 0
LINE
 8
WHITE
 10
1.588999
 20
4.57
 30
0.0000
 11
1.641
 21
4.57
 31
0.0000
 6
CONTINUOUS
 0
ARC
 8
WHITE
 10
1.641
 20
4.53
 30
 0
 40
.039999
 50
0
 51
90
 6
CONTINUOUS
 0
LINE
 8
WHITE
 10
1.680999
 20
4.53
 30
0.0000
 11
1.680999
 21
4.133999
 31
0.0000
 6
CONTINUOUS
 0
ARC
 8
WHITE
 10
2.464099
 20
4.340899
 30
 0
 40
.809971
 50
194.7997
 51
252.8312
 6
CONTINUOUS
 0
ARC
 8
WHITE
 10
2.077999
 20
1.303599
 30
 0
 40
2.268168
 50
63.47335
 51
86.28406
 6
CONTINUOUS
 0
LINE
 8
WHITE
 10
3.091
 20
3.332999
 30
0.0000
 11
3.355
 21
3.345
 31
0.0000
 6
CONTINUOUS
 0
ARC
 8
WHITE
 10
3.367399
 20
3.065999
 30
 0
 40
.279275
 50
47.52484
 51
92.54481
 6
CONTINUOUS
 0
ARC
 8
WHITE
 10
3.795
 20
3.3905
 30
 0
 40
.266764
 50
206.3729
 51
267.6364
 6
CONTINUOUS
 0
LINE
 8
WHITE
 10
3.783999
 20
3.124
 30
0.0000
 11
5.638999
 21
3.226999
 31
0.0000
 6
CONTINUOUS
 0
ARC
 8
WHITE
 10
5.6363
 20
3.2669
 30
 0
 40
.039991
 50
273.8712
 51
330.1661
 6
CONTINUOUS
 0
LINE
 8
WHITE
 10
5.671
 20
3.246999
 30
0.0000
 11
6.322999
 21
4.347
 31
0.0000
 6
CONTINUOUS
 0
ARC
 8
WHITE
 10
6.377399
 20
4.315599
 30
 0
 40
.062811
 50
108.9542
 51
150.0062
 6
CONTINUOUS
 0
ARC
 8
WHITE
 10
6.559499
 20
3.769999
 30
 0
 40
.637989
 50
73.28353
 51
108.5059
 6
CONTINUOUS
 0
ARC
 8
WHITE
 10
6.7252
 20
4.320799
 30
 0
 40
.062776
 50
.182718
 51
73.52805
 6
CONTINUOUS
 0
LINE
 8
WHITE
 10
6.788
 20
4.321
 30
0.0000
 11
6.788
 21
4.265999
 31
0.0000
 6
CONTINUOUS
 0
ARC
 8
WHITE
 10
6.7546
 20
4.266399
 30
 0
 40
.033402
 50
268.9711
 51
359.3138
 6
CONTINUOUS
 0
LINE
 8
WHITE
 10
6.754
 20
4.232999
 30
0.0000
 11
6.543
 21
4.232999
 31
0.0000
 6
CONTINUOUS
 0
ARC
 8
WHITE
 10
6.543
 20
4.192999
 30
 0
 40
.039999
 50
90
 51
180
 6
CONTINUOUS
 0
LINE
 8
WHITE
 10
6.502999
 20
4.192999
 30
0.0000
 11
6.502999
 21
4.162
 31
0.0000
 6
CONTINUOUS
 0
ARC
 8
WHITE
 10
6.542999
 20
4.162
 30
 0
 40
.039999
 50
180
 51
270.0007
 6
CONTINUOUS
 0
LINE
 8
WHITE
 10
6.543
 20
4.122
 30
0.0000
 11
6.756999
 21
4.122
 31
0.0000
 6
CONTINUOUS
 0
ARC
 8
WHITE
 10
6.756599
 20
4.0886
 30
 0
 40
.033402
 50
358.9703
 51
89.31386
 6
CONTINUOUS
 0
LINE
 8
WHITE
 10
6.789999
 20
4.087999
 30
0.0000
 11
6.789999
 21
4.058
 31
0.0000
 6
CONTINUOUS
 0
ARC
 8
WHITE
 10
6.727099
 20
4.057899
 30
 0
 40
.0629
 50
269.9092
 51
.09109
 6
CONTINUOUS
 0
LINE
 8
WHITE
 10
6.727
 20
3.994999
 30
0.0000
 11
6.695
 21
3.994999
 31
0.0000
 6
CONTINUOUS
 0
ARC
 8
WHITE
 10
6.6958
 20
3.940099
 30
 0
 40
.054905
 50
90.83485
 51
157.637
 6
CONTINUOUS
 0
LINE
 8
WHITE
 10
6.644999
 20
3.960999
 30
0.0000
 11
6.085
 21
2.599999
 31
0.0000
 6
CONTINUOUS
 0
ARC
 8
WHITE
 10
6.0272
 20
2.624699
 30
 0
 40
.062856
 50
280.8268
 51
336.8613
 6
CONTINUOUS
 0
LINE
 8
WHITE
 10
6.039
 20
2.562999
 30
0.0000
 11
4.093999
 21
2.164999
 31
0.0000
 6
CONTINUOUS
 0
ARC
 8
WHITE
 10
4.105599
 20
2.111299
 30
 0
 40
.054938
 50
102.1894
 51
163.3806
 6
CONTINUOUS
 0
ARC
 8
WHITE
 10
2.346499
 20
2.6533
 30
 0
 40
1.785814
 50
283.388
 51
342.8598
 6
CONTINUOUS
 0
ARC
 8
WHITE
 10
2.752399
 20
.9485
 30
 0
 40
.033376
 50
182.5715
 51
283.1619
 6
CONTINUOUS
 0
LINE
 8
WHITE
 10
2.719
 20
.947
 30
0.0000
 11
2.664999
 21
1.889999
 31
0.0000
 6
CONTINUOUS
 0
ARC
 8
WHITE
 10
2.625099
 20
1.887199
 30
 0
 40
.039998
 50
4.014175
 51
94.45362
 6
CONTINUOUS
 0
LINE
 8
WHITE
 10
2.621999
 20
1.927
 30
0.0000
 11
2.591
 21
1.924
 31
0.0000
 6
CONTINUOUS
 0
ARC
 8
WHITE
 10
2.5949
 20
1.884199
 30
 0
 40
.03999
 50
95.59654
 51
183.156
 6
CONTINUOUS
 0
LINE
 8
WHITE
 10
2.555
 20
1.881999
 30
0.0000
 11
2.609999
 21
.916999
 31
0.0000
 6
CONTINUOUS
 0
ARC
 8
WHITE
 10
2.576599
 20
.915099
 30
 0
 40
.033453
 50
286.3221
 51
3.255831
 6
CONTINUOUS
 0
ARC
 8
WHITE
 10
1.926399
 20
3.3028
 30
 0
 40
2.508087
 50
263.4661
 51
285.2475
 6
CONTINUOUS
 0
ARC
 8
WHITE
 10
1.6475
 20
.871599
 30
 0
 40
.060947
 50
187.1599
 51
263.8778
 6
CONTINUOUS
 0
LINE
 8
WHITE
 10
1.587
 20
.864
 30
0.0000
 11
1.577999
 21
.941999
 31
0.0000
 6
CONTINUOUS
 0
ARC
 8
WHITE
 10
1.611099
 20
.946599
 30
 0
 40
.033418
 50
93.59767
 51
187.9119
 6
CONTINUOUS
 0
LINE
 8
WHITE
 10
1.608999
 20
.98
 30
0.0000
 11
1.975
 21
.996999
 31
0.0000
 6
CONTINUOUS
 0
ARC
 8
WHITE
 10
1.973
 20
1.036999
 30
 0
 40
.040049
 50
272.8624
 51
0
 6
CONTINUOUS
 0
LINE
 8
WHITE
 10
2.013
 20
1.036999
 30
0.0000
 11
2.013
 21
1.067999
 31
0.0000
 6
CONTINUOUS
 0
ARC
 8
WHITE
 10
1.973
 20
1.067999
 30
 0
 40
.039999
 50
0
 51
92.86253
 6
CONTINUOUS
 0
LINE
 8
WHITE
 10
1.970999
 20
1.108
 30
0.0000
 11
1.590999
 21
1.09
 31
0.0000
 6
CONTINUOUS
 0
ARC
 8
WHITE
 10
1.590099
 20
1.123399
 30
 0
 40
.033412
 50
187.572
 51
271.5435
 6
CONTINUOUS
 0
LINE
 8
WHITE
 10
1.557
 20
1.118999
 30
0.0000
 11
1.549
 21
1.184
 31
0.0000
 6
CONTINUOUS
 0
ARC
 8
WHITE
 10
1.6095
 20
1.1913
 30
 0
 40
.060938
 50
101.8258
 51
186.8801
 6
CONTINUOUS
 0
ARC
 8
WHITE
 10
1.9721
 20
-.567699
 30
 0
 40
1.856978
 50
87.90449
 51
101.6536
 6
CONTINUOUS
 0
ARC
 8
WHITE
 10
2.062
 20
1.834199
 30
 0
 40
.546642
 50
267.6935
 51
283.6498
 6
CONTINUOUS
 0
ARC
 8
WHITE
 10
2.181099
 20
1.341799
 30
 0
 40
.040043
 50
284.3139
 51
4.585405
 6
CONTINUOUS
 0
LINE
 8
WHITE
 10
2.220999
 20
1.345
 30
0.0000
 11
2.131
 21
2.914999
 31
0.0000
 6
CONTINUOUS
 0
ARC
 8
WHITE
 10
2.091099
 20
2.9131
 30
 0
 40
.039945
 50
2.726311
 51
85.84279
 6
CONTINUOUS
 0
ARC
 8
WHITE
 10
1.8599
 20
-.100399
 30
 0
 40
3.062361
 50
85.61579
 51
98.7887
 6
CONTINUOUS
 0
LINE
 8
WHITE
 10
1.391999
 20
2.926
 30
0.0000
 11
1.258
 21
2.901
 31
0.0000
 6
CONTINUOUS
 0
ARC
 8
WHITE
 10
1.252099
 20
2.932699
 30
 0
 40
.032244
 50
174.1301
 51
280.5432
 6
CONTINUOUS
 0
LINE
 8
WHITE
 10
1.22
 20
2.936
 30
0.0000
 11
1.231999
 21
3.059
 31
0.0000
 6
CONTINUOUS
 0
ARC
 8
WHITE
 10
1.2653
 20
3.055599
 30
 0
 40
.033473
 50
92.2289
 51
174.1702
 6
CONTINUOUS
 0
LINE
 8
WHITE
 10
1.264
 20
3.088999
 30
0.0000
 11
1.746999
 21
3.108999
 31
0.0000
 6
CONTINUOUS
 0
ARC
 8
WHITE
 10
1.745
 20
3.148999
 30
 0
 40
.040049
 50
272.8624
 51
0
 6
CONTINUOUS
 0
LINE
 8
WHITE
 10
1.784999
 20
3.148999
 30
0.0000
 11
1.784999
 21
3.178999
 31
0.0000
 6
CONTINUOUS
 0
ARC
 8
WHITE
 10
1.745
 20
3.178999
 30
 0
 40
.039999
 50
0
 51
91.43215
 6
CONTINUOUS
 0
LINE
 8
WHITE
 10
1.743999
 20
3.219
 30
0.0000
 11
1.105
 21
3.191999
 31
0.0000
 6
CONTINUOUS
 0
ARC
 8
WHITE
 10
1.2106
 20
3.489099
 30
 0
 40
.315309
 50
191.912
 51
250.433
 6
CONTINUOUS
 0
ARC
 8
WHITE
 10
-5.489399
 20
4.0644
 30
 0
 40
6.423402
 50
354.2782
 51
359.9875
 6
CONTINUOUS
 0
LINE
 8
WHITE
 10
.934
 20
4.063
 30
0.0000
 11
.934
 21
4.57
 31
0.0000
 6
CONTINUOUS
 0
LINE
 8
WHITE
 10
.934
 20
4.57
 30
0.0000
 11
.926999
 21
4.578
 31
0.0000
 6
CONTINUOUS
 0
LINE
 8
WHITE
 10
16.181
 20
9.02
 30
0.0000
 11
16.181
 21
8.92
 31
0.0000
 6
CONTINUOUS
 0
ARC
 8
WHITE
 10
16.221
 20
8.92
 30
 0
 40
.039999
 50
180
 51
270
 6
CONTINUOUS
 0
LINE
 8
WHITE
 10
16.221
 20
8.88
 30
0.0000
 11
16.621
 21
8.88
 31
0.0000
 6
CONTINUOUS
 0
ARC
 8
WHITE
 10
16.621
 20
8.8171
 30
 0
 40
.062899
 50
359.9089
 51
90
 6
CONTINUOUS
 0
LINE
 8
WHITE
 10
16.684
 20
8.817
 30
0.0000
 11
16.684
 21
7.447999
 31
0.0000
 6
CONTINUOUS
 0
ARC
 8
WHITE
 10
16.724
 20
7.447999
 30
 0
 40
.039999
 50
180
 51
270
 6
CONTINUOUS
 0
LINE
 8
WHITE
 10
16.724
 20
7.407999
 30
0.0000
 11
16.755
 21
7.407999
 31
0.0000
 6
CONTINUOUS
 0
ARC
 8
WHITE
 10
16.755
 20
7.447999
 30
 0
 40
.039999
 50
270
 51
0
 6
CONTINUOUS
 0
LINE
 8
WHITE
 10
16.795
 20
7.447999
 30
0.0000
 11
16.795
 21
8.116999
 31
0.0000
 6
CONTINUOUS
 0
ARC
 8
WHITE
 10
16.8275
 20
8.116499
 30
 0
 40
.032503
 50
90.88091
 51
179.1186
 6
CONTINUOUS
 0
LINE
 8
WHITE
 10
16.827
 20
8.149
 30
0.0000
 11
16.918
 21
8.149
 31
0.0000
 6
CONTINUOUS
 0
ARC
 8
WHITE
 10
16.9181
 20
8.0861
 30
 0
 40
.0629
 50
359.9088
 51
90.09109
 6
CONTINUOUS
 0
LINE
 8
WHITE
 10
16.981
 20
8.086
 30
0.0000
 11
16.981
 21
6.803999
 31
0.0000
 6
CONTINUOUS
 0
LINE
 8
WHITE
 10
16.981
 20
6.803999
 30
0.0000
 11
17.124
 21
6.522999
 31
0.0000
 6
CONTINUOUS
 0
LINE
 8
WHITE
 10
17.124
 20
6.522999
 30
0.0000
 11
17.124
 21
6.168
 31
0.0000
 6
CONTINUOUS
 0
ARC
 8
WHITE
 10
17.164
 20
6.168
 30
 0
 40
.039999
 50
180
 51
269.9973
 6
CONTINUOUS
 0
LINE
 8
WHITE
 10
17.164
 20
6.127999
 30
0.0000
 11
17.372
 21
6.127999
 31
0.0000
 6
CONTINUOUS
 0
ARC
 8
WHITE
 10
17.372
 20
6.065099
 30
 0
 40
.062899
 50
359.9094
 51
90
 6
CONTINUOUS
 0
LINE
 8
WHITE
 10
17.435
 20
6.065
 30
0.0000
 11
17.435
 21
5.966
 31
0.0000
 6
CONTINUOUS
 0
ARC
 8
WHITE
 10
17.4025
 20
5.965499
 30
 0
 40
.032503
 50
269.1191
 51
.881404
 6
CONTINUOUS
 0
LINE
 8
WHITE
 10
17.402
 20
5.933
 30
0.0000
 11
17.164
 21
5.933
 31
0.0000
 6
CONTINUOUS
 0
ARC
 8
WHITE
 10
17.164
 20
5.893
 30
 0
 40
.039999
 50
90
 51
180
 6
CONTINUOUS
 0
LINE
 8
WHITE
 10
17.124
 20
5.893
 30
0.0000
 11
17.124
 21
5.862999
 31
0.0000
 6
CONTINUOUS
 0
ARC
 8
WHITE
 10
17.164
 20
5.862999
 30
 0
 40
.039999
 50
180
 51
269.9973
 6
CONTINUOUS
 0
LINE
 8
WHITE
 10
17.164
 20
5.822999
 30
0.0000
 11
17.402
 21
5.822999
 31
0.0000
 6
CONTINUOUS
 0
ARC
 8
WHITE
 10
17.4025
 20
5.7905
 30
 0
 40
.032503
 50
359.1182
 51
90.8814
 6
CONTINUOUS
 0
LINE
 8
WHITE
 10
17.435
 20
5.789999
 30
0.0000
 11
17.435
 21
5.691999
 31
0.0000
 6
CONTINUOUS
 0
ARC
 8
WHITE
 10
17.3721
 20
5.691999
 30
 0
 40
.062899
 50
269.9098
 51
0
 6
CONTINUOUS
 0
LINE
 8
WHITE
 10
17.372
 20
5.629
 30
0.0000
 11
17.164
 21
5.629
 31
0.0000
 6
CONTINUOUS
 0
ARC
 8
WHITE
 10
17.164
 20
5.589
 30
 0
 40
.039999
 50
90
 51
180
 6
CONTINUOUS
 0
LINE
 8
WHITE
 10
17.124
 20
5.589
 30
0.0000
 11
17.124
 21
5.493
 31
0.0000
 6
CONTINUOUS
 0
ARC
 8
WHITE
 10
17.0611
 20
5.492899
 30
 0
 40
.0629
 50
270.82
 51
.09109
 6
CONTINUOUS
 0
LINE
 8
WHITE
 10
17.062
 20
5.429999
 30
0.0000
 11
16.87
 21
5.429999
 31
0.0000
 6
CONTINUOUS
 0
ARC
 8
WHITE
 10
16.8699
 20
5.492899
 30
 0
 40
.0629
 50
179.9088
 51
270.0911
 6
CONTINUOUS
 0
LINE
 8
WHITE
 10
16.807
 20
5.493
 30
0.0000
 11
16.807
 21
6.157999
 31
0.0000
 6
CONTINUOUS
 0
LINE
 8
WHITE
 10
16.807
 20
6.157999
 30
0.0000
 11
16.683
 21
6.410999
 31
0.0000
 6
CONTINUOUS
 0
ARC
 8
WHITE
 10
16.6473
 20
6.392999
 30
 0
 40
.039981
 50
26.75731
 51
90.43166
 6
CONTINUOUS
 0
LINE
 8
WHITE
 10
16.647
 20
6.433
 30
0.0000
 11
14.759
 21
6.433
 31
0.0000
 6
CONTINUOUS
 0
ARC
 8
WHITE
 10
14.7587
 20
6.393
 30
 0
 40
.040001
 50
89.57029
 51
153.243
 6
CONTINUOUS
 0
LINE
 8
WHITE
 10
14.723
 20
6.410999
 30
0.0000
 11
14.599
 21
6.157999
 31
0.0000
 6
CONTINUOUS
 0
LINE
 8
WHITE
 10
14.599
 20
6.157999
 30
0.0000
 11
14.599
 21
5.493
 31
0.0000
 6
CONTINUOUS
 0
ARC
 8
WHITE
 10
14.5361
 20
5.492899
 30
 0
 40
.0629
 50
269.9088
 51
.09109
 6
CONTINUOUS
 0
LINE
 8
WHITE
 10
14.536
 20
5.429999
 30
0.0000
 11
14.344
 21
5.429999
 31
0.0000
 6
CONTINUOUS
 0
ARC
 8
WHITE
 10
14.344
 20
5.492899
 30
 0
 40
.062899
 50
179.9089
 51
270
 6
CONTINUOUS
 0
LINE
 8
WHITE
 10
14.281
 20
5.493
 30
0.0000
 11
14.281
 21
5.589
 31
0.0000
 6
CONTINUOUS
 0
ARC
 8
WHITE
 10
14.241
 20
5.589
 30
 0
 40
.039999
 50
0
 51
90
 6
CONTINUOUS
 0
LINE
 8
WHITE
 10
14.241
 20
5.629
 30
0.0000
 11
14.034
 21
5.629
 31
0.0000
 6
CONTINUOUS
 0
ARC
 8
WHITE
 10
14.0339
 20
5.6919
 30
 0
 40
.0629
 50
179.9092
 51
270.0911
 6
CONTINUOUS
 0
LINE
 8
WHITE
 10
13.971
 20
5.691999
 30
0.0000
 11
13.971
 21
5.789999
 31
0.0000
 6
CONTINUOUS
 0
ARC
 8
WHITE
 10
14.0035
 20
5.7905
 30
 0
 40
.032503
 50
90.88093
 51
180.8814
 6
CONTINUOUS
 0
LINE
 8
WHITE
 10
14.003
 20
5.822999
 30
0.0000
 11
14.241
 21
5.822999
 31
0.0000
 6
CONTINUOUS
 0
ARC
 8
WHITE
 10
14.241
 20
5.862999
 30
 0
 40
.039999
 50
270
 51
0
 6
CONTINUOUS
 0
LINE
 8
WHITE
 10
14.281
 20
5.862999
 30
0.0000
 11
14.281
 21
5.893
 31
0.0000
 6
CONTINUOUS
 0
ARC
 8
WHITE
 10
14.241
 20
5.893
 30
 0
 40
.039999
 50
0
 51
90
 6
CONTINUOUS
 0
LINE
 8
WHITE
 10
14.241
 20
5.933
 30
0.0000
 11
14.003
 21
5.933
 31
0.0000
 6
CONTINUOUS
 0
ARC
 8
WHITE
 10
14.0035
 20
5.965499
 30
 0
 40
.032503
 50
179.1182
 51
269.1186
 6
CONTINUOUS
 0
LINE
 8
WHITE
 10
13.971
 20
5.966
 30
0.0000
 11
13.971
 21
6.065
 31
0.0000
 6
CONTINUOUS
 0
ARC
 8
WHITE
 10
14.0339
 20
6.065
 30
 0
 40
.062899
 50
89.90807
 51
180
 6
CONTINUOUS
 0
LINE
 8
WHITE
 10
14.034
 20
6.127999
 30
0.0000
 11
14.241
 21
6.127999
 31
0.0000
 6
CONTINUOUS
 0
ARC
 8
WHITE
 10
14.241
 20
6.167999
 30
 0
 40
.039999
 50
270
 51
.000683
 6
CONTINUOUS
 0
LINE
 8
WHITE
 10
14.281
 20
6.168
 30
0.0000
 11
14.281
 21
6.522999
 31
0.0000
 6
CONTINUOUS
 0
LINE
 8
WHITE
 10
14.281
 20
6.522999
 30
0.0000
 11
14.425
 21
6.803999
 31
0.0000
 6
CONTINUOUS
 0
LINE
 8
WHITE
 10
14.425
 20
6.803999
 30
0.0000
 11
14.425
 21
8.086
 31
0.0000
 6
CONTINUOUS
 0
ARC
 8
WHITE
 10
14.4879
 20
8.0861
 30
 0
 40
.0629
 50
90.81914
 51
180.0911
 6
CONTINUOUS
 0
LINE
 8
WHITE
 10
14.487
 20
8.149
 30
0.0000
 11
14.579
 21
8.149
 31
0.0000
 6
CONTINUOUS
 0
ARC
 8
WHITE
 10
14.5785
 20
8.116499
 30
 0
 40
.032503
 50
.880938
 51
89.1186
 6
CONTINUOUS
 0
LINE
 8
WHITE
 10
14.611
 20
8.116999
 30
0.0000
 11
14.611
 21
7.447999
 31
0.0000
 6
CONTINUOUS
 0
ARC
 8
WHITE
 10
14.651
 20
7.447999
 30
 0
 40
.039999
 50
180
 51
270
 6
CONTINUOUS
 0
LINE
 8
WHITE
 10
14.651
 20
7.407999
 30
0.0000
 11
14.682
 21
7.407999
 31
0.0000
 6
CONTINUOUS
 0
ARC
 8
WHITE
 10
14.682
 20
7.447999
 30
 0
 40
.039999
 50
270
 51
0
 6
CONTINUOUS
 0
LINE
 8
WHITE
 10
14.722
 20
7.447999
 30
0.0000
 11
14.722
 21
8.817
 31
0.0000
 6
CONTINUOUS
 0
ARC
 8
WHITE
 10
14.7849
 20
8.817
 30
 0
 40
.062899
 50
89.90893
 51
180
 6
CONTINUOUS
 0
LINE
 8
WHITE
 10
14.785
 20
8.88
 30
0.0000
 11
15.585
 21
8.88
 31
0.0000
 6
CONTINUOUS
 0
ARC
 8
WHITE
 10
15.585
 20
8.8171
 30
 0
 40
.062899
 50
359.9089
 51
90
 6
CONTINUOUS
 0
LINE
 8
WHITE
 10
15.648
 20
8.817
 30
0.0000
 11
15.648
 21
7.524
 31
0.0000
 6
CONTINUOUS
 0
ARC
 8
WHITE
 10
15.688
 20
7.524
 30
 0
 40
.039999
 50
180
 51
270
 6
CONTINUOUS
 0
LINE
 8
WHITE
 10
15.688
 20
7.484
 30
0.0000
 11
15.718
 21
7.484
 31
0.0000
 6
CONTINUOUS
 0
ARC
 8
WHITE
 10
15.718
 20
7.524
 30
 0
 40
.039999
 50
270
 51
0
 6
CONTINUOUS
 0
LINE
 8
WHITE
 10
15.758
 20
7.524
 30
0.0000
 11
15.758
 21
8.817
 31
0.0000
 6
CONTINUOUS
 0
ARC
 8
WHITE
 10
15.8209
 20
8.817
 30
 0
 40
.062899
 50
89.90893
 51
180
 6
CONTINUOUS
 0
LINE
 8
WHITE
 10
15.821
 20
8.88
 30
0.0000
 11
16.221
 21
8.88
 31
0.0000
 6
CONTINUOUS
 0
LINE
 8
WHITE
 10
16.221
 20
8.88
 30
0.0000
 11
16.214
 21
8.887
 31
0.0000
 6
CONTINUOUS
 0
LINE
 8
WHITE
 10
2.756999
 20
8.593999
 30
0.0000
 11
2.756999
 21
8.694
 31
0.0000
 6
CONTINUOUS
 0
ARC
 8
WHITE
 10
2.717
 20
8.694
 30
 0
 40
.039999
 50
0
 51
90
 6
CONTINUOUS
 0
LINE
 8
WHITE
 10
2.717
 20
8.734
 30
0.0000
 11
.657999
 21
8.734
 31
0.0000
 6
CONTINUOUS
 0
ARC
 8
WHITE
 10
.657899
 20
8.796899
 30
 0
 40
.0629
 50
179.9088
 51
270.0911
 6
CONTINUOUS
 0
LINE
 8
WHITE
 10
.595
 20
8.796999
 30
0.0000
 11
.595
 21
9.284
 31
0.0000
 6
CONTINUOUS
 0
ARC
 8
WHITE
 10
.6284
 20
9.2836
 30
 0
 40
.033402
 50
88.97086
 51
179.3139
 6
CONTINUOUS
 0
LINE
 8
WHITE
 10
.629
 20
9.317
 30
0.0000
 11
.921
 21
9.317
 31
0.0000
 6
CONTINUOUS
 0
ARC
 8
WHITE
 10
.921
 20
9.357
 30
 0
 40
.039999
 50
270
 51
0
 6
CONTINUOUS
 0
LINE
 8
WHITE
 10
.961
 20
9.357
 30
0.0000
 11
.961
 21
9.387999
 31
0.0000
 6
CONTINUOUS
 0
ARC
 8
WHITE
 10
.921
 20
9.387999
 30
 0
 40
.039999
 50
0
 51
90
 6
CONTINUOUS
 0
LINE
 8
WHITE
 10
.921
 20
9.428
 30
0.0000
 11
.629
 21
9.428
 31
0.0000
 6
CONTINUOUS
 0
ARC
 8
WHITE
 10
.6284
 20
9.4614
 30
 0
 40
.033405
 50
180.6854
 51
271.0291
 6
CONTINUOUS
 0
LINE
 8
WHITE
 10
.595
 20
9.461
 30
0.0000
 11
.595
 21
9.595
 31
0.0000
 6
CONTINUOUS
 0
ARC
 8
WHITE
 10
.6284
 20
9.5956
 30
 0
 40
.033405
 50
88.97086
 51
181.0292
 6
CONTINUOUS
 0
LINE
 8
WHITE
 10
.629
 20
9.628999
 30
0.0000
 11
1.680999
 21
9.628999
 31
0.0000
 6
CONTINUOUS
 0
ARC
 8
WHITE
 10
1.680999
 20
9.668999
 30
 0
 40
.039999
 50
270
 51
0
 6
CONTINUOUS
 0
LINE
 8
WHITE
 10
1.720999
 20
9.668999
 30
0.0000
 11
1.720999
 21
9.697999
 31
0.0000
 6
CONTINUOUS
 0
ARC
 8
WHITE
 10
1.680999
 20
9.697999
 30
 0
 40
.039999
 50
0
 51
90
 6
CONTINUOUS
 0
LINE
 8
WHITE
 10
1.680999
 20
9.737999
 30
0.0000
 11
.629
 21
9.737999
 31
0.0000
 6
CONTINUOUS
 0
ARC
 8
WHITE
 10
.6284
 20
9.771399
 30
 0
 40
.033405
 50
178.9695
 51
271.0291
 6
CONTINUOUS
 0
LINE
 8
WHITE
 10
.595
 20
9.772
 30
0.0000
 11
.595
 21
9.906
 31
0.0000
 6
CONTINUOUS
 0
ARC
 8
WHITE
 10
.6284
 20
9.9056
 30
 0
 40
.033402
 50
88.97086
 51
179.3139
 6
CONTINUOUS
 0
LINE
 8
WHITE
 10
.629
 20
9.939
 30
0.0000
 11
.921
 21
9.939
 31
0.0000
 6
CONTINUOUS
 0
ARC
 8
WHITE
 10
.921
 20
9.979
 30
 0
 40
.039999
 50
270
 51
0
 6
CONTINUOUS
 0
LINE
 8
WHITE
 10
.961
 20
9.979
 30
0.0000
 11
.961
 21
10.01
 31
0.0000
 6
CONTINUOUS
 0
ARC
 8
WHITE
 10
.921
 20
10.01
 30
 0
 40
.039999
 50
0
 51
90
 6
CONTINUOUS
 0
LINE
 8
WHITE
 10
.921
 20
10.05
 30
0.0000
 11
.629
 21
10.05
 31
0.0000
 6
CONTINUOUS
 0
ARC
 8
WHITE
 10
.6284
 20
10.0834
 30
 0
 40
.033405
 50
180.6854
 51
271.0291
 6
CONTINUOUS
 0
LINE
 8
WHITE
 10
.595
 20
10.083
 30
0.0000
 11
.595
 21
10.57
 31
0.0000
 6
CONTINUOUS
 0
ARC
 8
WHITE
 10
.6579
 20
10.5701
 30
 0
 40
.0629
 50
89.90895
 51
180.0911
 6
CONTINUOUS
 0
LINE
 8
WHITE
 10
.657999
 20
10.633
 30
0.0000
 11
3.592999
 21
10.633
 31
0.0000
 6
CONTINUOUS
 0
ARC
 8
WHITE
 10
3.593099
 20
10.5701
 30
 0
 40
.0629
 50
359.9079
 51
90.09109
 6
CONTINUOUS
 0
LINE
 8
WHITE
 10
3.655999
 20
10.57
 30
0.0000
 11
3.655999
 21
9.772
 31
0.0000
 6
CONTINUOUS
 0
ARC
 8
WHITE
 10
3.621999
 20
9.772
 30
 0
 40
.034
 50
270
 51
0
 6
CONTINUOUS
 0
LINE
 8
WHITE
 10
3.621999
 20
9.737999
 30
0.0000
 11
3.055999
 21
9.737999
 31
0.0000
 6
CONTINUOUS
 0
ARC
 8
WHITE
 10
3.055999
 20
9.697999
 30
 0
 40
.039999
 50
90
 51
180
 6
CONTINUOUS
 0
LINE
 8
WHITE
 10
3.016
 20
9.697999
 30
0.0000
 11
3.016
 21
9.668999
 31
0.0000
 6
CONTINUOUS
 0
ARC
 8
WHITE
 10
3.055999
 20
9.668999
 30
 0
 40
.039999
 50
180
 51
270
 6
CONTINUOUS
 0
LINE
 8
WHITE
 10
3.055999
 20
9.628999
 30
0.0000
 11
3.621999
 21
9.628999
 31
0.0000
 6
CONTINUOUS
 0
ARC
 8
WHITE
 10
3.621999
 20
9.594999
 30
 0
 40
.034
 50
.001607
 51
90
 6
CONTINUOUS
 0
LINE
 8
WHITE
 10
3.655999
 20
9.595
 30
0.0000
 11
3.655999
 21
8.796999
 31
0.0000
 6
CONTINUOUS
 0
ARC
 8
WHITE
 10
3.593099
 20
8.796999
 30
 0
 40
.062899
 50
269.9091
 51
0
 6
CONTINUOUS
 0
LINE
 8
WHITE
 10
3.592999
 20
8.734
 30
0.0000
 11
2.717
 21
8.734
 31
0.0000
 6
CONTINUOUS
 0
LINE
 8
WHITE
 10
2.717
 20
8.734
 30
0.0000
 11
2.723999
 21
8.727
 31
0.0000
 6
CONTINUOUS
 0
LINE
 8
WHITE
 10
7.69
 20
9.986
 30
0.0000
 11
7.59
 21
9.986
 31
0.0000
 6
CONTINUOUS
 0
ARC
 8
WHITE
 10
7.59
 20
9.946
 30
 0
 40
.039999
 50
90
 51
180
 6
CONTINUOUS
 0
LINE
 8
WHITE
 10
7.55
 20
9.946
 30
0.0000
 11
7.55
 21
8.703
 31
0.0000
 6
CONTINUOUS
 0
ARC
 8
WHITE
 10
7.51
 20
8.703499
 30
 0
 40
.040003
 50
312.4664
 51
359.2838
 6
CONTINUOUS
 0
ARC
 8
WHITE
 10
6.5605
 20
9.703499
 30
 0
 40
1.418951
 50
226.5134
 51
313.4865
 6
CONTINUOUS
 0
ARC
 8
WHITE
 10
5.611
 20
8.703499
 30
 0
 40
.03999
 50
180.7158
 51
227.5336
 6
CONTINUOUS
 0
LINE
 8
WHITE
 10
5.571
 20
8.703
 30
0.0000
 11
5.571
 21
10.45
 31
0.0000
 6
CONTINUOUS
 0
ARC
 8
WHITE
 10
5.611
 20
10.45
 30
 0
 40
.039999
 50
90
 51
180
 6
CONTINUOUS
 0
LINE
 8
WHITE
 10
5.611
 20
10.49
 30
0.0000
 11
6.472
 21
10.49
 31
0.0000
 6
CONTINUOUS
 0
ARC
 8
WHITE
 10
6.472599
 20
10.4566
 30
 0
 40
.033405
 50
.685438
 51
91.02914
 6
CONTINUOUS
 0
LINE
 8
WHITE
 10
6.506
 20
10.457
 30
0.0000
 11
6.506
 21
9.628
 31
0.0000
 6
CONTINUOUS
 0
ARC
 8
WHITE
 10
6.546
 20
9.628
 30
 0
 40
.039999
 50
180
 51
270
 6
CONTINUOUS
 0
LINE
 8
WHITE
 10
6.546
 20
9.588
 30
0.0000
 11
6.574999
 21
9.588
 31
0.0000
 6
CONTINUOUS
 0
ARC
 8
WHITE
 10
6.574999
 20
9.628
 30
 0
 40
.039999
 50
270
 51
0
 6
CONTINUOUS
 0
LINE
 8
WHITE
 10
6.614999
 20
9.628
 30
0.0000
 11
6.614999
 21
10.457
 31
0.0000
 6
CONTINUOUS
 0
ARC
 8
WHITE
 10
6.648399
 20
10.4566
 30
 0
 40
.033402
 50
88.97025
 51
179.3139
 6
CONTINUOUS
 0
LINE
 8
WHITE
 10
6.649
 20
10.49
 30
0.0000
 11
7.55
 21
10.49
 31
0.0000
 6
CONTINUOUS
 0
LINE
 8
WHITE
 10
7.55
 20
10.49
 30
0.0000
 11
7.55
 21
9.946
 31
0.0000
 6
CONTINUOUS
 0
LINE
 8
WHITE
 10
7.55
 20
9.946
 30
0.0000
 11
7.557
 21
9.953
 31
0.0000
 6
CONTINUOUS
 0
LINE
 8
WHITE
 10
4.605999
 20
10.698
 30
0.0000
 11
4.605999
 21
10.598
 31
0.0000
 6
CONTINUOUS
 0
ARC
 8
WHITE
 10
4.645999
 20
10.598
 30
 0
 40
.039999
 50
180
 51
270
 6
CONTINUOUS
 0
LINE
 8
WHITE
 10
4.645999
 20
10.558
 30
0.0000
 11
5.106999
 21
10.558
 31
0.0000
 6
CONTINUOUS
 0
ARC
 8
WHITE
 10
5.107699
 20
10.4951
 30
 0
 40
.062903
 50
16.53296
 51
90.6376
 6
CONTINUOUS
 0
ARC
 8
WHITE
 10
.8965
 20
9.2458
 30
 0
 40
4.455503
 50
359.9511
 51
16.52372
 6
CONTINUOUS
 0
LINE
 8
WHITE
 10
5.352
 20
9.241999
 30
0.0000
 11
5.352
 21
9.276
 31
0.0000
 6
CONTINUOUS
 0
ARC
 8
WHITE
 10
.8969
 20
9.2721
 30
 0
 40
4.455101
 50
343.476
 51
.050156
 6
CONTINUOUS
 0
ARC
 8
WHITE
 10
5.1077
 20
8.0229
 30
 0
 40
.0629
 50
269.362
 51
343.4665
 6
CONTINUOUS
 0
LINE
 8
WHITE
 10
5.106999
 20
7.96
 30
0.0000
 11
4.184999
 21
7.96
 31
0.0000
 6
CONTINUOUS
 0
ARC
 8
WHITE
 10
4.184999
 20
8.022899
 30
 0
 40
.062899
 50
179.9089
 51
270
 6
CONTINUOUS
 0
LINE
 8
WHITE
 10
4.122
 20
8.022999
 30
0.0000
 11
4.122
 21
8.131999
 31
0.0000
 6
CONTINUOUS
 0
ARC
 8
WHITE
 10
4.1554
 20
8.1316
 30
 0
 40
.033402
 50
90.68626
 51
179.3139
 6
CONTINUOUS
 0
LINE
 8
WHITE
 10
4.155
 20
8.164999
 30
0.0000
 11
4.692999
 21
8.164999
 31
0.0000
 6
CONTINUOUS
 0
ARC
 8
WHITE
 10
4.692999
 20
8.204999
 30
 0
 40
.039999
 50
270
 51
0
 6
CONTINUOUS
 0
LINE
 8
WHITE
 10
4.732999
 20
8.204999
 30
0.0000
 11
4.732999
 21
8.236
 31
0.0000
 6
CONTINUOUS
 0
ARC
 8
WHITE
 10
4.692999
 20
8.236
 30
 0
 40
.039999
 50
0
 51
90
 6
CONTINUOUS
 0
LINE
 8
WHITE
 10
4.692999
 20
8.276
 30
0.0000
 11
4.155
 21
8.276
 31
0.0000
 6
CONTINUOUS
 0
ARC
 8
WHITE
 10
4.1554
 20
8.309399
 30
 0
 40
.033402
 50
180.6854
 51
269.3138
 6
CONTINUOUS
 0
LINE
 8
WHITE
 10
4.122
 20
8.309
 30
0.0000
 11
4.122
 21
8.541
 31
0.0000
 6
CONTINUOUS
 0
ARC
 8
WHITE
 10
4.1849
 20
8.541
 30
 0
 40
.062899
 50
89.90936
 51
180
 6
CONTINUOUS
 0
LINE
 8
WHITE
 10
4.184999
 20
8.604
 30
0.0000
 11
4.322
 21
8.604
 31
0.0000
 6
CONTINUOUS
 0
ARC
 8
WHITE
 10
4.3211
 20
8.6589
 30
 0
 40
.054907
 50
270.9392
 51
.104506
 6
CONTINUOUS
 0
LINE
 8
WHITE
 10
4.375999
 20
8.659
 30
0.0000
 11
4.375999
 21
9.859
 31
0.0000
 6
CONTINUOUS
 0
ARC
 8
WHITE
 10
4.321099
 20
9.8591
 30
 0
 40
.0549
 50
359.8956
 51
89.06052
 6
CONTINUOUS
 0
LINE
 8
WHITE
 10
4.322
 20
9.913999
 30
0.0000
 11
4.184999
 21
9.913999
 31
0.0000
 6
CONTINUOUS
 0
ARC
 8
WHITE
 10
4.184999
 20
9.976899
 30
 0
 40
.062899
 50
179.9081
 51
270
 6
CONTINUOUS
 0
LINE
 8
WHITE
 10
4.122
 20
9.977
 30
0.0000
 11
4.122
 21
10.209
 31
0.0000
 6
CONTINUOUS
 0
ARC
 8
WHITE
 10
4.1554
 20
10.2086
 30
 0
 40
.033402
 50
90.68626
 51
179.3139
 6
CONTINUOUS
 0
LINE
 8
WHITE
 10
4.155
 20
10.242
 30
0.0000
 11
4.692999
 21
10.242
 31
0.0000
 6
CONTINUOUS
 0
ARC
 8
WHITE
 10
4.692999
 20
10.282
 30
 0
 40
.039999
 50
270
 51
0
 6
CONTINUOUS
 0
LINE
 8
WHITE
 10
4.732999
 20
10.282
 30
0.0000
 11
4.732999
 21
10.313
 31
0.0000
 6
CONTINUOUS
 0
ARC
 8
WHITE
 10
4.692999
 20
10.313
 30
 0
 40
.039999
 50
0
 51
90
 6
CONTINUOUS
 0
LINE
 8
WHITE
 10
4.692999
 20
10.353
 30
0.0000
 11
4.155
 21
10.353
 31
0.0000
 6
CONTINUOUS
 0
ARC
 8
WHITE
 10
4.1554
 20
10.3864
 30
 0
 40
.033402
 50
178.9695
 51
269.3138
 6
CONTINUOUS
 0
LINE
 8
WHITE
 10
4.122
 20
10.387
 30
0.0000
 11
4.122
 21
10.495
 31
0.0000
 6
CONTINUOUS
 0
ARC
 8
WHITE
 10
4.1849
 20
10.495
 30
 0
 40
.062899
 50
89.90936
 51
180
 6
CONTINUOUS
 0
LINE
 8
WHITE
 10
4.184999
 20
10.558
 30
0.0000
 11
4.645999
 21
10.558
 31
0.0000
 6
CONTINUOUS
 0
LINE
 8
WHITE
 10
4.645999
 20
10.558
 30
0.0000
 11
4.638999
 21
10.565
 31
0.0000
 6
CONTINUOUS
 0
LINE
 8
WHITE
 10
7.495999
 20
2.721999
 30
0.0000
 11
7.493
 21
2.822
 31
0.0000
 6
CONTINUOUS
 0
LINE
 8
WHITE
 10
7.493
 20
2.822
 30
0.0000
 11
7.406
 21
5.532999
 31
0.0000
 6
CONTINUOUS
 0
ARC
 8
WHITE
 10
7.438499
 20
5.5335
 30
 0
 40
.032503
 50
89.11823
 51
180.8814
 6
CONTINUOUS
 0
LINE
 8
WHITE
 10
7.439
 20
5.565999
 30
0.0000
 11
8.161
 21
5.565999
 31
0.0000
 6
CONTINUOUS
 0
ARC
 8
WHITE
 10
8.1605
 20
5.5335
 30
 0
 40
.032503
 50
357.3572
 51
89.1186
 6
CONTINUOUS
 0
LINE
 8
WHITE
 10
8.192999
 20
5.532
 30
0.0000
 11
7.965
 21
1.562999
 31
0.0000
 6
CONTINUOUS
 0
LINE
 8
WHITE
 10
7.965
 20
1.562999
 30
0.0000
 11
8.043
 21
1.531999
 31
0.0000
 6
CONTINUOUS
 0
ARC
 8
WHITE
 10
8.013
 20
1.421999
 30
 0
 40
.114017
 50
277.5611
 51
74.74488
 6
CONTINUOUS
 0
LINE
 8
WHITE
 10
8.027999
 20
1.309
 30
0.0000
 11
7.782
 21
1.309
 31
0.0000
 6
CONTINUOUS
 0
ARC
 8
WHITE
 10
7.7814
 20
1.3424
 30
 0
 40
.033405
 50
178.9709
 51
271.0291
 6
CONTINUOUS
 0
LINE
 8
WHITE
 10
7.748
 20
1.343
 30
0.0000
 11
7.748
 21
1.628999
 31
0.0000
 6
CONTINUOUS
 0
ARC
 8
WHITE
 10
7.708
 20
1.628999
 30
 0
 40
.039999
 50
0
 51
90
 6
CONTINUOUS
 0
LINE
 8
WHITE
 10
7.708
 20
1.669
 30
0.0000
 11
7.677
 21
1.669
 31
0.0000
 6
CONTINUOUS
 0
ARC
 8
WHITE
 10
7.677
 20
1.629
 30
 0
 40
.039999
 50
90
 51
180.0002
 6
CONTINUOUS
 0
LINE
 8
WHITE
 10
7.637
 20
1.628999
 30
0.0000
 11
7.637
 21
1.343
 31
0.0000
 6
CONTINUOUS
 0
ARC
 8
WHITE
 10
7.6036
 20
1.3424
 30
 0
 40
.033405
 50
270.6862
 51
1.029154
 6
CONTINUOUS
 0
LINE
 8
WHITE
 10
7.604
 20
1.309
 30
0.0000
 11
7.525
 21
1.309
 31
0.0000
 6
CONTINUOUS
 0
ARC
 8
WHITE
 10
7.524899
 20
1.371899
 30
 0
 40
.0629
 50
179.9089
 51
270.0911
 6
CONTINUOUS
 0
LINE
 8
WHITE
 10
7.461999
 20
1.371999
 30
0.0000
 11
7.461999
 21
2.157
 31
0.0000
 6
CONTINUOUS
 0
ARC
 8
WHITE
 10
7.524899
 20
2.1568
 30
 0
 40
.0629
 50
112.3257
 51
179.8178
 6
CONTINUOUS
 0
LINE
 8
WHITE
 10
7.500999
 20
2.214999
 30
0.0000
 11
7.691999
 21
2.293999
 31
0.0000
 6
CONTINUOUS
 0
LINE
 8
WHITE
 10
7.691999
 20
2.293999
 30
0.0000
 11
7.719999
 21
2.331
 31
0.0000
 6
CONTINUOUS
 0
LINE
 8
WHITE
 10
7.719999
 20
2.331
 30
0.0000
 11
7.745999
 21
2.625999
 31
0.0000
 6
CONTINUOUS
 0
ARC
 8
WHITE
 10
7.706199
 20
2.629499
 30
 0
 40
.039953
 50
354.9744
 51
56.94561
 6
CONTINUOUS
 0
LINE
 8
WHITE
 10
7.728
 20
2.663
 30
0.0000
 11
7.493
 21
2.822
 31
0.0000
 6
CONTINUOUS
 0
LINE
 8
WHITE
 10
7.493
 20
2.822
 30
0.0000
 11
7.482999
 21
2.819999
 31
0.0000
 6
CONTINUOUS
 0
LINE
 8
WHITE
 10
8.722999
 20
2.721999
 30
0.0000
 11
8.718999
 21
2.822
 31
0.0000
 6
CONTINUOUS
 0
LINE
 8
WHITE
 10
8.718999
 20
2.822
 30
0.0000
 11
8.633
 21
5.532999
 31
0.0000
 6
CONTINUOUS
 0
ARC
 8
WHITE
 10
8.6655
 20
5.5335
 30
 0
 40
.032503
 50
90.88261
 51
180.8814
 6
CONTINUOUS
 0
LINE
 8
WHITE
 10
8.664999
 20
5.565999
 30
0.0000
 11
9.387
 21
5.565999
 31
0.0000
 6
CONTINUOUS
 0
ARC
 8
WHITE
 10
9.387499
 20
5.5335
 30
 0
 40
.032503
 50
357.3572
 51
90.8814
 6
CONTINUOUS
 0
LINE
 8
WHITE
 10
9.42
 20
5.532
 30
0.0000
 11
9.192
 21
1.562999
 31
0.0000
 6
CONTINUOUS
 0
LINE
 8
WHITE
 10
9.192
 20
1.562999
 30
0.0000
 11
9.27
 21
1.531999
 31
0.0000
 6
CONTINUOUS
 0
ARC
 8
WHITE
 10
9.2397
 20
1.422099
 30
 0
 40
.114
 50
277.2057
 51
74.58619
 6
CONTINUOUS
 0
LINE
 8
WHITE
 10
9.253999
 20
1.309
 30
0.0000
 11
9.008
 21
1.309
 31
0.0000
 6
CONTINUOUS
 0
ARC
 8
WHITE
 10
9.008399
 20
1.3424
 30
 0
 40
.033402
 50
178.9709
 51
269.3138
 6
CONTINUOUS
 0
LINE
 8
WHITE
 10
8.975
 20
1.343
 30
0.0000
 11
8.975
 21
1.628999
 31
0.0000
 6
CONTINUOUS
 0
ARC
 8
WHITE
 10
8.935
 20
1.628999
 30
 0
 40
.039999
 50
0
 51
90
 6
CONTINUOUS
 0
LINE
 8
WHITE
 10
8.935
 20
1.669
 30
0.0000
 11
8.904
 21
1.669
 31
0.0000
 6
CONTINUOUS
 0
ARC
 8
WHITE
 10
8.904
 20
1.629
 30
 0
 40
.039999
 50
90
 51
180.0002
 6
CONTINUOUS
 0
LINE
 8
WHITE
 10
8.864
 20
1.628999
 30
0.0000
 11
8.864
 21
1.343
 31
0.0000
 6
CONTINUOUS
 0
ARC
 8
WHITE
 10
8.8306
 20
1.3424
 30
 0
 40
.033405
 50
270.6854
 51
1.029154
 6
CONTINUOUS
 0
LINE
 8
WHITE
 10
8.831
 20
1.309
 30
0.0000
 11
8.751999
 21
1.309
 31
0.0000
 6
CONTINUOUS
 0
ARC
 8
WHITE
 10
8.751999
 20
1.371899
 30
 0
 40
.062899
 50
179.909
 51
270
 6
CONTINUOUS
 0
LINE
 8
WHITE
 10
8.689
 20
1.371999
 30
0.0000
 11
8.689
 21
2.157
 31
0.0000
 6
CONTINUOUS
 0
ARC
 8
WHITE
 10
8.751899
 20
2.1568
 30
 0
 40
.0629
 50
112.3257
 51
179.8178
 6
CONTINUOUS
 0
LINE
 8
WHITE
 10
8.727999
 20
2.214999
 30
0.0000
 11
8.918
 21
2.293999
 31
0.0000
 6
CONTINUOUS
 0
LINE
 8
WHITE
 10
8.918
 20
2.293999
 30
0.0000
 11
8.946
 21
2.331
 31
0.0000
 6
CONTINUOUS
 0
LINE
 8
WHITE
 10
8.946
 20
2.331
 30
0.0000
 11
8.972
 21
2.625999
 31
0.0000
 6
CONTINUOUS
 0
ARC
 8
WHITE
 10
8.9323
 20
2.6301
 30
 0
 40
.039911
 50
354.1037
 51
55.39634
 6
CONTINUOUS
 0
LINE
 8
WHITE
 10
8.954999
 20
2.663
 30
0.0000
 11
8.718999
 21
2.822
 31
0.0000
 6
CONTINUOUS
 0
LINE
 8
WHITE
 10
8.718999
 20
2.822
 30
0.0000
 11
8.71
 21
2.819999
 31
0.0000
 6
CONTINUOUS
 0
LINE
 8
WHITE
 10
9.949
 20
2.721999
 30
0.0000
 11
9.946
 21
2.822
 31
0.0000
 6
CONTINUOUS
 0
LINE
 8
WHITE
 10
9.946
 20
2.822
 30
0.0000
 11
9.859
 21
5.532999
 31
0.0000
 6
CONTINUOUS
 0
ARC
 8
WHITE
 10
9.8915
 20
5.5335
 30
 0
 40
.032503
 50
89.11907
 51
180.8814
 6
CONTINUOUS
 0
LINE
 8
WHITE
 10
9.892
 20
5.565999
 30
0.0000
 11
10.614
 21
5.565999
 31
0.0000
 6
CONTINUOUS
 0
ARC
 8
WHITE
 10
10.6135
 20
5.5335
 30
 0
 40
.032503
 50
357.3572
 51
89.1186
 6
CONTINUOUS
 0
LINE
 8
WHITE
 10
10.646
 20
5.532
 30
0.0000
 11
10.418
 21
1.562999
 31
0.0000
 6
CONTINUOUS
 0
LINE
 8
WHITE
 10
10.418
 20
1.562999
 30
0.0000
 11
10.496
 21
1.531999
 31
0.0000
 6
CONTINUOUS
 0
ARC
 8
WHITE
 10
10.466
 20
1.421999
 30
 0
 40
.114017
 50
277.5611
 51
74.74488
 6
CONTINUOUS
 0
LINE
 8
WHITE
 10
10.481
 20
1.309
 30
0.0000
 11
10.235
 21
1.309
 31
0.0000
 6
CONTINUOUS
 0
ARC
 8
WHITE
 10
10.2344
 20
1.3424
 30
 0
 40
.033405
 50
178.9709
 51
271.0291
 6
CONTINUOUS
 0
LINE
 8
WHITE
 10
10.201
 20
1.343
 30
0.0000
 11
10.201
 21
1.628999
 31
0.0000
 6
CONTINUOUS
 0
ARC
 8
WHITE
 10
10.161
 20
1.628999
 30
 0
 40
.039999
 50
0
 51
90
 6
CONTINUOUS
 0
LINE
 8
WHITE
 10
10.161
 20
1.669
 30
0.0000
 11
10.13
 21
1.669
 31
0.0000
 6
CONTINUOUS
 0
ARC
 8
WHITE
 10
10.13
 20
1.629
 30
 0
 40
.039999
 50
90
 51
180.0002
 6
CONTINUOUS
 0
LINE
 8
WHITE
 10
10.09
 20
1.628999
 30
0.0000
 11
10.09
 21
1.343
 31
0.0000
 6
CONTINUOUS
 0
ARC
 8
WHITE
 10
10.0566
 20
1.3424
 30
 0
 40
.033405
 50
270.6854
 51
1.029154
 6
CONTINUOUS
 0
LINE
 8
WHITE
 10
10.057
 20
1.309
 30
0.0000
 11
9.977999
 21
1.309
 31
0.0000
 6
CONTINUOUS
 0
ARC
 8
WHITE
 10
9.977999
 20
1.371899
 30
 0
 40
.062899
 50
179.909
 51
270
 6
CONTINUOUS
 0
LINE
 8
WHITE
 10
9.914999
 20
1.371999
 30
0.0000
 11
9.914999
 21
2.157
 31
0.0000
 6
CONTINUOUS
 0
ARC
 8
WHITE
 10
9.977899
 20
2.1568
 30
 0
 40
.0629
 50
112.3249
 51
179.8178
 6
CONTINUOUS
 0
LINE
 8
WHITE
 10
9.954
 20
2.214999
 30
0.0000
 11
10.145
 21
2.293999
 31
0.0000
 6
CONTINUOUS
 0
LINE
 8
WHITE
 10
10.145
 20
2.293999
 30
0.0000
 11
10.173
 21
2.331
 31
0.0000
 6
CONTINUOUS
 0
LINE
 8
WHITE
 10
10.173
 20
2.331
 30
0.0000
 11
10.199
 21
2.625999
 31
0.0000
 6
CONTINUOUS
 0
ARC
 8
WHITE
 10
10.1592
 20
2.629499
 30
 0
 40
.039953
 50
354.9744
 51
56.94733
 6
CONTINUOUS
 0
LINE
 8
WHITE
 10
10.181
 20
2.663
 30
0.0000
 11
9.946
 21
2.822
 31
0.0000
 6
CONTINUOUS
 0
LINE
 8
WHITE
 10
9.946
 20
2.822
 30
0.0000
 11
9.935999
 21
2.819999
 31
0.0000
 6
CONTINUOUS
 0
LINE
 8
WHITE
 10
14.767
 20
2.760999
 30
0.0000
 11
14.767
 21
2.861
 31
0.0000
 6
CONTINUOUS
 0
LINE
 8
WHITE
 10
14.767
 20
2.861
 30
0.0000
 11
14.767
 21
3.984999
 31
0.0000
 6
CONTINUOUS
 0
ARC
 8
WHITE
 10
14.807
 20
3.984399
 30
 0
 40
.040004
 50
134.3923
 51
179.1406
 6
CONTINUOUS
 0
LINE
 8
WHITE
 10
14.779
 20
4.013
 30
0.0000
 11
14.916
 21
4.15
 31
0.0000
 6
CONTINUOUS
 0
ARC
 8
WHITE
 10
14.9446
 20
4.122
 30
 0
 40
.040024
 50
89.42765
 51
135.6073
 6
CONTINUOUS
 0
LINE
 8
WHITE
 10
14.945
 20
4.162
 30
0.0000
 11
15.512
 21
4.162
 31
0.0000
 6
CONTINUOUS
 0
ARC
 8
WHITE
 10
15.5126
 20
4.122
 30
 0
 40
.040004
 50
40.5384
 51
90.85938
 6
CONTINUOUS
 0
LINE
 8
WHITE
 10
15.543
 20
4.147999
 30
0.0000
 11
15.656
 21
4.012
 31
0.0000
 6
CONTINUOUS
 0
ARC
 8
WHITE
 10
15.626
 20
3.985599
 30
 0
 40
.039961
 50
.573034
 51
41.34778
 6
CONTINUOUS
 0
LINE
 8
WHITE
 10
15.666
 20
3.986
 30
0.0000
 11
15.666
 21
3.404999
 31
0.0000
 6
CONTINUOUS
 0
ARC
 8
WHITE
 10
15.706
 20
3.404999
 30
 0
 40
.039999
 50
180
 51
270
 6
CONTINUOUS
 0
LINE
 8
WHITE
 10
15.706
 20
3.365
 30
0.0000
 11
15.737
 21
3.365
 31
0.0000
 6
CONTINUOUS
 0
ARC
 8
WHITE
 10
15.737
 20
3.404999
 30
 0
 40
.039999
 50
270
 51
0
 6
CONTINUOUS
 0
LINE
 8
WHITE
 10
15.777
 20
3.404999
 30
0.0000
 11
15.777
 21
3.984999
 31
0.0000
 6
CONTINUOUS
 0
ARC
 8
WHITE
 10
15.817
 20
3.985399
 30
 0
 40
.040001
 50
136.4171
 51
180.5729
 6
CONTINUOUS
 0
LINE
 8
WHITE
 10
15.788
 20
4.013
 30
0.0000
 11
15.926
 21
4.15
 31
0.0000
 6
CONTINUOUS
 0
ARC
 8
WHITE
 10
15.9546
 20
4.122
 30
 0
 40
.040024
 50
90.85781
 51
135.6073
 6
CONTINUOUS
 0
LINE
 8
WHITE
 10
15.954
 20
4.162
 30
0.0000
 11
16.497
 21
4.162
 31
0.0000
 6
CONTINUOUS
 0
ARC
 8
WHITE
 10
16.4974
 20
4.122
 30
 0
 40
.040001
 50
44.39374
 51
90.57294
 6
CONTINUOUS
 0
LINE
 8
WHITE
 10
16.526
 20
4.15
 30
0.0000
 11
16.663
 21
4.013
 31
0.0000
 6
CONTINUOUS
 0
ARC
 8
WHITE
 10
16.635
 20
3.9844
 30
 0
 40
.040024
 50
.859194
 51
45.60735
 6
CONTINUOUS
 0
LINE
 8
WHITE
 10
16.675
 20
3.984999
 30
0.0000
 11
16.675
 21
2.901
 31
0.0000
 6
CONTINUOUS
 0
ARC
 8
WHITE
 10
16.635
 20
2.901
 30
 0
 40
.039999
 50
270.0027
 51
0
 6
CONTINUOUS
 0
LINE
 8
WHITE
 10
16.635
 20
2.861
 30
0.0000
 11
14.767
 21
2.861
 31
0.0000
 6
CONTINUOUS
 0
LINE
 8
WHITE
 10
14.767
 20
2.861
 30
0.0000
 11
14.76
 21
2.854
 31
0.0000
 6
CONTINUOUS
 0
LINE
 8
WHITE
 10
13.996
 20
4.82
 30
0.0000
 11
14.047
 21
4.734
 31
0.0000
 6
CONTINUOUS
 0
ARC
 8
WHITE
 10
13.6369
 20
4.4857
 30
 0
 40
.479411
 50
334.0603
 51
31.19332
 6
CONTINUOUS
 0
ARC
 8
WHITE
 10
14.0318
 20
4.2929
 30
 0
 40
.03995
 50
267.4162
 51
334.9745
 6
CONTINUOUS
 0
LINE
 8
WHITE
 10
14.03
 20
4.252999
 30
0.0000
 11
13.065
 21
4.309
 31
0.0000
 6
CONTINUOUS
 0
ARC
 8
WHITE
 10
13.0678
 20
4.348899
 30
 0
 40
.039998
 50
214.9214
 51
265.9858
 6
CONTINUOUS
 0
LINE
 8
WHITE
 10
13.035
 20
4.326
 30
0.0000
 11
12.945
 21
4.452
 31
0.0000
 6
CONTINUOUS
 0
ARC
 8
WHITE
 10
12.8232
 20
4.345499
 30
 0
 40
.161794
 50
41.16594
 51
133.9226
 6
CONTINUOUS
 0
LINE
 8
WHITE
 10
12.711
 20
4.461999
 30
0.0000
 11
12.641
 21
4.354
 31
0.0000
 6
CONTINUOUS
 0
LINE
 8
WHITE
 10
12.641
 20
4.354
 30
0.0000
 11
12.605
 21
4.236999
 31
0.0000
 6
CONTINUOUS
 0
ARC
 8
WHITE
 10
12.5671
 20
4.249499
 30
 0
 40
.039908
 50
278.4959
 51
341.7466
 6
CONTINUOUS
 0
ARC
 8
WHITE
 10
12.6617
 20
3.671
 30
 0
 40
.546249
 50
99.34506
 51
153.9369
 6
CONTINUOUS
 0
ARC
 8
WHITE
 10
16.639
 20
1.726099
 30
 0
 40
4.973611
 50
153.9409
 51
160.1125
 6
CONTINUOUS
 0
ARC
 8
WHITE
 10
10.8221
 20
3.7797
 30
 0
 40
1.195909
 50
320.8097
 51
342.3953
 6
CONTINUOUS
 0
ARC
 8
WHITE
 10
11.7178
 20
3.049
 30
 0
 40
.03998
 50
268.8554
 51
321.2954
 6
CONTINUOUS
 0
ARC
 8
WHITE
 10
11.727
 20
3.4883
 30
 0
 40
.479404
 50
213.8857
 51
268.8048
 6
CONTINUOUS
 0
ARC
 8
WHITE
 10
11.3625
 20
3.243
 30
 0
 40
.040078
 50
146.7061
 51
213.2936
 6
CONTINUOUS
 0
LINE
 8
WHITE
 10
11.329
 20
3.265
 30
0.0000
 11
11.86
 21
4.072999
 31
0.0000
 6
CONTINUOUS
 0
ARC
 8
WHITE
 10
11.8936
 20
4.0513
 30
 0
 40
.039998
 50
96.60872
 51
147.1443
 6
CONTINUOUS
 0
LINE
 8
WHITE
 10
11.889
 20
4.091
 30
0.0000
 11
12.043
 21
4.105
 31
0.0000
 6
CONTINUOUS
 0
ARC
 8
WHITE
 10
12.0121
 20
4.2637
 30
 0
 40
.16168
 50
281.018
 51
14.06205
 6
CONTINUOUS
 0
LINE
 8
WHITE
 10
12.169
 20
4.302999
 30
0.0000
 11
12.111
 21
4.418
 31
0.0000
 6
CONTINUOUS
 0
LINE
 8
WHITE
 10
12.111
 20
4.418
 30
0.0000
 11
12.028
 21
4.506999
 31
0.0000
 6
CONTINUOUS
 0
ARC
 8
WHITE
 10
12.0572
 20
4.534299
 30
 0
 40
.039974
 50
158.4376
 51
223.074
 6
CONTINUOUS
 0
ARC
 8
WHITE
 10
11.5087
 20
4.741199
 30
 0
 40
.546231
 50
339.3985
 51
33.91701
 6
CONTINUOUS
 0
ARC
 8
WHITE
 10
7.8357
 20
2.269299
 30
 0
 40
4.973571
 50
33.93769
 51
40.1016
 6
CONTINUOUS
 0
ARC
 8
WHITE
 10
12.523
 20
6.2795
 30
 0
 40
1.195881
 50
200.7915
 51
222.4074
 6
CONTINUOUS
 0
ARC
 8
WHITE
 10
11.4423
 20
5.8694
 30
 0
 40
.039983
 50
149.0118
 51
201.1095
 6
CONTINUOUS
 0
ARC
 8
WHITE
 10
11.8181
 20
5.641799
 30
 0
 40
.479359
 50
93.95959
 51
148.8169
 6
CONTINUOUS
 0
ARC
 8
WHITE
 10
11.7882
 20
6.0801
 30
 0
 40
.040028
 50
26.56444
 51
94.58533
 6
CONTINUOUS
 0
LINE
 8
WHITE
 10
11.824
 20
6.098
 30
0.0000
 11
12.258
 21
5.235
 31
0.0000
 6
CONTINUOUS
 0
ARC
 8
WHITE
 10
12.2226
 20
5.2165
 30
 0
 40
.039942
 50
335.6147
 51
27.59152
 6
CONTINUOUS
 0
LINE
 8
WHITE
 10
12.259
 20
5.199999
 30
0.0000
 11
12.194
 21
5.059
 31
0.0000
 6
CONTINUOUS
 0
ARC
 8
WHITE
 10
12.3472
 20
5.007299
 30
 0
 40
.161688
 50
161.3521
 51
253.7722
 6
CONTINUOUS
 0
LINE
 8
WHITE
 10
12.302
 20
4.852
 30
0.0000
 11
12.366
 21
4.848
 31
0.0000
 6
CONTINUOUS
 0
ARC
 8
WHITE
 10
12.3643
 20
4.815599
 30
 0
 40
.032444
 50
340.9516
 51
86.9965
 6
CONTINUOUS
 0
LINE
 8
WHITE
 10
12.395
 20
4.804999
 30
0.0000
 11
12.328
 21
4.620999
 31
0.0000
 6
CONTINUOUS
 0
ARC
 8
WHITE
 10
12.3657
 20
4.607599
 30
 0
 40
.04001
 50
160.4329
 51
249.9806
 6
CONTINUOUS
 0
LINE
 8
WHITE
 10
12.352
 20
4.57
 30
0.0000
 11
12.381
 21
4.559
 31
0.0000
 6
CONTINUOUS
 0
ARC
 8
WHITE
 10
12.3944
 20
4.5967
 30
 0
 40
.04001
 50
250.4329
 51
339.9804
 6
CONTINUOUS
 0
LINE
 8
WHITE
 10
12.432
 20
4.583
 30
0.0000
 11
12.527
 21
4.843999
 31
0.0000
 6
CONTINUOUS
 0
ARC
 8
WHITE
 10
12.558
 20
4.834099
 30
 0
 40
.032542
 50
117.4311
 51
162.2889
 6
CONTINUOUS
 0
LINE
 8
WHITE
 10
12.543
 20
4.862999
 30
0.0000
 11
12.551
 21
4.867
 31
0.0000
 6
CONTINUOUS
 0
ARC
 8
WHITE
 10
12.5648
 20
4.8376
 30
 0
 40
.032477
 50
38.98947
 51
115.1448
 6
CONTINUOUS
 0
ARC
 8
WHITE
 10
13.0119
 20
5.204899
 30
 0
 40
.546204
 50
219.4282
 51
273.9997
 6
CONTINUOUS
 0
ARC
 8
WHITE
 10
12.7121
 20
9.622099
 30
 0
 40
4.973591
 50
273.8956
 51
280.0614
 6
CONTINUOUS
 0
ARC
 8
WHITE
 10
13.8367
 20
3.556799
 30
 0
 40
1.195856
 50
79.87132
 51
102.3464
 6
CONTINUOUS
 0
LINE
 8
WHITE
 10
14.047
 20
4.734
 30
0.0000
 11
14.056
 21
4.739999
 31
0.0000
 6
CONTINUOUS
 0
LINE
 8
WHITE
 10
12.85
 20
1.657999
 30
0.0000
 11
12.865
 21
1.756999
 31
0.0000
 6
CONTINUOUS
 0
ARC
 8
WHITE
 10
12.8255
 20
1.763399
 30
 0
 40
.040015
 50
350.7966
 51
82.09171
 6
CONTINUOUS
 0
ARC
 8
WHITE
 10
12.6346
 20
.5116
 30
 0
 40
1.306249
 50
81.35255
 51
117.5224
 6
CONTINUOUS
 0
ARC
 8
WHITE
 10
12.0122
 20
1.705399
 30
 0
 40
.040082
 50
225.2023
 51
297.9716
 6
CONTINUOUS
 0
ARC
 8
WHITE
 10
12.2266
 20
1.9217
 30
 0
 40
.344576
 50
199.0923
 51
225.2469
 6
CONTINUOUS
 0
ARC
 8
WHITE
 10
11.9386
 20
1.822399
 30
 0
 40
.039916
 50
109.8843
 51
199.6152
 6
CONTINUOUS
 0
LINE
 8
WHITE
 10
11.925
 20
1.86
 30
0.0000
 11
12.229
 21
1.97
 31
0.0000
 6
CONTINUOUS
 0
ARC
 8
WHITE
 10
12.2154
 20
2.0076
 30
 0
 40
.039983
 50
289.8852
 51
19.61473
 6
CONTINUOUS
 0
LINE
 8
WHITE
 10
12.253
 20
2.020999
 30
0.0000
 11
12.243
 21
2.049999
 31
0.0000
 6
CONTINUOUS
 0
ARC
 8
WHITE
 10
12.2053
 20
2.036599
 30
 0
 40
.04001
 50
19.56713
 51
110.925
 6
CONTINUOUS
 0
LINE
 8
WHITE
 10
12.191
 20
2.073999
 30
0.0000
 11
11.857
 21
1.952
 31
0.0000
 6
CONTINUOUS
 0
ARC
 8
WHITE
 10
12.1589
 20
2.1094
 30
 0
 40
.340467
 50
174.5054
 51
207.5359
 6
CONTINUOUS
 0
ARC
 8
WHITE
 10
11.8598
 20
2.138
 30
 0
 40
.04
 50
102.7147
 51
174.2609
 6
CONTINUOUS
 0
ARC
 8
WHITE
 10
11.5634
 20
3.4512
 30
 0
 40
1.306253
 50
282.7191
 51
357.0513
 6
CONTINUOUS
 0
ARC
 8
WHITE
 10
12.9079
 20
3.3821
 30
 0
 40
.039945
 50
102.8866
 51
177.2737
 6
CONTINUOUS
 0
ARC
 8
WHITE
 10
12.9772
 20
3.0854
 30
 0
 40
.34459
 50
77.63364
 51
103.1168
 6
CONTINUOUS
 0
ARC
 8
WHITE
 10
13.044
 20
3.3903
 30
 0
 40
.032463
 50
350.5958
 51
77.54777
 6
CONTINUOUS
 0
LINE
 8
WHITE
 10
13.076
 20
3.384999
 30
0.0000
 11
13.019
 21
3.059
 31
0.0000
 6
CONTINUOUS
 0
ARC
 8
WHITE
 10
13.0584
 20
3.052299
 30
 0
 40
.039965
 50
170.3491
 51
259.3356
 6
CONTINUOUS
 0
LINE
 8
WHITE
 10
13.051
 20
3.013
 30
0.0000
 11
13.081
 21
3.007999
 31
0.0000
 6
CONTINUOUS
 0
ARC
 8
WHITE
 10
13.0887
 20
3.047299
 30
 0
 40
.040047
 50
258.9146
 51
349.4773
 6
CONTINUOUS
 0
LINE
 8
WHITE
 10
13.128
 20
3.039999
 30
0.0000
 11
13.184
 21
3.365999
 31
0.0000
 6
CONTINUOUS
 0
ARC
 8
WHITE
 10
13.2159
 20
3.359799
 30
 0
 40
.032496
 50
82.74391
 51
169.0013
 6
CONTINUOUS
 0
ARC
 8
WHITE
 10
13.1747
 20
3.0504
 30
 0
 40
.34459
 50
56.87727
 51
82.44601
 6
CONTINUOUS
 0
ARC
 8
WHITE
 10
13.3407
 20
3.3057
 30
 0
 40
.040077
 50
343.0126
 51
56.19098
 6
CONTINUOUS
 0
ARC
 8
WHITE
 10
14.628
 20
2.911599
 30
 0
 40
1.306227
 50
162.9772
 51
237.4925
 6
CONTINUOUS
 0
ARC
 8
WHITE
 10
13.9044
 20
1.776399
 30
 0
 40
.039943
 50
344.9209
 51
57.26477
 6
CONTINUOUS
 0
ARC
 8
WHITE
 10
13.6097
 20
1.853399
 30
 0
 40
.344568
 50
317.8113
 51
345.3064
 6
CONTINUOUS
 0
ARC
 8
WHITE
 10
13.841
 20
1.6439
 30
 0
 40
.03249
 50
229.8568
 51
317.6195
 6
CONTINUOUS
 0
LINE
 8
WHITE
 10
13.82
 20
1.618999
 30
0.0000
 11
13.567
 21
1.832
 31
0.0000
 6
CONTINUOUS
 0
ARC
 8
WHITE
 10
13.5415
 20
1.8011
 30
 0
 40
.040063
 50
50.4691
 51
139.6631
 6
CONTINUOUS
 0
LINE
 8
WHITE
 10
13.511
 20
1.827
 30
0.0000
 11
13.491
 21
1.804
 31
0.0000
 6
CONTINUOUS
 0
ARC
 8
WHITE
 10
13.5213
 20
1.777899
 30
 0
 40
.039991
 50
139.2589
 51
230.6904
 6
CONTINUOUS
 0
LINE
 8
WHITE
 10
13.496
 20
1.746999
 30
0.0000
 11
13.749
 21
1.534999
 31
0.0000
 6
CONTINUOUS
 0
ARC
 8
WHITE
 10
13.7283
 20
1.509899
 30
 0
 40
.032534
 50
322.2494
 51
50.48756
 6
CONTINUOUS
 0
ARC
 8
WHITE
 10
13.481
 20
1.700199
 30
 0
 40
.344547
 50
296.9221
 51
322.4051
 6
CONTINUOUS
 0
ARC
 8
WHITE
 10
13.6188
 20
1.428599
 30
 0
 40
.039982
 50
221.7523
 51
297.0778
 6
CONTINUOUS
 0
ARC
 8
WHITE
 10
12.633
 20
.511799
 30
 0
 40
1.306289
 50
42.9588
 51
81.28181
 6
CONTINUOUS
 0
LINE
 8
WHITE
 10
12.831
 20
1.802999
 30
0.0000
 11
12.837
 21
1.794
 31
0.0000
 6
CONTINUOUS
 0
LINE
 8
WHITE
 10
3.536
 20
7.057
 30
0.0000
 11
3.536
 21
7.157
 31
0.0000
 6
CONTINUOUS
 0
ARC
 8
WHITE
 10
3.496
 20
7.157
 30
 0
 40
.039999
 50
0
 51
90
 6
CONTINUOUS
 0
LINE
 8
WHITE
 10
3.496
 20
7.197
 30
0.0000
 11
3.092
 21
7.197
 31
0.0000
 6
CONTINUOUS
 0
ARC
 8
WHITE
 10
3.0924
 20
7.2304
 30
 0
 40
.033402
 50
180.6863
 51
269.3138
 6
CONTINUOUS
 0
LINE
 8
WHITE
 10
3.059
 20
7.23
 30
0.0000
 11
3.059
 21
7.561999
 31
0.0000
 6
CONTINUOUS
 0
ARC
 8
WHITE
 10
3.019
 20
7.561999
 30
 0
 40
.039999
 50
0
 51
90
 6
CONTINUOUS
 0
LINE
 8
WHITE
 10
3.019
 20
7.602
 30
0.0000
 11
2.989
 21
7.602
 31
0.0000
 6
CONTINUOUS
 0
ARC
 8
WHITE
 10
2.989
 20
7.562
 30
 0
 40
.039999
 50
90
 51
180.0007
 6
CONTINUOUS
 0
LINE
 8
WHITE
 10
2.948999
 20
7.561999
 30
0.0000
 11
2.948999
 21
7.23
 31
0.0000
 6
CONTINUOUS
 0
ARC
 8
WHITE
 10
2.915599
 20
7.2304
 30
 0
 40
.033402
 50
270.6862
 51
359.3138
 6
CONTINUOUS
 0
LINE
 8
WHITE
 10
2.915999
 20
7.197
 30
0.0000
 11
2.108999
 21
7.197
 31
0.0000
 6
CONTINUOUS
 0
ARC
 8
WHITE
 10
2.109899
 20
7.2599
 30
 0
 40
.062906
 50
180.82
 51
269.1802
 6
CONTINUOUS
 0
LINE
 8
WHITE
 10
2.046999
 20
7.258999
 30
0.0000
 11
2.046999
 21
7.914999
 31
0.0000
 6
CONTINUOUS
 0
ARC
 8
WHITE
 10
2.169699
 20
7.915299
 30
 0
 40
.1227
 50
90.32687
 51
180.1401
 6
CONTINUOUS
 0
LINE
 8
WHITE
 10
2.168999
 20
8.038
 30
0.0000
 11
2.753999
 21
8.038
 31
0.0000
 6
CONTINUOUS
 0
ARC
 8
WHITE
 10
2.725899
 20
7.8347
 30
 0
 40
.205232
 50
35.52468
 51
82.13048
 6
CONTINUOUS
 0
ARC
 8
WHITE
 10
3.012799
 20
8.1398
 30
 0
 40
.221073
 50
237.1869
 51
267.7177
 6
CONTINUOUS
 0
ARC
 8
WHITE
 10
2.995399
 20
8.1399
 30
 0
 40
.221067
 50
272.2295
 51
302.7555
 6
CONTINUOUS
 0
ARC
 8
WHITE
 10
3.282
 20
7.8347
 30
 0
 40
.205235
 50
97.8419
 51
144.4591
 6
CONTINUOUS
 0
LINE
 8
WHITE
 10
3.253999
 20
8.038
 30
0.0000
 11
3.838999
 21
8.038
 31
0.0000
 6
CONTINUOUS
 0
ARC
 8
WHITE
 10
3.839299
 20
7.915299
 30
 0
 40
.1227
 50
359.86
 51
90.14008
 6
CONTINUOUS
 0
LINE
 8
WHITE
 10
3.961999
 20
7.914999
 30
0.0000
 11
3.961999
 21
7.258999
 31
0.0000
 6
CONTINUOUS
 0
ARC
 8
WHITE
 10
3.899099
 20
7.259899
 30
 0
 40
.062906
 50
269.909
 51
359.1802
 6
CONTINUOUS
 0
LINE
 8
WHITE
 10
3.898999
 20
7.197
 30
0.0000
 11
3.496
 21
7.197
 31
0.0000
 6
CONTINUOUS
 0
LINE
 8
WHITE
 10
3.496
 20
7.197
 30
0.0000
 11
3.503
 21
7.19
 31
0.0000
 6
CONTINUOUS
 0
LINE
 8
WHITE
 10
6.282999
 20
.593999
 30
0.0000
 11
6.282999
 21
.694
 31
0.0000
 6
CONTINUOUS
 0
ARC
 8
WHITE
 10
6.243
 20
.694
 30
 0
 40
.039999
 50
0
 51
90
 6
CONTINUOUS
 0
LINE
 8
WHITE
 10
6.243
 20
.734
 30
0.0000
 11
5.501999
 21
.734
 31
0.0000
 6
CONTINUOUS
 0
ARC
 8
WHITE
 10
5.502699
 20
.8567
 30
 0
 40
.122701
 50
179.8599
 51
269.6731
 6
CONTINUOUS
 0
LINE
 8
WHITE
 10
5.38
 20
.856999
 30
0.0000
 11
5.38
 21
.903999
 31
0.0000
 6
CONTINUOUS
 0
ARC
 8
WHITE
 10
5.4134
 20
.904599
 30
 0
 40
.033405
 50
90.68626
 51
181.0292
 6
CONTINUOUS
 0
LINE
 8
WHITE
 10
5.413
 20
.938
 30
0.0000
 11
5.989999
 21
.938
 31
0.0000
 6
CONTINUOUS
 0
ARC
 8
WHITE
 10
5.989999
 20
.978
 30
 0
 40
.039999
 50
270
 51
359.9999
 6
CONTINUOUS
 0
LINE
 8
WHITE
 10
6.03
 20
.977999
 30
0.0000
 11
6.03
 21
1.008
 31
0.0000
 6
CONTINUOUS
 0
ARC
 8
WHITE
 10
5.99
 20
1.008
 30
 0
 40
.039999
 50
0
 51
90.00068
 6
CONTINUOUS
 0
LINE
 8
WHITE
 10
5.989999
 20
1.047999
 30
0.0000
 11
5.413
 21
1.047999
 31
0.0000
 6
CONTINUOUS
 0
ARC
 8
WHITE
 10
5.4134
 20
1.081399
 30
 0
 40
.033402
 50
178.9707
 51
269.3138
 6
CONTINUOUS
 0
LINE
 8
WHITE
 10
5.38
 20
1.082
 30
0.0000
 11
5.38
 21
1.539999
 31
0.0000
 6
CONTINUOUS
 0
ARC
 8
WHITE
 10
5.34
 20
1.539999
 30
 0
 40
.039999
 50
0
 51
90
 6
CONTINUOUS
 0
LINE
 8
WHITE
 10
5.34
 20
1.58
 30
0.0000
 11
5.309
 21
1.58
 31
0.0000
 6
CONTINUOUS
 0
ARC
 8
WHITE
 10
5.309
 20
1.54
 30
 0
 40
.039999
 50
90
 51
180.0002
 6
CONTINUOUS
 0
LINE
 8
WHITE
 10
5.269
 20
1.539999
 30
0.0000
 11
5.269
 21
1.082
 31
0.0000
 6
CONTINUOUS
 0
ARC
 8
WHITE
 10
5.235599
 20
1.0814
 30
 0
 40
.033405
 50
270.6862
 51
1.029154
 6
CONTINUOUS
 0
LINE
 8
WHITE
 10
5.236
 20
1.047999
 30
0.0000
 11
5.138
 21
1.047999
 31
0.0000
 6
CONTINUOUS
 0
ARC
 8
WHITE
 10
5.138
 20
1.128
 30
 0
 40
.079999
 50
180
 51
270
 6
CONTINUOUS
 0
LINE
 8
WHITE
 10
5.058
 20
1.128
 30
0.0000
 11
5.058
 21
2.015
 31
0.0000
 6
CONTINUOUS
 0
ARC
 8
WHITE
 10
5.138
 20
2.015
 30
 0
 40
.079999
 50
90
 51
180
 6
CONTINUOUS
 0
LINE
 8
WHITE
 10
5.138
 20
2.095
 30
0.0000
 11
5.619999
 21
2.095
 31
0.0000
 6
CONTINUOUS
 0
ARC
 8
WHITE
 10
5.6201
 20
1.6756
 30
 0
 40
.4194
 50
8.417955
 51
90.01366
 6
CONTINUOUS
 0
ARC
 8
WHITE
 10
6.001999
 20
1.7314
 30
 0
 40
.033471
 50
268.2852
 51
9.631169
 6
CONTINUOUS
 0
LINE
 8
WHITE
 10
6.000999
 20
1.697999
 30
0.0000
 11
5.730999
 21
1.697999
 31
0.0000
 6
CONTINUOUS
 0
ARC
 8
WHITE
 10
5.730999
 20
1.657999
 30
 0
 40
.039999
 50
90
 51
180
 6
CONTINUOUS
 0
LINE
 8
WHITE
 10
5.690999
 20
1.657999
 30
0.0000
 11
5.690999
 21
1.628
 31
0.0000
 6
CONTINUOUS
 0
ARC
 8
WHITE
 10
5.730999
 20
1.628
 30
 0
 40
.039999
 50
180
 51
270
 6
CONTINUOUS
 0
LINE
 8
WHITE
 10
5.730999
 20
1.588
 30
0.0000
 11
6.005
 21
1.588
 31
0.0000
 6
CONTINUOUS
 0
ARC
 8
WHITE
 10
6.0046
 20
1.5546
 30
 0
 40
.033402
 50
358.9709
 51
89.31386
 6
CONTINUOUS
 0
LINE
 8
WHITE
 10
6.038
 20
1.554
 30
0.0000
 11
6.038
 21
1.358
 31
0.0000
 6
CONTINUOUS
 0
ARC
 8
WHITE
 10
6.152699
 20
1.357699
 30
 0
 40
.1147
 50
179.8501
 51
270.1498
 6
CONTINUOUS
 0
LINE
 8
WHITE
 10
6.152999
 20
1.243
 30
0.0000
 11
6.877999
 21
1.243
 31
0.0000
 6
CONTINUOUS
 0
ARC
 8
WHITE
 10
6.878699
 20
1.162999
 30
 0
 40
.080003
 50
19.72609
 51
90.50133
 6
CONTINUOUS
 0
LINE
 8
WHITE
 10
6.953999
 20
1.19
 30
0.0000
 11
7.076
 21
.841
 31
0.0000
 6
CONTINUOUS
 0
ARC
 8
WHITE
 10
7.0008
 20
.813899
 30
 0
 40
.079934
 50
270.1433
 51
19.81776
 6
CONTINUOUS
 0
LINE
 8
WHITE
 10
7.000999
 20
.734
 30
0.0000
 11
6.243
 21
.734
 31
0.0000
 6
CONTINUOUS
 0
LINE
 8
WHITE
 10
6.243
 20
.734
 30
0.0000
 11
6.25
 21
.726999
 31
0.0000
 6
CONTINUOUS
 0
LINE
 8
WHITE
 10
1.042
 20
7.695
 30
0.0000
 11
1.141999
 21
7.683
 31
0.0000
 6
CONTINUOUS
 0
ARC
 8
WHITE
 10
1.146299
 20
7.7228
 30
 0
 40
.040031
 50
263.8337
 51
353.1056
 6
CONTINUOUS
 0
LINE
 8
WHITE
 10
1.185999
 20
7.717999
 30
0.0000
 11
1.248
 21
8.232
 31
0.0000
 6
CONTINUOUS
 0
ARC
 8
WHITE
 10
1.3104
 20
8.2242
 30
 0
 40
.062885
 50
91.27708
 51
172.875
 6
CONTINUOUS
 0
LINE
 8
WHITE
 10
1.309
 20
8.286999
 30
0.0000
 11
1.682
 21
8.293999
 31
0.0000
 6
CONTINUOUS
 0
ARC
 8
WHITE
 10
1.6822
 20
8.2311
 30
 0
 40
.0629
 50
2.644061
 51
90.18218
 6
CONTINUOUS
 0
LINE
 8
WHITE
 10
1.745
 20
8.234
 30
0.0000
 11
1.819
 21
6.638999
 31
0.0000
 6
CONTINUOUS
 0
ARC
 8
WHITE
 10
1.756199
 20
6.635799
 30
 0
 40
.062881
 50
310.4827
 51
2.917007
 6
CONTINUOUS
 0
ARC
 8
WHITE
 10
1.8544
 20
6.518699
 30
 0
 40
.089984
 50
129.6344
 51
173.4277
 6
CONTINUOUS
 0
LINE
 8
WHITE
 10
1.764999
 20
6.528999
 30
0.0000
 11
1.764999
 21
6.269999
 31
0.0000
 6
CONTINUOUS
 0
ARC
 8
WHITE
 10
1.7021
 20
6.270899
 30
 0
 40
.062906
 50
269.9089
 51
359.1802
 6
CONTINUOUS
 0
LINE
 8
WHITE
 10
1.702
 20
6.208
 30
0.0000
 11
1.532999
 21
6.208
 31
0.0000
 6
CONTINUOUS
 0
ARC
 8
WHITE
 10
1.533399
 20
6.2414
 30
 0
 40
.033402
 50
180.6863
 51
269.3138
 6
CONTINUOUS
 0
LINE
 8
WHITE
 10
1.5
 20
6.241
 30
0.0000
 11
1.5
 21
6.443999
 31
0.0000
 6
CONTINUOUS
 0
ARC
 8
WHITE
 10
1.46
 20
6.443999
 30
 0
 40
.039999
 50
0
 51
90
 6
CONTINUOUS
 0
LINE
 8
WHITE
 10
1.46
 20
6.484
 30
0.0000
 11
1.429
 21
6.484
 31
0.0000
 6
CONTINUOUS
 0
ARC
 8
WHITE
 10
1.429
 20
6.444
 30
 0
 40
.039999
 50
90
 51
180.0007
 6
CONTINUOUS
 0
LINE
 8
WHITE
 10
1.389
 20
6.443999
 30
0.0000
 11
1.389
 21
6.241
 31
0.0000
 6
CONTINUOUS
 0
ARC
 8
WHITE
 10
1.3556
 20
6.2414
 30
 0
 40
.033402
 50
268.9707
 51
359.3138
 6
CONTINUOUS
 0
LINE
 8
WHITE
 10
1.355
 20
6.208
 30
0.0000
 11
1.230999
 21
6.208
 31
0.0000
 6
CONTINUOUS
 0
ARC
 8
WHITE
 10
1.230699
 20
6.2709
 30
 0
 40
.0629
 50
184.469
 51
270.2733
 6
CONTINUOUS
 0
LINE
 8
WHITE
 10
1.167999
 20
6.265999
 30
0.0000
 11
1.141999
 21
6.598999
 31
0.0000
 6
CONTINUOUS
 0
ARC
 8
WHITE
 10
1.1753
 20
6.6016
 30
 0
 40
.033401
 50
90.51469
 51
184.4645
 6
CONTINUOUS
 0
LINE
 8
WHITE
 10
1.174999
 20
6.635
 30
0.0000
 11
1.432999
 21
6.638
 31
0.0000
 6
CONTINUOUS
 0
ARC
 8
WHITE
 10
1.431999
 20
6.677999
 30
 0
 40
.040012
 50
271.4321
 51
0
 6
CONTINUOUS
 0
LINE
 8
WHITE
 10
1.472
 20
6.677999
 30
0.0000
 11
1.472
 21
6.71
 31
0.0000
 6
CONTINUOUS
 0
ARC
 8
WHITE
 10
1.432
 20
6.71
 30
 0
 40
.039999
 50
0
 51
90
 6
CONTINUOUS
 0
LINE
 8
WHITE
 10
1.432
 20
6.75
 30
0.0000
 11
1.162999
 21
6.75
 31
0.0000
 6
CONTINUOUS
 0
ARC
 8
WHITE
 10
1.1633
 20
6.7834
 30
 0
 40
.033401
 50
184.1222
 51
269.4854
 6
CONTINUOUS
 0
LINE
 8
WHITE
 10
1.129999
 20
6.781
 30
0.0000
 11
1.113999
 21
7.020999
 31
0.0000
 6
CONTINUOUS
 0
ARC
 8
WHITE
 10
1.147399
 20
7.023499
 30
 0
 40
.033493
 50
90.684
 51
184.2806
 6
CONTINUOUS
 0
LINE
 8
WHITE
 10
1.146999
 20
7.057
 30
0.0000
 11
1.351999
 21
7.057
 31
0.0000
 6
CONTINUOUS
 0
ARC
 8
WHITE
 10
1.351999
 20
7.097
 30
 0
 40
.039999
 50
270
 51
0
 6
CONTINUOUS
 0
LINE
 8
WHITE
 10
1.391999
 20
7.097
 30
0.0000
 11
1.391999
 21
7.127999
 31
0.0000
 6
CONTINUOUS
 0
ARC
 8
WHITE
 10
1.351999
 20
7.127999
 30
 0
 40
.039999
 50
0
 51
90
 6
CONTINUOUS
 0
LINE
 8
WHITE
 10
1.351999
 20
7.168
 30
0.0000
 11
1.157999
 21
7.168
 31
0.0000
 6
CONTINUOUS
 0
ARC
 8
WHITE
 10
1.1582
 20
7.2014
 30
 0
 40
.0334
 50
173.812
 51
269.6569
 6
CONTINUOUS
 0
LINE
 8
WHITE
 10
1.125
 20
7.204999
 30
0.0000
 11
1.185999
 21
7.717999
 31
0.0000
 6
CONTINUOUS
 0
LINE
 8
WHITE
 10
1.185999
 20
7.717999
 30
0.0000
 11
1.177999
 21
7.711999
 31
0.0000
 6
CONTINUOUS
 0
LINE
 8
WHITE
 10
16.158
 20
9.388999
 30
0.0000
 11
16.087
 21
9.458999
 31
0.0000
 6
CONTINUOUS
 0
ARC
 8
WHITE
 10
16.059
 20
9.430399
 30
 0
 40
.040024
 50
45.60735
 51
134.3928
 6
CONTINUOUS
 0
CIRCLE
 8
WHITE
 10
15.6417
 20
9.848299
 30
 0
 40
.550553
 6
CONTINUOUS
 0
LINE
 8
WHITE
 10
16.031
 20
9.458999
 30
0.0000
 11
16.041
 21
9.458999
 31
0.0000
 6
CONTINUOUS
 0
LINE
 8
WHITE
 10
16.298
 20
4.893
 30
0.0000
 11
16.227
 21
4.964
 31
0.0000
 6
CONTINUOUS
 0
ARC
 8
WHITE
 10
16.199
 20
4.9354
 30
 0
 40
.040024
 50
45.60735
 51
134.3923
 6
CONTINUOUS
 0
CIRCLE
 8
WHITE
 10
15.7817
 20
5.3533
 30
 0
 40
.550553
 6
CONTINUOUS
 0
LINE
 8
WHITE
 10
16.171
 20
4.964
 30
0.0000
 11
16.181
 21
4.964
 31
0.0000
 6
CONTINUOUS
 0
LINE
 8
WHITE
 10
16.322
 20
1.085
 30
0.0000
 11
16.251
 21
1.156
 31
0.0000
 6
CONTINUOUS
 0
ARC
 8
WHITE
 10
16.223
 20
1.1274
 30
 0
 40
.040024
 50
45.60735
 51
134.3925
 6
CONTINUOUS
 0
CIRCLE
 8
WHITE
 10
15.8057
 20
1.5453
 30
 0
 40
.550553
 6
CONTINUOUS
 0
LINE
 8
WHITE
 10
16.195
 20
1.156
 30
0.0000
 11
16.205
 21
1.156
 31
0.0000
 6
CONTINUOUS
 0
LINE
 8
WHITE
 10
6.543
 20
6.814
 30
0.0000
 11
6.543
 21
6.714
 31
0.0000
 6
CONTINUOUS
 0
ARC
 8
WHITE
 10
6.583
 20
6.714
 30
 0
 40
.039999
 50
180
 51
270
 6
CONTINUOUS
 0
LINE
 8
WHITE
 10
6.583
 20
6.673999
 30
0.0000
 11
6.729
 21
6.673999
 31
0.0000
 6
CONTINUOUS
 0
ARC
 8
WHITE
 10
6.7283
 20
6.593999
 30
 0
 40
.080003
 50
18.95566
 51
89.49867
 6
CONTINUOUS
 0
LINE
 8
WHITE
 10
6.803999
 20
6.619999
 30
0.0000
 11
6.892
 21
6.359
 31
0.0000
 6
CONTINUOUS
 0
ARC
 8
WHITE
 10
6.8161
 20
6.333899
 30
 0
 40
.079942
 50
269.9282
 51
18.29896
 6
CONTINUOUS
 0
LINE
 8
WHITE
 10
6.815999
 20
6.254
 30
0.0000
 11
6.664999
 21
6.254
 31
0.0000
 6
CONTINUOUS
 0
ARC
 8
WHITE
 10
6.6654
 20
6.1495
 30
 0
 40
.1045
 50
90.21931
 51
218.8227
 6
CONTINUOUS
 0
ARC
 8
WHITE
 10
6.405799
 20
5.821899
 30
 0
 40
.316941
 50
349.1049
 51
55.78848
 6
CONTINUOUS
 0
ARC
 8
WHITE
 10
6.756299
 20
5.7547
 30
 0
 40
.039972
 50
169.4772
 51
250.5681
 6
CONTINUOUS
 0
ARC
 8
WHITE
 10
6.5169
 20
5.0706
 30
 0
 40
.684802
 50
24.90722
 51
70.72101
 6
CONTINUOUS
 0
LINE
 8
WHITE
 10
7.138
 20
5.359
 30
0.0000
 11
7.138
 21
5.309999
 31
0.0000
 6
CONTINUOUS
 0
ARC
 8
WHITE
 10
7.058
 20
5.309999
 30
 0
 40
.079999
 50
279.3447
 51
0
 6
CONTINUOUS
 0
ARC
 8
WHITE
 10
7.130899
 20
4.846199
 30
 0
 40
.389434
 50
98.84795
 51
164.8468
 6
CONTINUOUS
 0
ARC
 8
WHITE
 10
6.6751
 20
4.9499
 30
 0
 40
.079922
 50
269.9282
 51
358.6378
 6
CONTINUOUS
 0
LINE
 8
WHITE
 10
6.675
 20
4.869999
 30
0.0000
 11
6.633999
 21
4.869999
 31
0.0000
 6
CONTINUOUS
 0
LINE
 8
WHITE
 10
6.633999
 20
4.869999
 30
0.0000
 11
6.633999
 21
5.322999
 31
0.0000
 6
CONTINUOUS
 0
ARC
 8
WHITE
 10
6.593999
 20
5.322999
 30
 0
 40
.039999
 50
0
 51
90
 6
CONTINUOUS
 0
LINE
 8
WHITE
 10
6.593999
 20
5.362999
 30
0.0000
 11
6.564
 21
5.362999
 31
0.0000
 6
CONTINUOUS
 0
ARC
 8
WHITE
 10
6.564
 20
5.322999
 30
 0
 40
.039999
 50
90
 51
180
 6
CONTINUOUS
 0
LINE
 8
WHITE
 10
6.524
 20
5.322999
 30
0.0000
 11
6.524
 21
4.869999
 31
0.0000
 6
CONTINUOUS
 0
LINE
 8
WHITE
 10
6.524
 20
4.869999
 30
0.0000
 11
6.482999
 21
4.869999
 31
0.0000
 6
CONTINUOUS
 0
ARC
 8
WHITE
 10
6.482999
 20
4.950099
 30
 0
 40
.080099
 50
181.5037
 51
270
 6
CONTINUOUS
 0
ARC
 8
WHITE
 10
6.0271
 20
4.846399
 30
 0
 40
.389388
 50
15.12477
 51
81.00217
 6
CONTINUOUS
 0
ARC
 8
WHITE
 10
6.099999
 20
5.3101
 30
 0
 40
.080005
 50
180.0717
 51
261.3736
 6
CONTINUOUS
 0
LINE
 8
WHITE
 10
6.019999
 20
5.309999
 30
0.0000
 11
6.019999
 21
5.359
 31
0.0000
 6
CONTINUOUS
 0
ARC
 8
WHITE
 10
6.640699
 20
5.0699
 30
 0
 40
.684724
 50
107.7469
 51
155.0256
 6
CONTINUOUS
 0
ARC
 8
WHITE
 10
6.419
 20
5.759799
 30
 0
 40
.039972
 50
288.9789
 51
347.2846
 6
CONTINUOUS
 0
ARC
 8
WHITE
 10
6.1574
 20
5.822099
 30
 0
 40
.308894
 50
346.6926
 51
55.58995
 6
CONTINUOUS
 0
ARC
 8
WHITE
 10
6.428599
 20
6.2929
 30
 0
 40
.236525
 50
179.9758
 51
245.8948
 6
CONTINUOUS
 0
LINE
 8
WHITE
 10
6.191999
 20
6.293
 30
0.0000
 11
6.191999
 21
6.375999
 31
0.0000
 6
CONTINUOUS
 0
ARC
 8
WHITE
 10
6.225399
 20
6.376599
 30
 0
 40
.033405
 50
90.68626
 51
181.0292
 6
CONTINUOUS
 0
LINE
 8
WHITE
 10
6.224999
 20
6.409999
 30
0.0000
 11
6.519999
 21
6.409999
 31
0.0000
 6
CONTINUOUS
 0
ARC
 8
WHITE
 10
6.519999
 20
6.449999
 30
 0
 40
.039999
 50
270
 51
0
 6
CONTINUOUS
 0
LINE
 8
WHITE
 10
6.559999
 20
6.449999
 30
0.0000
 11
6.559999
 21
6.48
 31
0.0000
 6
CONTINUOUS
 0
ARC
 8
WHITE
 10
6.519999
 20
6.48
 30
 0
 40
.039999
 50
0
 51
90
 6
CONTINUOUS
 0
LINE
 8
WHITE
 10
6.519999
 20
6.519999
 30
0.0000
 11
6.231999
 21
6.519999
 31
0.0000
 6
CONTINUOUS
 0
ARC
 8
WHITE
 10
6.232299
 20
6.5534
 30
 0
 40
.033401
 50
159.6647
 51
269.4854
 6
CONTINUOUS
 0
ARC
 8
WHITE
 10
6.357
 20
6.5114
 30
 0
 40
.164951
 50
99.77075
 51
161.0378
 6
CONTINUOUS
 0
LINE
 8
WHITE
 10
6.328999
 20
6.673999
 30
0.0000
 11
6.583
 21
6.673999
 31
0.0000
 6
CONTINUOUS
 0
LINE
 8
WHITE
 10
6.583
 20
6.673999
 30
0.0000
 11
6.576
 21
6.681
 31
0.0000
 6
CONTINUOUS
 0
LINE
 8
WHITE
 10
8.404999
 20
10
 30
0.0000
 11
8.404999
 21
9.899999
 31
0.0000
 6
CONTINUOUS
 0
ARC
 8
WHITE
 10
8.444999
 20
9.899999
 30
 0
 40
.039999
 50
180
 51
270
 6
CONTINUOUS
 0
LINE
 8
WHITE
 10
8.444999
 20
9.859999
 30
0.0000
 11
8.585
 21
9.859999
 31
0.0000
 6
CONTINUOUS
 0
ARC
 8
WHITE
 10
8.585
 20
9.779999
 30
 0
 40
.079999
 50
18.20883
 51
90
 6
CONTINUOUS
 0
LINE
 8
WHITE
 10
8.661
 20
9.805
 30
0.0000
 11
8.748
 21
9.543999
 31
0.0000
 6
CONTINUOUS
 0
ARC
 8
WHITE
 10
8.6721
 20
9.518899
 30
 0
 40
.079942
 50
269.9282
 51
18.29896
 6
CONTINUOUS
 0
LINE
 8
WHITE
 10
8.671999
 20
9.439
 30
0.0000
 11
8.522
 21
9.439
 31
0.0000
 6
CONTINUOUS
 0
ARC
 8
WHITE
 10
8.522399
 20
9.3345
 30
 0
 40
.1045
 50
90.21931
 51
218.8227
 6
CONTINUOUS
 0
ARC
 8
WHITE
 10
8.261699
 20
9.007599
 30
 0
 40
.316983
 50
349.1616
 51
55.55292
 6
CONTINUOUS
 0
ARC
 8
WHITE
 10
8.612299
 20
8.940699
 30
 0
 40
.039972
 50
169.4772
 51
250.5679
 6
CONTINUOUS
 0
ARC
 8
WHITE
 10
8.3736
 20
8.2564
 30
 0
 40
.68476
 50
24.83589
 51
70.78182
 6
CONTINUOUS
 0
LINE
 8
WHITE
 10
8.994999
 20
8.543999
 30
0.0000
 11
8.994999
 21
8.496
 31
0.0000
 6
CONTINUOUS
 0
ARC
 8
WHITE
 10
8.914999
 20
8.496
 30
 0
 40
.079999
 50
278.6371
 51
0
 6
CONTINUOUS
 0
ARC
 8
WHITE
 10
8.9882
 20
8.0324
 30
 0
 40
.389438
 50
99.04147
 51
165.0287
 6
CONTINUOUS
 0
ARC
 8
WHITE
 10
8.5321
 20
8.1349
 30
 0
 40
.079922
 50
269.9275
 51
358.6378
 6
CONTINUOUS
 0
LINE
 8
WHITE
 10
8.531999
 20
8.055
 30
0.0000
 11
8.489999
 21
8.055
 31
0.0000
 6
CONTINUOUS
 0
LINE
 8
WHITE
 10
8.489999
 20
8.055
 30
0.0000
 11
8.489999
 21
8.508999
 31
0.0000
 6
CONTINUOUS
 0
ARC
 8
WHITE
 10
8.449999
 20
8.508999
 30
 0
 40
.039999
 50
0
 51
90
 6
CONTINUOUS
 0
LINE
 8
WHITE
 10
8.449999
 20
8.548999
 30
0.0000
 11
8.420999
 21
8.548999
 31
0.0000
 6
CONTINUOUS
 0
ARC
 8
WHITE
 10
8.420999
 20
8.508999
 30
 0
 40
.039999
 50
90
 51
180
 6
CONTINUOUS
 0
LINE
 8
WHITE
 10
8.380999
 20
8.508999
 30
0.0000
 11
8.380999
 21
8.055
 31
0.0000
 6
CONTINUOUS
 0
LINE
 8
WHITE
 10
8.380999
 20
8.055
 30
0.0000
 11
8.338999
 21
8.055
 31
0.0000
 6
CONTINUOUS
 0
ARC
 8
WHITE
 10
8.338999
 20
8.1351
 30
 0
 40
.080099
 50
181.5037
 51
270
 6
CONTINUOUS
 0
ARC
 8
WHITE
 10
7.882799
 20
8.0324
 30
 0
 40
.389418
 50
14.97122
 51
80.95851
 6
CONTINUOUS
 0
ARC
 8
WHITE
 10
7.956999
 20
8.4959
 30
 0
 40
.079963
 50
179.9283
 51
260.6437
 6
CONTINUOUS
 0
LINE
 8
WHITE
 10
7.876999
 20
8.496
 30
0.0000
 11
7.876999
 21
8.543999
 31
0.0000
 6
CONTINUOUS
 0
ARC
 8
WHITE
 10
8.498399
 20
8.2564
 30
 0
 40
.684727
 50
107.8951
 51
155.1641
 6
CONTINUOUS
 0
ARC
 8
WHITE
 10
8.2761
 20
8.9462
 30
 0
 40
.04001
 50
287.3028
 51
346.6935
 6
CONTINUOUS
 0
ARC
 8
WHITE
 10
8.013999
 20
9.0067
 30
 0
 40
.308964
 50
346.9623
 51
55.72356
 6
CONTINUOUS
 0
ARC
 8
WHITE
 10
8.284599
 20
9.4779
 30
 0
 40
.236525
 50
179.976
 51
245.8948
 6
CONTINUOUS
 0
LINE
 8
WHITE
 10
8.048
 20
9.477999
 30
0.0000
 11
8.048
 21
9.562
 31
0.0000
 6
CONTINUOUS
 0
ARC
 8
WHITE
 10
8.081399
 20
9.5616
 30
 0
 40
.033402
 50
88.97107
 51
179.3139
 6
CONTINUOUS
 0
LINE
 8
WHITE
 10
8.081999
 20
9.595
 30
0.0000
 11
8.376999
 21
9.595
 31
0.0000
 6
CONTINUOUS
 0
ARC
 8
WHITE
 10
8.376999
 20
9.635
 30
 0
 40
.039999
 50
270
 51
0
 6
CONTINUOUS
 0
LINE
 8
WHITE
 10
8.416999
 20
9.635
 30
0.0000
 11
8.416999
 21
9.666
 31
0.0000
 6
CONTINUOUS
 0
ARC
 8
WHITE
 10
8.376999
 20
9.666
 30
 0
 40
.039999
 50
0
 51
90
 6
CONTINUOUS
 0
LINE
 8
WHITE
 10
8.376999
 20
9.706
 30
0.0000
 11
8.088999
 21
9.706
 31
0.0000
 6
CONTINUOUS
 0
ARC
 8
WHITE
 10
8.088699
 20
9.739399
 30
 0
 40
.033401
 50
161.5103
 51
270.5146
 6
CONTINUOUS
 0
ARC
 8
WHITE
 10
8.213299
 20
9.697299
 30
 0
 40
.164945
 50
99.5251
 51
161.3673
 6
CONTINUOUS
 0
LINE
 8
WHITE
 10
8.185999
 20
9.859999
 30
0.0000
 11
8.444999
 21
9.859999
 31
0.0000
 6
CONTINUOUS
 0
LINE
 8
WHITE
 10
8.444999
 20
9.859999
 30
0.0000
 11
8.437999
 21
9.866999
 31
0.0000
 6
CONTINUOUS
 0
LINE
 8
WHITE
 10
2.358999
 20
6.176
 30
0.0000
 11
2.358999
 21
6.076
 31
0.0000
 6
CONTINUOUS
 0
ARC
 8
WHITE
 10
2.398999
 20
6.076
 30
 0
 40
.039999
 50
180
 51
270
 6
CONTINUOUS
 0
ARC
 8
WHITE
 10
2.395299
 20
5.686899
 30
 0
 40
.349119
 50
5.111258
 51
89.39276
 6
CONTINUOUS
 0
LINE
 8
WHITE
 10
2.743
 20
5.717999
 30
0.0000
 11
2.743
 21
5.543
 31
0.0000
 6
CONTINUOUS
 0
ARC
 8
WHITE
 10
2.703
 20
5.543
 30
 0
 40
.039999
 50
270
 51
0
 6
CONTINUOUS
 0
LINE
 8
WHITE
 10
2.703
 20
5.502999
 30
0.0000
 11
2.676
 21
5.502999
 31
0.0000
 6
CONTINUOUS
 0
ARC
 8
WHITE
 10
2.676
 20
5.462999
 30
 0
 40
.039999
 50
90
 51
180
 6
CONTINUOUS
 0
LINE
 8
WHITE
 10
2.635999
 20
5.462999
 30
0.0000
 11
2.635999
 21
4.853
 31
0.0000
 6
CONTINUOUS
 0
ARC
 8
WHITE
 10
2.603499
 20
4.852499
 30
 0
 40
.032503
 50
270.8818
 51
.881404
 6
CONTINUOUS
 0
LINE
 8
WHITE
 10
2.604
 20
4.82
 30
0.0000
 11
2.483
 21
4.82
 31
0.0000
 6
CONTINUOUS
 0
ARC
 8
WHITE
 10
2.4834
 20
4.8534
 30
 0
 40
.033402
 50
178.9711
 51
269.3138
 6
CONTINUOUS
 0
LINE
 8
WHITE
 10
2.45
 20
4.854
 30
0.0000
 11
2.45
 21
5.296999
 31
0.0000
 6
CONTINUOUS
 0
ARC
 8
WHITE
 10
2.41
 20
5.296999
 30
 0
 40
.039999
 50
0
 51
90
 6
CONTINUOUS
 0
LINE
 8
WHITE
 10
2.41
 20
5.336999
 30
0.0000
 11
2.38
 21
5.336999
 31
0.0000
 6
CONTINUOUS
 0
ARC
 8
WHITE
 10
2.38
 20
5.296999
 30
 0
 40
.039999
 50
90
 51
180
 6
CONTINUOUS
 0
LINE
 8
WHITE
 10
2.339999
 20
5.296999
 30
0.0000
 11
2.339999
 21
4.854
 31
0.0000
 6
CONTINUOUS
 0
ARC
 8
WHITE
 10
2.306599
 20
4.8534
 30
 0
 40
.033405
 50
270.6862
 51
1.029154
 6
CONTINUOUS
 0
LINE
 8
WHITE
 10
2.306999
 20
4.82
 30
0.0000
 11
2.186
 21
4.82
 31
0.0000
 6
CONTINUOUS
 0
ARC
 8
WHITE
 10
2.1865
 20
4.852499
 30
 0
 40
.032503
 50
179.1182
 51
269.1186
 6
CONTINUOUS
 0
LINE
 8
WHITE
 10
2.154
 20
4.853
 30
0.0000
 11
2.154
 21
5.462999
 31
0.0000
 6
CONTINUOUS
 0
ARC
 8
WHITE
 10
2.114
 20
5.462999
 30
 0
 40
.039999
 50
0
 51
90
 6
CONTINUOUS
 0
LINE
 8
WHITE
 10
2.114
 20
5.502999
 30
0.0000
 11
2.046999
 21
5.502999
 31
0.0000
 6
CONTINUOUS
 0
LINE
 8
WHITE
 10
2.046999
 20
5.502999
 30
0.0000
 11
2.046999
 21
5.717999
 31
0.0000
 6
CONTINUOUS
 0
ARC
 8
WHITE
 10
2.3947
 20
5.6869
 30
 0
 40
.349088
 50
89.29432
 51
174.8888
 6
CONTINUOUS
 0
LINE
 8
WHITE
 10
2.398999
 20
6.035999
 30
0.0000
 11
2.391999
 21
6.043
 31
0.0000
 6
CONTINUOUS
 0
LINE
 8
WHITE
 10
7.281
 20
6.866
 30
0.0000
 11
7.281
 21
6.966
 31
0.0000
 6
CONTINUOUS
 0
ARC
 8
WHITE
 10
7.241
 20
6.966
 30
 0
 40
.039999
 50
0
 51
90
 6
CONTINUOUS
 0
LINE
 8
WHITE
 10
7.241
 20
7.006
 30
0.0000
 11
7.103
 21
7.006
 31
0.0000
 6
CONTINUOUS
 0
ARC
 8
WHITE
 10
7.1029
 20
7.104899
 30
 0
 40
.0989
 50
179.942
 51
270.0579
 6
CONTINUOUS
 0
LINE
 8
WHITE
 10
7.004
 20
7.105
 30
0.0000
 11
7.004
 21
7.159999
 31
0.0000
 6
CONTINUOUS
 0
ARC
 8
WHITE
 10
6.9491
 20
7.160099
 30
 0
 40
.0549
 50
359.8956
 51
90.10451
 6
CONTINUOUS
 0
ARC
 8
WHITE
 10
6.9923
 20
7.406
 30
 0
 40
.195846
 50
218.925
 51
257.2269
 6
CONTINUOUS
 0
ARC
 8
WHITE
 10
7.0019
 20
7.343999
 30
 0
 40
.17301
 50
159.3547
 51
200.6452
 6
CONTINUOUS
 0
ARC
 8
WHITE
 10
6.9813
 20
7.3096
 30
 0
 40
.17049
 50
100.9212
 51
145.9744
 6
CONTINUOUS
 0
ARC
 8
WHITE
 10
6.9491
 20
7.5319
 30
 0
 40
.0549
 50
269.8956
 51
359.0605
 6
CONTINUOUS
 0
LINE
 8
WHITE
 10
7.004
 20
7.531
 30
0.0000
 11
7.004
 21
7.752999
 31
0.0000
 6
CONTINUOUS
 0
ARC
 8
WHITE
 10
7.0669
 20
7.752099
 30
 0
 40
.062906
 50
89.90922
 51
179.1802
 6
CONTINUOUS
 0
LINE
 8
WHITE
 10
7.066999
 20
7.815
 30
0.0000
 11
7.127999
 21
7.815
 31
0.0000
 6
CONTINUOUS
 0
ARC
 8
WHITE
 10
7.127599
 20
7.781599
 30
 0
 40
.033402
 50
.686256
 51
89.31386
 6
CONTINUOUS
 0
LINE
 8
WHITE
 10
7.160999
 20
7.782
 30
0.0000
 11
7.160999
 21
7.477
 31
0.0000
 6
CONTINUOUS
 0
LINE
 8
WHITE
 10
7.160999
 20
7.477
 30
0.0000
 11
7.231999
 21
7.477
 31
0.0000
 6
CONTINUOUS
 0
ARC
 8
WHITE
 10
7.231999
 20
7.517
 30
 0
 40
.039999
 50
270
 51
0
 6
CONTINUOUS
 0
LINE
 8
WHITE
 10
7.271999
 20
7.517
 30
0.0000
 11
7.271999
 21
7.782
 31
0.0000
 6
CONTINUOUS
 0
ARC
 8
WHITE
 10
7.305399
 20
7.781599
 30
 0
 40
.033402
 50
90.68626
 51
179.3139
 6
CONTINUOUS
 0
LINE
 8
WHITE
 10
7.304999
 20
7.815
 30
0.0000
 11
7.388999
 21
7.815
 31
0.0000
 6
CONTINUOUS
 0
ARC
 8
WHITE
 10
7.3891
 20
7.752099
 30
 0
 40
.0629
 50
.819565
 51
90.09109
 6
CONTINUOUS
 0
LINE
 8
WHITE
 10
7.452
 20
7.752999
 30
0.0000
 11
7.452
 21
7.717
 31
0.0000
 6
CONTINUOUS
 0
LINE
 8
WHITE
 10
7.452
 20
7.717
 30
0.0000
 11
7.541999
 21
7.717
 31
0.0000
 6
CONTINUOUS
 0
LINE
 8
WHITE
 10
7.541999
 20
7.717
 30
0.0000
 11
7.541999
 21
7.234
 31
0.0000
 6
CONTINUOUS
 0
LINE
 8
WHITE
 10
7.541999
 20
7.234
 30
0.0000
 11
7.452
 21
7.234
 31
0.0000
 6
CONTINUOUS
 0
LINE
 8
WHITE
 10
7.452
 20
7.234
 30
0.0000
 11
7.452
 21
7.006
 31
0.0000
 6
CONTINUOUS
 0
LINE
 8
WHITE
 10
7.452
 20
7.006
 30
0.0000
 11
7.241
 21
7.006
 31
0.0000
 6
CONTINUOUS
 0
LINE
 8
WHITE
 10
7.241
 20
7.006
 30
0.0000
 11
7.248
 21
6.999
 31
0.0000
 6
CONTINUOUS
 0
LINE
 8
WHITE
 10
8.519
 20
6.23
 30
0.0000
 11
8.519
 21
6.329999
 31
0.0000
 6
CONTINUOUS
 0
ARC
 8
WHITE
 10
8.479
 20
6.329999
 30
 0
 40
.039999
 50
0
 51
90
 6
CONTINUOUS
 0
LINE
 8
WHITE
 10
8.479
 20
6.369999
 30
0.0000
 11
8.272999
 21
6.369999
 31
0.0000
 6
CONTINUOUS
 0
LINE
 8
WHITE
 10
8.272999
 20
6.369999
 30
0.0000
 11
8.272999
 21
6.598
 31
0.0000
 6
CONTINUOUS
 0
LINE
 8
WHITE
 10
8.272999
 20
6.598
 30
0.0000
 11
8.182
 21
6.598
 31
0.0000
 6
CONTINUOUS
 0
LINE
 8
WHITE
 10
8.182
 20
6.598
 30
0.0000
 11
8.182
 21
7.080999
 31
0.0000
 6
CONTINUOUS
 0
LINE
 8
WHITE
 10
8.182
 20
7.080999
 30
0.0000
 11
8.272999
 21
7.080999
 31
0.0000
 6
CONTINUOUS
 0
LINE
 8
WHITE
 10
8.272999
 20
7.080999
 30
0.0000
 11
8.272999
 21
7.117
 31
0.0000
 6
CONTINUOUS
 0
ARC
 8
WHITE
 10
8.335899
 20
7.117
 30
 0
 40
.062899
 50
89.90807
 51
180
 6
CONTINUOUS
 0
LINE
 8
WHITE
 10
8.336
 20
7.179999
 30
0.0000
 11
8.418999
 21
7.179999
 31
0.0000
 6
CONTINUOUS
 0
ARC
 8
WHITE
 10
8.419599
 20
7.146599
 30
 0
 40
.033405
 50
358.9711
 51
91.02914
 6
CONTINUOUS
 0
LINE
 8
WHITE
 10
8.453
 20
7.145999
 30
0.0000
 11
8.453
 21
6.841
 31
0.0000
 6
CONTINUOUS
 0
LINE
 8
WHITE
 10
8.453
 20
6.841
 30
0.0000
 11
8.522999
 21
6.841
 31
0.0000
 6
CONTINUOUS
 0
ARC
 8
WHITE
 10
8.522999
 20
6.881
 30
 0
 40
.039999
 50
270
 51
0
 6
CONTINUOUS
 0
LINE
 8
WHITE
 10
8.562999
 20
6.881
 30
0.0000
 11
8.562999
 21
7.145999
 31
0.0000
 6
CONTINUOUS
 0
ARC
 8
WHITE
 10
8.596399
 20
7.146599
 30
 0
 40
.033405
 50
88.96945
 51
181.0292
 6
CONTINUOUS
 0
LINE
 8
WHITE
 10
8.597
 20
7.179999
 30
0.0000
 11
8.656999
 21
7.179999
 31
0.0000
 6
CONTINUOUS
 0
ARC
 8
WHITE
 10
8.657099
 20
7.117099
 30
 0
 40
.0629
 50
359.9092
 51
90.09109
 6
CONTINUOUS
 0
LINE
 8
WHITE
 10
8.72
 20
7.117
 30
0.0000
 11
8.72
 21
6.895999
 31
0.0000
 6
CONTINUOUS
 0
ARC
 8
WHITE
 10
8.7749
 20
6.895899
 30
 0
 40
.0549
 50
179.8956
 51
271.1474
 6
CONTINUOUS
 0
ARC
 8
WHITE
 10
8.743399
 20
6.673699
 30
 0
 40
.170446
 50
34.40809
 51
78.97354
 6
CONTINUOUS
 0
ARC
 8
WHITE
 10
8.7228
 20
6.7072
 30
 0
 40
.173
 50
339.6377
 51
21.2848
 6
CONTINUOUS
 0
ARC
 8
WHITE
 10
8.7325
 20
6.769999
 30
 0
 40
.195921
 50
282.8302
 51
321.1118
 6
CONTINUOUS
 0
ARC
 8
WHITE
 10
8.7749
 20
6.524099
 30
 0
 40
.054911
 50
88.85215
 51
180.104
 6
CONTINUOUS
 0
LINE
 8
WHITE
 10
8.72
 20
6.524
 30
0.0000
 11
8.72
 21
6.468999
 31
0.0000
 6
CONTINUOUS
 0
ARC
 8
WHITE
 10
8.6211
 20
6.468899
 30
 0
 40
.0989
 50
269.942
 51
.057933
 6
CONTINUOUS
 0
LINE
 8
WHITE
 10
8.621
 20
6.369999
 30
0.0000
 11
8.479
 21
6.369999
 31
0.0000
 6
CONTINUOUS
 0
LINE
 8
WHITE
 10
8.479
 20
6.369999
 30
0.0000
 11
8.486
 21
6.362999
 31
0.0000
 6
CONTINUOUS
 0
LINE
 8
WHITE
 10
9.559
 20
7.028999
 30
0.0000
 11
9.562
 21
7.129
 31
0.0000
 6
CONTINUOUS
 0
ARC
 8
WHITE
 10
9.522
 20
7.13
 30
 0
 40
.040012
 50
358.5679
 51
87.13779
 6
CONTINUOUS
 0
ARC
 8
WHITE
 10
9.5353
 20
7.5174
 30
 0
 40
.347583
 50
172.1287
 51
268.137
 6
CONTINUOUS
 0
LINE
 8
WHITE
 10
9.190999
 20
7.565
 30
0.0000
 11
9.286
 21
7.565
 31
0.0000
 6
CONTINUOUS
 0
LINE
 8
WHITE
 10
9.286
 20
7.565
 30
0.0000
 11
9.286
 21
7.835
 31
0.0000
 6
CONTINUOUS
 0
ARC
 8
WHITE
 10
9.348899
 20
7.835
 30
 0
 40
.062899
 50
89.90893
 51
180
 6
CONTINUOUS
 0
LINE
 8
WHITE
 10
9.348999
 20
7.897999
 30
0.0000
 11
9.440999
 21
7.897999
 31
0.0000
 6
CONTINUOUS
 0
ARC
 8
WHITE
 10
9.440999
 20
7.857999
 30
 0
 40
.039999
 50
0
 51
90
 6
CONTINUOUS
 0
LINE
 8
WHITE
 10
9.480999
 20
7.857999
 30
0.0000
 11
9.480999
 21
7.565
 31
0.0000
 6
CONTINUOUS
 0
LINE
 8
WHITE
 10
9.480999
 20
7.565
 30
0.0000
 11
9.550999
 21
7.565
 31
0.0000
 6
CONTINUOUS
 0
ARC
 8
WHITE
 10
9.550999
 20
7.605
 30
 0
 40
.039999
 50
270
 51
0
 6
CONTINUOUS
 0
LINE
 8
WHITE
 10
9.590999
 20
7.605
 30
0.0000
 11
9.590999
 21
7.897999
 31
0.0000
 6
CONTINUOUS
 0
LINE
 8
WHITE
 10
9.590999
 20
7.897999
 30
0.0000
 11
9.722999
 21
7.897999
 31
0.0000
 6
CONTINUOUS
 0
ARC
 8
WHITE
 10
9.723099
 20
7.835099
 30
 0
 40
.0629
 50
359.9092
 51
90.09109
 6
CONTINUOUS
 0
LINE
 8
WHITE
 10
9.786
 20
7.835
 30
0.0000
 11
9.786
 21
7.565
 31
0.0000
 6
CONTINUOUS
 0
LINE
 8
WHITE
 10
9.786
 20
7.565
 30
0.0000
 11
9.88
 21
7.565
 31
0.0000
 6
CONTINUOUS
 0
ARC
 8
WHITE
 10
9.535699
 20
7.5174
 30
 0
 40
.347574
 50
268.0711
 51
7.871332
 6
CONTINUOUS
 0
LINE
 8
WHITE
 10
9.524
 20
7.17
 30
0.0000
 11
9.531
 21
7.163
 31
0.0000
 6
CONTINUOUS
 0
LINE
 8
WHITE
 10
9.918
 20
8.755
 30
0.0000
 11
9.909
 21
8.854999
 31
0.0000
 6
CONTINUOUS
 0
ARC
 8
WHITE
 10
9.8692
 20
8.851199
 30
 0
 40
.03998
 50
5.453918
 51
94.5975
 6
CONTINUOUS
 0
ARC
 8
WHITE
 10
9.8344
 20
9.237199
 30
 0
 40
.347639
 50
172.2615
 51
275.2153
 6
CONTINUOUS
 0
LINE
 8
WHITE
 10
9.489999
 20
9.284
 30
0.0000
 11
9.583999
 21
9.284
 31
0.0000
 6
CONTINUOUS
 0
LINE
 8
WHITE
 10
9.583999
 20
9.284
 30
0.0000
 11
9.583999
 21
9.555
 31
0.0000
 6
CONTINUOUS
 0
ARC
 8
WHITE
 10
9.646899
 20
9.555
 30
 0
 40
.062899
 50
89.90807
 51
180
 6
CONTINUOUS
 0
LINE
 8
WHITE
 10
9.647
 20
9.618
 30
0.0000
 11
9.739
 21
9.618
 31
0.0000
 6
CONTINUOUS
 0
ARC
 8
WHITE
 10
9.739
 20
9.578
 30
 0
 40
.039999
 50
0
 51
90
 6
CONTINUOUS
 0
LINE
 8
WHITE
 10
9.779
 20
9.578
 30
0.0000
 11
9.779
 21
9.284
 31
0.0000
 6
CONTINUOUS
 0
LINE
 8
WHITE
 10
9.779
 20
9.284
 30
0.0000
 11
9.848999
 21
9.284
 31
0.0000
 6
CONTINUOUS
 0
ARC
 8
WHITE
 10
9.848999
 20
9.324
 30
 0
 40
.039999
 50
270
 51
0
 6
CONTINUOUS
 0
LINE
 8
WHITE
 10
9.888999
 20
9.324
 30
0.0000
 11
9.888999
 21
9.618
 31
0.0000
 6
CONTINUOUS
 0
LINE
 8
WHITE
 10
9.888999
 20
9.618
 30
0.0000
 11
10.021
 21
9.618
 31
0.0000
 6
CONTINUOUS
 0
ARC
 8
WHITE
 10
10.021
 20
9.5551
 30
 0
 40
.062899
 50
359.9089
 51
90
 6
CONTINUOUS
 0
LINE
 8
WHITE
 10
10.084
 20
9.555
 30
0.0000
 11
10.084
 21
9.284
 31
0.0000
 6
CONTINUOUS
 0
LINE
 8
WHITE
 10
10.084
 20
9.284
 30
0.0000
 11
10.179
 21
9.284
 31
0.0000
 6
CONTINUOUS
 0
ARC
 8
WHITE
 10
9.834599
 20
9.2372
 30
 0
 40
.347565
 50
275.1826
 51
7.738437
 6
CONTINUOUS
 0
LINE
 8
WHITE
 10
9.866
 20
8.890999
 30
0.0000
 11
9.873
 21
8.885
 31
0.0000
 6
CONTINUOUS
 0
LINE
 8
WHITE
 10
6.639999
 20
3.382999
 30
0.0000
 11
6.639999
 21
3.282999
 31
0.0000
 6
CONTINUOUS
 0
ARC
 8
WHITE
 10
6.679999
 20
3.282999
 30
 0
 40
.039999
 50
180
 51
270
 6
CONTINUOUS
 0
LINE
 8
WHITE
 10
6.679999
 20
3.243
 30
0.0000
 11
6.737999
 21
3.243
 31
0.0000
 6
CONTINUOUS
 0
ARC
 8
WHITE
 10
6.738599
 20
3.209599
 30
 0
 40
.033405
 50
358.9711
 51
91.02914
 6
CONTINUOUS
 0
LINE
 8
WHITE
 10
6.771999
 20
3.209
 30
0.0000
 11
6.771999
 21
3.096999
 31
0.0000
 6
CONTINUOUS
 0
LINE
 8
WHITE
 10
6.771999
 20
3.096999
 30
0.0000
 11
6.881
 21
3.096999
 31
0.0000
 6
CONTINUOUS
 0
LINE
 8
WHITE
 10
6.881
 20
3.096999
 30
0.0000
 11
6.881
 21
3.209
 31
0.0000
 6
CONTINUOUS
 0
ARC
 8
WHITE
 10
6.9144
 20
3.2096
 30
 0
 40
.033405
 50
88.97108
 51
181.0292
 6
CONTINUOUS
 0
LINE
 8
WHITE
 10
6.914999
 20
3.243
 30
0.0000
 11
7.031
 21
3.243
 31
0.0000
 6
CONTINUOUS
 0
ARC
 8
WHITE
 10
7.031
 20
3.163
 30
 0
 40
.079999
 50
0
 51
90
 6
CONTINUOUS
 0
LINE
 8
WHITE
 10
7.111
 20
3.163
 30
0.0000
 11
7.111
 21
3.032
 31
0.0000
 6
CONTINUOUS
 0
ARC
 8
WHITE
 10
7.031
 20
3.0324
 30
 0
 40
.08
 50
295.1553
 51
359.7135
 6
CONTINUOUS
 0
LINE
 8
WHITE
 10
7.065
 20
2.96
 30
0.0000
 11
6.991
 21
2.924999
 31
0.0000
 6
CONTINUOUS
 0
ARC
 8
WHITE
 10
7.022
 20
2.859999
 30
 0
 40
.072013
 50
115.4976
 51
180
 6
CONTINUOUS
 0
LINE
 8
WHITE
 10
6.949999
 20
2.859999
 30
0.0000
 11
6.949999
 21
2.812999
 31
0.0000
 6
CONTINUOUS
 0
ARC
 8
WHITE
 10
6.825399
 20
2.8136
 30
 0
 40
.124601
 50
269.816
 51
359.7241
 6
CONTINUOUS
 0
ARC
 8
WHITE
 10
6.8276
 20
2.813599
 30
 0
 40
.124627
 50
180.2758
 51
268.8046
 6
CONTINUOUS
 0
LINE
 8
WHITE
 10
6.703
 20
2.812999
 30
0.0000
 11
6.703
 21
2.859999
 31
0.0000
 6
CONTINUOUS
 0
ARC
 8
WHITE
 10
6.631
 20
2.859999
 30
 0
 40
.071999
 50
0
 51
64.50237
 6
CONTINUOUS
 0
LINE
 8
WHITE
 10
6.662
 20
2.924999
 30
0.0000
 11
6.587999
 21
2.96
 31
0.0000
 6
CONTINUOUS
 0
ARC
 8
WHITE
 10
6.621899
 20
3.0324
 30
 0
 40
.079943
 50
180.2869
 51
244.9095
 6
CONTINUOUS
 0
LINE
 8
WHITE
 10
6.541999
 20
3.032
 30
0.0000
 11
6.541999
 21
3.163
 31
0.0000
 6
CONTINUOUS
 0
ARC
 8
WHITE
 10
6.621999
 20
3.163
 30
 0
 40
.079999
 50
89.99966
 51
180
 6
CONTINUOUS
 0
LINE
 8
WHITE
 10
6.622
 20
3.243
 30
0.0000
 11
6.679999
 21
3.243
 31
0.0000
 6
CONTINUOUS
 0
LINE
 8
WHITE
 10
6.679999
 20
3.243
 30
0.0000
 11
6.672999
 21
3.25
 31
0.0000
 6
CONTINUOUS
 0
ENDSEC
 0
EOF
