0
SECTION
2
HEADER
9
$INSUNITS
70
4
9
$ACADVER
1
AC1014
9
$HANDSEED
5
FFFF
0
ENDSEC
0
SECTION
2
TABLES
0
TABLE
2
VPORT
5
8
100
AcDbSymbolTable
0
ENDTAB
0
TABLE
2
LTYPE
5
5
100
AcDbSymbolTable
0
LTYPE
5
14
100
AcDbSymbolTableRecord
100
AcDbLinetypeTableRecord
2
BYBLOCK
70
0
0
LTYPE
5
15
100
AcDbSymbolTableRecord
100
AcDbLinetypeTableRecord
2
BYLAYER
70
0
0
ENDTAB
0
TABLE
2
LAYER
5
2
100
AcDbSymbolTable
70
2
0
LAYER
5
50
100
AcDbSymbolTableRecord
100
AcDbLayerTableRecord
2
0
70
0
6
CONTINUOUS
0
ENDTAB
0
TABLE
2
STYLE
5
3
100
AcDbSymbolTable
70
1
0
STYLE
5
11
100
AcDbSymbolTableRecord
100
AcDbTextStyleTableRecord
2
STANDARD
70
0
0
ENDTAB
0
TABLE
2
VIEW
5
6
100
AcDbSymbolTable
70
0
0
ENDTAB
0
TABLE
2
UCS
5
7
100
AcDbSymbolTable
70
0
0
ENDTAB
0
TABLE
2
APPID
5
9
100
AcDbSymbolTable
70
2
0
APPID
5
12
100
AcDbSymbolTableRecord
100
AcDbRegAppTableRecord
2
ACAD
70
0
0
ENDTAB
0
TABLE
2
DIMSTYLE
5
A
100
AcDbSymbolTable
70
1
0
ENDTAB
0
TABLE
2
BLOCK_RECORD
5
1
100
AcDbSymbolTable
70
1
0
BLOCK_RECORD
5
1F
100
AcDbSymbolTableRecord
100
AcDbBlockTableRecord
2
*MODEL_SPACE
0
BLOCK_RECORD
5
1B
100
AcDbSymbolTableRecord
100
AcDbBlockTableRecord
2
*PAPER_SPACE
0
ENDTAB
0
ENDSEC
0
SECTION
2
BLOCKS
0
BLOCK
5
20
100
AcDbEntity
100
AcDbBlockBegin
2
*MODEL_SPACE
0
ENDBLK
5
21
100
AcDbEntity
100
AcDbBlockEnd
0
BLOCK
5
1C
100
AcDbEntity
100
AcDbBlockBegin
2
*PAPER_SPACE
0
ENDBLK
5
1D
100
AcDbEntity
100
AcDbBlockEnd
0
ENDSEC
0
SECTION
2
ENTITIES
0
LINE
5
100
100
AcDbEntity
8
0
100
AcDbLine
10
0
20
38
30
0
11
45
21
38
31
0
0
LWPOLYLINE
5
101
100
AcDbEntity
8
0
100
AcDbPolyline
90
13
43
0.0
10
45.0
20
38.0
10
50.00773224460955
20
38.20739304020209
10
54.874508831502276
20
38.84173031407574
10
59.51534147410432
20
39.95207093254464
10
63.79006365185006
20
41.640652944280916
10
65.73213368969222
20
42.750061368869744
10
67.50755030290725
20
44.0690276526383
10
69.08636986427456
20
45.625828761451736
10
70.43762257385073
20
47.45059465206467
10
71.53076453539921
20
49.57372315038145
10
72.33725669438523
20
52.024146533252775
10
72.83270823034341
20
54.82696745908312
10
72.99999999999997
20
58.00000000000001
0
LINE
5
102
100
AcDbEntity
8
0
100
AcDbLine
10
73
20
58.000000000000007
30
0
11
73
21
37.999999999999993
31
0
0
LINE
5
103
100
AcDbEntity
8
0
100
AcDbLine
10
73
20
37.999999999999993
30
0
11
76
21
37.999999999999993
31
0
0
LINE
5
104
100
AcDbEntity
8
0
100
AcDbLine
10
76
20
37.999999999999993
30
0
11
76
21
18
31
0
0
LINE
5
105
100
AcDbEntity
8
0
100
AcDbLine
10
76
20
18
30
0
11
73
21
18
31
0
0
LINE
5
106
100
AcDbEntity
8
0
100
AcDbLine
10
73
20
18
30
0
11
73
21
3.0000000000000107
31
0
0
LINE
5
107
100
AcDbEntity
8
0
100
AcDbLine
10
73
20
3.0000000000000107
30
0
11
50.199999999999996
21
3.0000000000000062
31
0
0
LINE
5
108
100
AcDbEntity
8
0
100
AcDbLine
10
50.199999999999996
20
3.0000000000000062
30
0
11
50.199999999999996
21
1.1073786727867747e-14
31
0
0
LINE
5
109
100
AcDbEntity
8
0
100
AcDbLine
10
50.199999999999996
20
1.1073786727867747e-14
30
0
11
30.199999999999999
21
5.1798857405879734e-15
31
0
0
LINE
5
110
100
AcDbEntity
8
0
100
AcDbLine
10
30.199999999999999
20
5.1798857405879734e-15
30
0
11
30.199999999999999
21
3.0000000000000053
31
0
0
LINE
5
111
100
AcDbEntity
8
0
100
AcDbLine
10
30.199999999999999
20
3.0000000000000053
30
0
11
0
21
3.0000000000000004
31
0
0
LINE
5
112
100
AcDbEntity
8
0
100
AcDbLine
10
0
20
0
30
0
11
-8.6751061864514604e-15
21
70.837617772662341
31
0
0
LINE
5
113
100
AcDbEntity
8
0
100
AcDbLine
10
-50.199999999999996
20
-1.2216671355716785e-15
30
0
11
-30.199999999999999
21
-2.21698092626204e-15
31
0
0
LINE
5
114
100
AcDbEntity
8
0
100
AcDbLine
10
-76
20
17.999999999999982
30
0
11
-73
21
17.999999999999979
31
0
0
LWPOLYLINE
5
115
100
AcDbEntity
8
0
100
AcDbPolyline
90
13
43
0.0
10
-45.00000000000001
20
37.99999999999999
10
-50.00773224460956
20
38.20739304020208
10
-54.874508831502276
20
38.841730314075726
10
-59.515341474104325
20
39.95207093254462
10
-63.79006365185007
20
41.6406529442809
10
-65.73213368969223
20
42.75006136886974
10
-67.50755030290726
20
44.069027652638276
10
-69.08636986427457
20
45.62582876145173
10
-70.43762257385075
20
47.45059465206465
10
-71.53076453539923
20
49.57372315038144
10
-72.33725669438525
20
52.02414653325276
10
-72.83270823034343
20
54.82696745908311
10
-73.0
20
57.999999999999986
0
LINE
5
116
100
AcDbEntity
8
0
100
AcDbLine
10
-30.199999999999999
20
-2.21698092626204e-15
30
0
11
-30.199999999999999
21
2.9999999999999982
31
0
0
LINE
5
117
100
AcDbEntity
8
0
100
AcDbLine
10
-9.3073156735198855e-15
20
38
30
0
11
-45.000000000000014
21
37.999999999999993
31
0
0
LINE
5
118
100
AcDbEntity
8
0
100
AcDbLine
10
-73.000000000000014
20
37.999999999999979
30
0
11
-76.000000000000014
21
37.999999999999979
31
0
0
LINE
5
119
100
AcDbEntity
8
0
100
AcDbLine
10
-73
20
2.9999999999999929
30
0
11
-50.199999999999996
21
2.9999999999999938
31
0
0
LINE
5
120
100
AcDbEntity
8
0
100
AcDbLine
10
-76.000000000000014
20
37.999999999999979
30
0
11
-76
21
17.999999999999982
31
0
0
LINE
5
121
100
AcDbEntity
8
0
100
AcDbLine
10
-30.199999999999999
20
2.9999999999999982
30
0
11
-7.3478807948841207e-16
21
3.0000000000000004
31
0
0
LINE
5
122
100
AcDbEntity
8
0
100
AcDbLine
10
-73
20
17.999999999999979
30
0
11
-73
21
2.9999999999999929
31
0
0
LINE
5
123
100
AcDbEntity
8
0
100
AcDbLine
10
-73.000000000000014
20
57.999999999999986
30
0
11
-73.000000000000014
21
37.999999999999979
31
0
0
LINE
5
124
100
AcDbEntity
8
0
100
AcDbLine
10
-50.199999999999996
20
2.9999999999999938
30
0
11
-50.199999999999996
21
-1.2216671355716785e-15
31
0
0
ENDSEC
0
SECTION
2
OBJECTS
0
DICTIONARY
5
C
100
AcDbDictionary
3
ACAD_GROUP
350
D
3
ACAD_MLINESTYLE
350
17
0
DICTIONARY
5
D
100
AcDbDictionary
0
DICTIONARY
5
1A
330
C
100
AcDbDictionary
0
DICTIONARY
5
17
100
AcDbDictionary
0
ENDSEC
0
EOF
