  0
SECTION
  2
HEADER
  9
$ACADVER
  1
AC1014
  9
$HANDSEED
  5
FFFF
  9
$MEASUREMENT
 70
     1
  0
ENDSEC
  0
SECTION
  2
TABLES
  0
TABLE
  2
VPORT
  5
8
330
0
100
AcDbSymbolTable
 70
     4
  0
VPORT
  5
2E
330
8
100
AcDbSymbolTableRecord
100
AcDbViewportTableRecord
  2
*ACTIVE
 70
     0
 10
0.0
 20
0.0
 11
1.0
 21
1.0
 12
210.0
 22
148.5
 13
0.0
 23
0.0
 14
10.0
 24
10.0
 15
10.0
 25
10.0
 16
0.0
 26
0.0
 36
1.0
 17
0.0
 27
0.0
 37
0.0
 40
341.0
 41
1.24
 42
50.0
 43
0.0
 44
0.0
 50
0.0
 51
0.0
 71
     0
 72
   100
 73
     1
 74
     3
 75
     0
 76
     0
 77
     0
 78
     0
  0
ENDTAB
  0
TABLE
  2
LTYPE
  5
5
330
0
100
AcDbSymbolTable
 70
     1
  0
LTYPE
  5
14
330
5
100
AcDbSymbolTableRecord
100
AcDbLinetypeTableRecord
  2
BYBLOCK
 70
     0
  3

 72
    65
 73
     0
 40
0.0
  0
LTYPE
  5
15
330
5
100
AcDbSymbolTableRecord
100
AcDbLinetypeTableRecord
  2
BYLAYER
 70
     0
  3

 72
    65
 73
     0
 40
0.0
  0
LTYPE
  5
16
330
5
100
AcDbSymbolTableRecord
100
AcDbLinetypeTableRecord
  2
CONTINUOUS
 70
     0
  3
Solid line
 72
    65
 73
     0
 40
0.0
  0
ENDTAB
  0
TABLE
  2
LAYER
  5
2
100
AcDbSymbolTable
 70
2
  0
LAYER
  5
50
100
AcDbSymbolTableRecord
100
AcDbLayerTableRecord
  2
0
 70
0
  6
CONTINUOUS
  0
LAYER
  5
51
100
AcDbSymbolTableRecord
100
AcDbLayerTableRecord
  2
Layer_1
 70
0
  6
CONTINUOUS
  0
ENDTAB
  0
TABLE
  2
STYLE
  5
3
330
0
100
AcDbSymbolTable
 70
     1
  0
STYLE
  5
11
330
3
100
AcDbSymbolTableRecord
100
AcDbTextStyleTableRecord
  2
STANDARD
 70
     0
 40
0.0
 41
1.0
 50
0.0
 71
     0
 42
2.5
  3
txt
  4

  0
ENDTAB
  0
TABLE
  2
VIEW
  5
6
330
0
100
AcDbSymbolTable
 70
     0
  0
ENDTAB
  0
TABLE
  2
UCS
  5
7
330
0
100
AcDbSymbolTable
 70
     0
  0
ENDTAB
  0
TABLE
  2
APPID
  5
9
330
0
100
AcDbSymbolTable
 70
     2
  0
APPID
  5
12
330
9
100
AcDbSymbolTableRecord
100
AcDbRegAppTableRecord
  2
ACAD
 70
     0
  0
ENDTAB
  0
TABLE
  2
DIMSTYLE
  5
A
330
0
100
AcDbSymbolTable
 70
     1
  0
DIMSTYLE
105
27
330
A
100
AcDbSymbolTableRecord
100
AcDbDimStyleTableRecord
  2
ISO-25
 70
     0
  3

  4

  5

  6

  7

 40
1.0
 41
2.5
 42
0.625
 43
3.75
 44
1.25
 45
0.0
 46
0.0
 47
0.0
 48
0.0
140
2.5
141
2.5
142
0.0
143
0.03937007874016
144
1.0
145
0.0
146
1.0
147
0.625
 71
     0
 72
     0
 73
     0
 74
     0
 75
     0
 76
     0
 77
     1
 78
     8
170
     0
171
     3
172
     1
173
     0
174
     0
175
     0
176
     0
177
     0
178
     0
270
     2
271
     2
272
     2
273
     2
274
     3
340
11
275
     0
280
     0
281
     0
282
     0
283
     0
284
     8
285
     0
286
     0
287
     3
288
     0
  0
ENDTAB
  0
TABLE
  2
BLOCK_RECORD
  5
1
330
0
100
AcDbSymbolTable
 70
     1
  0
BLOCK_RECORD
  5
1F
330
1
100
AcDbSymbolTableRecord
100
AcDbBlockTableRecord
  2
*MODEL_SPACE
  0
BLOCK_RECORD
  5
1B
330
1
100
AcDbSymbolTableRecord
100
AcDbBlockTableRecord
  2
*PAPER_SPACE
  0
ENDTAB
  0
ENDSEC
  0
SECTION
  2
BLOCKS
  0
BLOCK
  5
20
330
1F
100
AcDbEntity
  8
0
100
AcDbBlockBegin
  2
*MODEL_SPACE
 70
     0
 10
0.0
 20
0.0
 30
0.0
  3
*MODEL_SPACE
  1

  0
ENDBLK
  5
21
330
1F
100
AcDbEntity
  8
0
100
AcDbBlockEnd
  0
BLOCK
  5
1C
330
1B
100
AcDbEntity
 67
     1
  8
0
100
AcDbBlockBegin
  2
*PAPER_SPACE
  1

  0
ENDBLK
  5
1D
330
1B
100
AcDbEntity
 67
     1
  8
0
100
AcDbBlockEnd
  0
ENDSEC
  0
SECTION
  2
ENTITIES
  0
SPLINE
  5
100
100
AcDbEntity
  8
Layer_1
 62
7
100
AcDbSpline
 70
8
 71
3
 72
8
 73
4
 74
0
 40
0
 40
0
 40
0
 40
0
 40
1
 40
1
 40
1
 40
1
 10
24.449502
 20
475.163781
 30
0.0
 10
25.879659
 20
475.162136
 30
0.0
 10
27.201883
 20
475.924172
 30
0.0
 10
27.917437
 20
477.162451
 30
0.0
  0
SPLINE
  5
101
100
AcDbEntity
  8
Layer_1
 62
7
100
AcDbSpline
 70
8
 71
3
 72
8
 73
4
 74
0
 40
0
 40
0
 40
0
 40
0
 40
1
 40
1
 40
1
 40
1
 10
27.917437
 20
477.162451
 30
0.0
 10
28.632991
 20
478.400730
 30
0.0
 10
28.632991
 20
479.926827
 30
0.0
 10
27.917437
 20
481.165106
 30
0.0
  0
SPLINE
  5
102
100
AcDbEntity
  8
Layer_1
 62
7
100
AcDbSpline
 70
8
 71
3
 72
8
 73
4
 74
0
 40
0
 40
0
 40
0
 40
0
 40
1
 40
1
 40
1
 40
1
 10
27.917437
 20
481.165106
 30
0.0
 10
27.201883
 20
482.403385
 30
0.0
 10
25.879659
 20
483.165421
 30
0.0
 10
24.449502
 20
483.163776
 30
0.0
  0
SPLINE
  5
103
100
AcDbEntity
  8
Layer_1
 62
7
100
AcDbSpline
 70
8
 71
3
 72
8
 73
4
 74
0
 40
0
 40
0
 40
0
 40
0
 40
1
 40
1
 40
1
 40
1
 10
24.449502
 20
483.163776
 30
0.0
 10
23.019291
 20
483.165501
 30
0.0
 10
21.696983
 20
482.403483
 30
0.0
 10
20.981379
 20
481.165171
 30
0.0
  0
SPLINE
  5
104
100
AcDbEntity
  8
Layer_1
 62
7
100
AcDbSpline
 70
8
 71
3
 72
8
 73
4
 74
0
 40
0
 40
0
 40
0
 40
0
 40
1
 40
1
 40
1
 40
1
 10
20.981379
 20
481.165171
 30
0.0
 10
20.265775
 20
479.926859
 30
0.0
 10
20.265775
 20
478.400698
 30
0.0
 10
20.981379
 20
477.162386
 30
0.0
  0
SPLINE
  5
105
100
AcDbEntity
  8
Layer_1
 62
7
100
AcDbSpline
 70
8
 71
3
 72
8
 73
4
 74
0
 40
0
 40
0
 40
0
 40
0
 40
1
 40
1
 40
1
 40
1
 10
20.981379
 20
477.162386
 30
0.0
 10
21.696983
 20
475.924074
 30
0.0
 10
23.019291
 20
475.162056
 30
0.0
 10
24.449502
 20
475.163781
 30
0.0
  0
LWPOLYLINE
  5
106
100
AcDbEntity
  8
Layer_1
 62
7
100
AcDbPolyline
 90
100
 70
1
 10
108.449586
 20
389.514353
 30
0.0
 10
108.449586
 20
379.514407
 30
0.0
 10
105.449600
 20
379.514407
 30
0.0
 10
105.449600
 20
369.514462
 30
0.0
 10
108.449586
 20
369.514462
 30
0.0
 10
108.449586
 20
359.514516
 30
0.0
 10
105.449600
 20
359.514516
 30
0.0
 10
105.449600
 20
349.514571
 30
0.0
 10
108.449586
 20
349.514571
 30
0.0
 10
108.449586
 20
339.514625
 30
0.0
 10
105.449600
 20
339.514625
 30
0.0
 10
105.449600
 20
329.514680
 30
0.0
 10
108.449586
 20
329.514680
 30
0.0
 10
108.449586
 20
323.114716
 30
0.0
 10
104.749606
 20
323.114716
 30
0.0
 10
104.749606
 20
319.414735
 30
0.0
 10
108.449586
 20
319.414735
 30
0.0
 10
108.449586
 20
313.014769
 30
0.0
 10
105.449600
 20
313.014769
 30
0.0
 10
105.449600
 20
299.513854
 30
0.0
 10
91.949572
 20
299.513854
 30
0.0
 10
91.949572
 20
296.513852
 30
0.0
 10
75.449560
 20
296.513852
 30
0.0
 10
75.449560
 20
299.513854
 30
0.0
 10
65.449554
 20
299.513854
 30
0.0
 10
65.449554
 20
296.513852
 30
0.0
 10
55.449545
 20
296.513852
 30
0.0
 10
55.449545
 20
299.513854
 30
0.0
 10
45.449539
 20
299.513854
 30
0.0
 10
45.449539
 20
296.513852
 30
0.0
 10
28.949535
 20
296.513852
 30
0.0
 10
28.949535
 20
299.513854
 30
0.0
 10
12.449510
 20
299.513854
 30
0.0
 10
12.449510
 20
313.013864
 30
0.0
 10
15.449514
 20
313.013864
 30
0.0
 10
15.449514
 20
329.513875
 30
0.0
 10
12.449510
 20
329.513875
 30
0.0
 10
12.449510
 20
339.513884
 30
0.0
 10
15.449514
 20
339.513884
 30
0.0
 10
15.449514
 20
349.513891
 30
0.0
 10
12.449510
 20
349.513891
 30
0.0
 10
12.449510
 20
359.513897
 30
0.0
 10
15.449514
 20
359.513897
 30
0.0
 10
15.449514
 20
369.513906
 30
0.0
 10
12.449510
 20
369.513906
 30
0.0
 10
12.449510
 20
379.513912
 30
0.0
 10
15.449514
 20
379.513912
 30
0.0
 10
15.449514
 20
389.513921
 30
0.0
 10
12.449510
 20
389.513921
 30
0.0
 10
12.449510
 20
399.513928
 30
0.0
 10
15.449514
 20
399.513928
 30
0.0
 10
15.449514
 20
409.513934
 30
0.0
 10
12.449510
 20
409.513934
 30
0.0
 10
12.449510
 20
419.513943
 30
0.0
 10
15.449514
 20
419.513943
 30
0.0
 10
15.449514
 20
429.513949
 30
0.0
 10
12.449510
 20
429.513949
 30
0.0
 10
12.449510
 20
439.513958
 30
0.0
 10
15.449514
 20
439.513958
 30
0.0
 10
15.449514
 20
449.513965
 30
0.0
 10
12.449510
 20
449.513965
 30
0.0
 10
12.449510
 20
459.513968
 30
0.0
 10
15.449514
 20
459.513968
 30
0.0
 10
15.449514
 20
476.013993
 30
0.0
 10
12.449510
 20
476.013993
 30
0.0
 10
12.449510
 20
489.513987
 30
0.0
 10
28.949535
 20
489.513987
 30
0.0
 10
28.949535
 20
492.513992
 30
0.0
 10
45.449539
 20
492.513992
 30
0.0
 10
45.449539
 20
489.513987
 30
0.0
 10
55.449545
 20
489.513987
 30
0.0
 10
55.449545
 20
492.513992
 30
0.0
 10
65.449554
 20
492.513992
 30
0.0
 10
65.449554
 20
489.513987
 30
0.0
 10
75.449560
 20
489.513987
 30
0.0
 10
75.449560
 20
492.513992
 30
0.0
 10
91.949572
 20
492.513992
 30
0.0
 10
91.949572
 20
489.513987
 30
0.0
 10
105.449600
 20
489.513987
 30
0.0
 10
105.449600
 20
476.013887
 30
0.0
 10
108.449586
 20
476.013887
 30
0.0
 10
108.449586
 20
469.613908
 30
0.0
 10
104.749606
 20
469.613908
 30
0.0
 10
104.749606
 20
465.913948
 30
0.0
 10
108.449586
 20
465.913948
 30
0.0
 10
108.449586
 20
459.513968
 30
0.0
 10
105.449600
 20
459.513968
 30
0.0
 10
105.449600
 20
449.514028
 30
0.0
 10
108.449586
 20
449.514028
 30
0.0
 10
108.449586
 20
439.514083
 30
0.0
 10
105.449600
 20
439.514083
 30
0.0
 10
105.449600
 20
429.514135
 30
0.0
 10
108.449586
 20
429.514135
 30
0.0
 10
108.449586
 20
419.514189
 30
0.0
 10
105.449600
 20
419.514189
 30
0.0
 10
105.449600
 20
409.514244
 30
0.0
 10
108.449586
 20
409.514244
 30
0.0
 10
108.449586
 20
399.514298
 30
0.0
 10
105.449600
 20
399.514298
 30
0.0
 10
105.449600
 20
389.514353
 30
0.0
  0
SPLINE
  5
107
100
AcDbEntity
  8
Layer_1
 62
7
100
AcDbSpline
 70
8
 71
3
 72
8
 73
4
 74
0
 40
0
 40
0
 40
0
 40
0
 40
1
 40
1
 40
1
 40
1
 10
27.449506
 20
439.663768
 30
0.0
 10
29.057936
 20
439.662665
 30
0.0
 10
30.544659
 20
440.520119
 30
0.0
 10
31.349192
 20
441.912876
 30
0.0
  0
SPLINE
  5
108
100
AcDbEntity
  8
Layer_1
 62
7
100
AcDbSpline
 70
8
 71
3
 72
8
 73
4
 74
0
 40
0
 40
0
 40
0
 40
0
 40
1
 40
1
 40
1
 40
1
 10
31.349192
 20
441.912876
 30
0.0
 10
32.153726
 20
443.305634
 30
0.0
 10
32.153726
 20
445.021900
 30
0.0
 10
31.349192
 20
446.414658
 30
0.0
  0
SPLINE
  5
109
100
AcDbEntity
  8
Layer_1
 62
7
100
AcDbSpline
 70
8
 71
3
 72
8
 73
4
 74
0
 40
0
 40
0
 40
0
 40
0
 40
1
 40
1
 40
1
 40
1
 10
31.349192
 20
446.414658
 30
0.0
 10
30.544659
 20
447.807415
 30
0.0
 10
29.057936
 20
448.664869
 30
0.0
 10
27.449506
 20
448.663766
 30
0.0
  0
SPLINE
  5
10a
100
AcDbEntity
  8
Layer_1
 62
7
100
AcDbSpline
 70
8
 71
3
 72
8
 73
4
 74
0
 40
0
 40
0
 40
0
 40
0
 40
1
 40
1
 40
1
 40
1
 10
27.449506
 20
448.663766
 30
0.0
 10
25.841076
 20
448.664869
 30
0.0
 10
24.354354
 20
447.807415
 30
0.0
 10
23.549820
 20
446.414658
 30
0.0
  0
SPLINE
  5
10b
100
AcDbEntity
  8
Layer_1
 62
7
100
AcDbSpline
 70
8
 71
3
 72
8
 73
4
 74
0
 40
0
 40
0
 40
0
 40
0
 40
1
 40
1
 40
1
 40
1
 10
23.549820
 20
446.414658
 30
0.0
 10
22.745286
 20
445.021900
 30
0.0
 10
22.745286
 20
443.305634
 30
0.0
 10
23.549820
 20
441.912876
 30
0.0
  0
SPLINE
  5
10c
100
AcDbEntity
  8
Layer_1
 62
7
100
AcDbSpline
 70
8
 71
3
 72
8
 73
4
 74
0
 40
0
 40
0
 40
0
 40
0
 40
1
 40
1
 40
1
 40
1
 10
23.549820
 20
441.912876
 30
0.0
 10
24.354354
 20
440.520119
 30
0.0
 10
25.841076
 20
439.662665
 30
0.0
 10
27.449506
 20
439.663768
 30
0.0
  0
LWPOLYLINE
  5
10d
100
AcDbEntity
  8
Layer_1
 62
7
100
AcDbPolyline
 90
1
 70
1
 10
24.449502
 20
475.163781
 30
0.0
  0
LWPOLYLINE
  5
10e
100
AcDbEntity
  8
Layer_1
 62
7
100
AcDbPolyline
 90
1
 70
1
 10
27.449506
 20
439.663768
 30
0.0
  0
LWPOLYLINE
  5
10f
100
AcDbEntity
  8
Layer_1
 62
7
100
AcDbPolyline
 90
116
 70
1
 10
484.449011
 20
329.512953
 30
0.0
 10
487.449013
 20
329.512953
 30
0.0
 10
487.449013
 20
313.012941
 30
0.0
 10
484.449011
 20
313.012941
 30
0.0
 10
484.449011
 20
299.512931
 30
0.0
 10
473.449002
 20
299.512931
 30
0.0
 10
473.449002
 20
296.512930
 30
0.0
 10
459.448993
 20
296.512930
 30
0.0
 10
459.448993
 20
299.512931
 30
0.0
 10
449.448984
 20
299.512931
 30
0.0
 10
449.448984
 20
296.512930
 30
0.0
 10
439.448978
 20
296.512930
 30
0.0
 10
439.448978
 20
299.512931
 30
0.0
 10
429.448969
 20
299.512931
 30
0.0
 10
429.448969
 20
296.512930
 30
0.0
 10
419.448970
 20
296.512930
 30
0.0
 10
419.448970
 20
299.512931
 30
0.0
 10
409.448964
 20
299.512931
 30
0.0
 10
409.448964
 20
296.512930
 30
0.0
 10
399.448958
 20
296.512930
 30
0.0
 10
399.448958
 20
299.512931
 30
0.0
 10
389.448951
 20
299.512931
 30
0.0
 10
389.448951
 20
296.512930
 30
0.0
 10
379.448945
 20
296.512930
 30
0.0
 10
379.448945
 20
299.512931
 30
0.0
 10
369.448912
 20
299.512931
 30
0.0
 10
369.448912
 20
296.512930
 30
0.0
 10
355.448909
 20
296.512930
 30
0.0
 10
355.448909
 20
299.512931
 30
0.0
 10
344.448910
 20
299.512931
 30
0.0
 10
344.448910
 20
313.012941
 30
0.0
 10
341.448905
 20
313.012941
 30
0.0
 10
341.448905
 20
329.512953
 30
0.0
 10
344.448910
 20
329.512953
 30
0.0
 10
344.448910
 20
339.512962
 30
0.0
 10
341.448905
 20
339.512962
 30
0.0
 10
341.448905
 20
349.512968
 30
0.0
 10
344.448910
 20
349.512968
 30
0.0
 10
344.448910
 20
359.512977
 30
0.0
 10
341.448905
 20
359.512977
 30
0.0
 10
341.448905
 20
369.512984
 30
0.0
 10
344.448910
 20
369.512984
 30
0.0
 10
344.448910
 20
379.512990
 30
0.0
 10
341.448905
 20
379.512990
 30
0.0
 10
341.448905
 20
389.512999
 30
0.0
 10
344.448910
 20
389.512999
 30
0.0
 10
344.448910
 20
399.513005
 30
0.0
 10
341.448905
 20
399.513005
 30
0.0
 10
341.448905
 20
409.513014
 30
0.0
 10
344.448910
 20
409.513014
 30
0.0
 10
344.448910
 20
419.513021
 30
0.0
 10
341.448905
 20
419.513021
 30
0.0
 10
341.448905
 20
429.513030
 30
0.0
 10
344.448910
 20
429.513030
 30
0.0
 10
344.448910
 20
439.513036
 30
0.0
 10
341.448905
 20
439.513036
 30
0.0
 10
341.448905
 20
449.513042
 30
0.0
 10
344.448910
 20
449.513042
 30
0.0
 10
344.448910
 20
459.513051
 30
0.0
 10
341.448905
 20
459.513051
 30
0.0
 10
341.448905
 20
476.013063
 30
0.0
 10
344.448910
 20
476.013063
 30
0.0
 10
344.448910
 20
489.513073
 30
0.0
 10
355.448909
 20
489.513073
 30
0.0
 10
355.448909
 20
492.513075
 30
0.0
 10
369.448912
 20
492.513075
 30
0.0
 10
369.448912
 20
489.513073
 30
0.0
 10
379.448945
 20
489.513073
 30
0.0
 10
379.448945
 20
492.513075
 30
0.0
 10
389.448951
 20
492.513075
 30
0.0
 10
389.448951
 20
489.513073
 30
0.0
 10
399.448958
 20
489.513073
 30
0.0
 10
399.448958
 20
492.513075
 30
0.0
 10
409.448964
 20
492.513075
 30
0.0
 10
409.448964
 20
489.513073
 30
0.0
 10
419.448970
 20
489.513073
 30
0.0
 10
419.448970
 20
492.513075
 30
0.0
 10
429.448969
 20
492.513075
 30
0.0
 10
429.448969
 20
489.513073
 30
0.0
 10
439.448978
 20
489.513073
 30
0.0
 10
439.448978
 20
492.513075
 30
0.0
 10
449.448984
 20
492.513075
 30
0.0
 10
449.448984
 20
489.513073
 30
0.0
 10
459.448993
 20
489.513073
 30
0.0
 10
459.448993
 20
492.513075
 30
0.0
 10
473.449002
 20
492.513075
 30
0.0
 10
473.449002
 20
489.513073
 30
0.0
 10
484.449011
 20
489.513073
 30
0.0
 10
484.449011
 20
476.013063
 30
0.0
 10
487.449013
 20
476.013063
 30
0.0
 10
487.449013
 20
459.513051
 30
0.0
 10
484.449011
 20
459.513051
 30
0.0
 10
484.449011
 20
449.513042
 30
0.0
 10
487.449013
 20
449.513042
 30
0.0
 10
487.449013
 20
439.513036
 30
0.0
 10
484.449011
 20
439.513036
 30
0.0
 10
484.449011
 20
429.513030
 30
0.0
 10
487.449013
 20
429.513030
 30
0.0
 10
487.449013
 20
419.513021
 30
0.0
 10
484.449011
 20
419.513021
 30
0.0
 10
484.449011
 20
409.513014
 30
0.0
 10
487.449013
 20
409.513014
 30
0.0
 10
487.449013
 20
399.513005
 30
0.0
 10
484.449011
 20
399.513005
 30
0.0
 10
484.449011
 20
389.512999
 30
0.0
 10
487.449013
 20
389.512999
 30
0.0
 10
487.449013
 20
379.512990
 30
0.0
 10
484.449011
 20
379.512990
 30
0.0
 10
484.449011
 20
369.512984
 30
0.0
 10
487.449013
 20
369.512984
 30
0.0
 10
487.449013
 20
359.512977
 30
0.0
 10
484.449011
 20
359.512977
 30
0.0
 10
484.449011
 20
349.512968
 30
0.0
 10
487.449013
 20
349.512968
 30
0.0
 10
487.449013
 20
339.512962
 30
0.0
 10
484.449011
 20
339.512962
 30
0.0
  0
LWPOLYLINE
  5
110
100
AcDbEntity
  8
Layer_1
 62
7
100
AcDbPolyline
 90
100
 70
1
 10
201.449674
 20
409.513431
 30
0.0
 10
201.449674
 20
399.513485
 30
0.0
 10
198.449690
 20
399.513485
 30
0.0
 10
198.449690
 20
389.513537
 30
0.0
 10
201.449674
 20
389.513537
 30
0.0
 10
201.449674
 20
379.513592
 30
0.0
 10
198.449690
 20
379.513592
 30
0.0
 10
198.449690
 20
369.513646
 30
0.0
 10
201.449674
 20
369.513646
 30
0.0
 10
201.449674
 20
359.513701
 30
0.0
 10
198.449690
 20
359.513701
 30
0.0
 10
198.449690
 20
349.513755
 30
0.0
 10
201.449674
 20
349.513755
 30
0.0
 10
201.449674
 20
339.513810
 30
0.0
 10
198.449690
 20
339.513810
 30
0.0
 10
198.449690
 20
329.513862
 30
0.0
 10
201.449674
 20
329.513862
 30
0.0
 10
201.449674
 20
323.113908
 30
0.0
 10
197.749693
 20
323.113908
 30
0.0
 10
197.749693
 20
319.413922
 30
0.0
 10
201.449674
 20
319.413922
 30
0.0
 10
201.449674
 20
313.013943
 30
0.0
 10
198.449690
 20
313.013943
 30
0.0
 10
198.449690
 20
299.513843
 30
0.0
 10
184.949662
 20
299.513843
 30
0.0
 10
184.949662
 20
296.513838
 30
0.0
 10
168.449648
 20
296.513838
 30
0.0
 10
168.449648
 20
299.513843
 30
0.0
 10
158.449641
 20
299.513843
 30
0.0
 10
158.449641
 20
296.513838
 30
0.0
 10
148.449635
 20
296.513838
 30
0.0
 10
148.449635
 20
299.513843
 30
0.0
 10
138.449626
 20
299.513843
 30
0.0
 10
138.449626
 20
296.513838
 30
0.0
 10
121.949625
 20
296.513838
 30
0.0
 10
121.949625
 20
299.513843
 30
0.0
 10
105.449600
 20
299.513843
 30
0.0
 10
105.449600
 20
313.013863
 30
0.0
 10
108.449604
 20
313.013863
 30
0.0
 10
108.449604
 20
329.513862
 30
0.0
 10
105.449600
 20
329.513862
 30
0.0
 10
105.449600
 20
339.513873
 30
0.0
 10
108.449604
 20
339.513873
 30
0.0
 10
108.449604
 20
349.513880
 30
0.0
 10
105.449600
 20
349.513880
 30
0.0
 10
105.449600
 20
359.513889
 30
0.0
 10
108.449604
 20
359.513889
 30
0.0
 10
108.449604
 20
369.513895
 30
0.0
 10
105.449600
 20
369.513895
 30
0.0
 10
105.449600
 20
379.513901
 30
0.0
 10
108.449604
 20
379.513901
 30
0.0
 10
108.449604
 20
389.513910
 30
0.0
 10
105.449600
 20
389.513910
 30
0.0
 10
105.449600
 20
399.513917
 30
0.0
 10
108.449604
 20
399.513917
 30
0.0
 10
108.449604
 20
409.513926
 30
0.0
 10
105.449600
 20
409.513926
 30
0.0
 10
105.449600
 20
419.513932
 30
0.0
 10
108.449604
 20
419.513932
 30
0.0
 10
108.449604
 20
429.513941
 30
0.0
 10
105.449600
 20
429.513941
 30
0.0
 10
105.449600
 20
439.513947
 30
0.0
 10
108.449604
 20
439.513947
 30
0.0
 10
108.449604
 20
449.513954
 30
0.0
 10
105.449600
 20
449.513954
 30
0.0
 10
105.449600
 20
459.513963
 30
0.0
 10
108.449604
 20
459.513963
 30
0.0
 10
108.449604
 20
476.013974
 30
0.0
 10
105.449600
 20
476.013974
 30
0.0
 10
105.449600
 20
489.513984
 30
0.0
 10
121.949625
 20
489.513984
 30
0.0
 10
121.949625
 20
492.513986
 30
0.0
 10
138.449626
 20
492.513986
 30
0.0
 10
138.449626
 20
489.513984
 30
0.0
 10
148.449635
 20
489.513984
 30
0.0
 10
148.449635
 20
492.513986
 30
0.0
 10
158.449641
 20
492.513986
 30
0.0
 10
158.449641
 20
489.513984
 30
0.0
 10
168.449648
 20
489.513984
 30
0.0
 10
168.449648
 20
492.513986
 30
0.0
 10
184.949662
 20
492.513986
 30
0.0
 10
184.949662
 20
489.513984
 30
0.0
 10
198.449690
 20
489.513984
 30
0.0
 10
198.449690
 20
476.013069
 30
0.0
 10
201.449674
 20
476.013069
 30
0.0
 10
201.449674
 20
469.613103
 30
0.0
 10
197.749693
 20
469.613103
 30
0.0
 10
197.749693
 20
465.913122
 30
0.0
 10
201.449674
 20
465.913122
 30
0.0
 10
201.449674
 20
459.513158
 30
0.0
 10
198.449690
 20
459.513158
 30
0.0
 10
198.449690
 20
449.513213
 30
0.0
 10
201.449674
 20
449.513213
 30
0.0
 10
201.449674
 20
439.513267
 30
0.0
 10
198.449690
 20
439.513267
 30
0.0
 10
198.449690
 20
429.513322
 30
0.0
 10
201.449674
 20
429.513322
 30
0.0
 10
201.449674
 20
419.513376
 30
0.0
 10
198.449690
 20
419.513376
 30
0.0
 10
198.449690
 20
409.513431
 30
0.0
  0
LWPOLYLINE
  5
111
100
AcDbEntity
  8
Layer_1
 62
7
100
AcDbPolyline
 90
100
 70
1
 10
389.449375
 20
206.512837
 30
0.0
 10
379.449421
 20
206.512837
 30
0.0
 10
379.449421
 20
203.512854
 30
0.0
 10
369.449494
 20
203.512854
 30
0.0
 10
369.449494
 20
206.512837
 30
0.0
 10
363.999501
 20
206.512837
 30
0.0
 10
363.999501
 20
208.612824
 30
0.0
 10
365.249498
 20
208.612824
 30
0.0
 10
365.249498
 20
211.112811
 30
0.0
 10
363.999501
 20
211.112811
 30
0.0
 10
363.999501
 20
213.612798
 30
0.0
 10
360.899537
 20
213.612798
 30
0.0
 10
360.899537
 20
211.112811
 30
0.0
 10
359.649539
 20
211.112811
 30
0.0
 10
359.649539
 20
208.612824
 30
0.0
 10
360.899537
 20
208.612824
 30
0.0
 10
360.899537
 20
206.512837
 30
0.0
 10
355.449570
 20
206.512837
 30
0.0
 10
355.449570
 20
203.512854
 30
0.0
 10
341.448905
 20
203.512854
 30
0.0
 10
341.448905
 20
220.012865
 30
0.0
 10
344.448910
 20
220.012865
 30
0.0
 10
344.448910
 20
236.512877
 30
0.0
 10
341.448905
 20
236.512877
 30
0.0
 10
341.448905
 20
246.512883
 30
0.0
 10
344.448910
 20
246.512883
 30
0.0
 10
344.448910
 20
256.512892
 30
0.0
 10
341.448905
 20
256.512892
 30
0.0
 10
341.448905
 20
266.512899
 30
0.0
 10
344.448910
 20
266.512899
 30
0.0
 10
344.448910
 20
283.012905
 30
0.0
 10
341.448905
 20
283.012905
 30
0.0
 10
341.448905
 20
299.512930
 30
0.0
 10
355.448909
 20
299.512930
 30
0.0
 10
355.448909
 20
296.512926
 30
0.0
 10
369.448912
 20
296.512926
 30
0.0
 10
369.448912
 20
299.512930
 30
0.0
 10
379.448945
 20
299.512930
 30
0.0
 10
379.448945
 20
296.512926
 30
0.0
 10
389.448951
 20
296.512926
 30
0.0
 10
389.448951
 20
299.512930
 30
0.0
 10
399.448958
 20
299.512930
 30
0.0
 10
399.448958
 20
296.512926
 30
0.0
 10
409.448964
 20
296.512926
 30
0.0
 10
409.448964
 20
299.512930
 30
0.0
 10
419.448970
 20
299.512930
 30
0.0
 10
419.448970
 20
296.512926
 30
0.0
 10
429.448969
 20
296.512926
 30
0.0
 10
429.448969
 20
299.512930
 30
0.0
 10
439.448978
 20
299.512930
 30
0.0
 10
439.448978
 20
296.512926
 30
0.0
 10
449.448984
 20
296.512926
 30
0.0
 10
449.448984
 20
299.512930
 30
0.0
 10
459.448993
 20
299.512930
 30
0.0
 10
459.448993
 20
296.512926
 30
0.0
 10
473.449002
 20
296.512926
 30
0.0
 10
473.449002
 20
299.512930
 30
0.0
 10
487.449013
 20
299.512930
 30
0.0
 10
487.449013
 20
283.012905
 30
0.0
 10
484.449011
 20
283.012905
 30
0.0
 10
484.449011
 20
266.512899
 30
0.0
 10
487.449013
 20
266.512899
 30
0.0
 10
487.449013
 20
256.512892
 30
0.0
 10
484.449011
 20
256.512892
 30
0.0
 10
484.449011
 20
246.512883
 30
0.0
 10
487.449013
 20
246.512883
 30
0.0
 10
487.449013
 20
236.512877
 30
0.0
 10
484.449011
 20
236.512877
 30
0.0
 10
484.449011
 20
220.012865
 30
0.0
 10
487.449013
 20
220.012865
 30
0.0
 10
487.449013
 20
203.512854
 30
0.0
 10
473.448917
 20
203.512854
 30
0.0
 10
473.448917
 20
206.512837
 30
0.0
 10
467.998945
 20
206.512837
 30
0.0
 10
467.998945
 20
208.612824
 30
0.0
 10
469.248940
 20
208.612824
 30
0.0
 10
469.248940
 20
211.112811
 30
0.0
 10
467.998945
 20
211.112811
 30
0.0
 10
467.998945
 20
213.612798
 30
0.0
 10
464.898962
 20
213.612798
 30
0.0
 10
464.898962
 20
211.112811
 30
0.0
 10
463.648970
 20
211.112811
 30
0.0
 10
463.648970
 20
208.612824
 30
0.0
 10
464.898962
 20
208.612824
 30
0.0
 10
464.898962
 20
206.512837
 30
0.0
 10
459.448993
 20
206.512837
 30
0.0
 10
459.448993
 20
203.512854
 30
0.0
 10
449.449047
 20
203.512854
 30
0.0
 10
449.449047
 20
206.512837
 30
0.0
 10
439.449099
 20
206.512837
 30
0.0
 10
439.449099
 20
203.512854
 30
0.0
 10
429.449154
 20
203.512854
 30
0.0
 10
429.449154
 20
206.512837
 30
0.0
 10
419.449208
 20
206.512837
 30
0.0
 10
419.449208
 20
203.512854
 30
0.0
 10
409.449255
 20
203.512854
 30
0.0
 10
409.449255
 20
206.512837
 30
0.0
 10
399.449328
 20
206.512837
 30
0.0
 10
399.449328
 20
203.512854
 30
0.0
 10
389.449375
 20
203.512854
 30
0.0
  0
LWPOLYLINE
  5
112
100
AcDbEntity
  8
Layer_1
 62
7
100
AcDbPolyline
 90
100
 70
1
 10
231.299511
 20
293.514055
 30
0.0
 10
241.299465
 20
293.514055
 30
0.0
 10
241.299465
 20
296.514041
 30
0.0
 10
251.299392
 20
296.514041
 30
0.0
 10
251.299392
 20
293.514055
 30
0.0
 10
261.299345
 20
293.514055
 30
0.0
 10
261.299345
 20
296.514041
 30
0.0
 10
271.299298
 20
296.514041
 30
0.0
 10
271.299298
 20
293.514055
 30
0.0
 10
281.299239
 20
293.514055
 30
0.0
 10
281.299239
 20
296.514041
 30
0.0
 10
291.299184
 20
296.514041
 30
0.0
 10
291.299184
 20
293.514055
 30
0.0
 10
301.299130
 20
293.514055
 30
0.0
 10
301.299130
 20
296.514041
 30
0.0
 10
311.299075
 20
296.514041
 30
0.0
 10
311.299075
 20
293.514055
 30
0.0
 10
316.749044
 20
293.514055
 30
0.0
 10
316.749044
 20
291.414068
 30
0.0
 10
315.499052
 20
291.414068
 30
0.0
 10
315.499052
 20
288.914081
 30
0.0
 10
316.749044
 20
288.914081
 30
0.0
 10
316.749044
 20
286.414096
 30
0.0
 10
319.849027
 20
286.414096
 30
0.0
 10
319.849027
 20
288.914081
 30
0.0
 10
321.099022
 20
288.914081
 30
0.0
 10
321.099022
 20
291.414068
 30
0.0
 10
319.849027
 20
291.414068
 30
0.0
 10
319.849027
 20
293.514055
 30
0.0
 10
325.298999
 20
293.514055
 30
0.0
 10
325.298999
 20
296.514041
 30
0.0
 10
339.299095
 20
296.514041
 30
0.0
 10
339.299095
 20
280.014027
 30
0.0
 10
336.299093
 20
280.014027
 30
0.0
 10
336.299093
 20
263.514015
 30
0.0
 10
339.299095
 20
263.514015
 30
0.0
 10
339.299095
 20
253.514009
 30
0.0
 10
336.299093
 20
253.514009
 30
0.0
 10
336.299093
 20
243.514000
 30
0.0
 10
339.299095
 20
243.514000
 30
0.0
 10
339.299095
 20
233.513993
 30
0.0
 10
336.299093
 20
233.513993
 30
0.0
 10
336.299093
 20
217.013968
 30
0.0
 10
339.299095
 20
217.013968
 30
0.0
 10
339.299095
 20
200.513970
 30
0.0
 10
325.299087
 20
200.513970
 30
0.0
 10
325.299087
 20
203.513974
 30
0.0
 10
311.299075
 20
203.513974
 30
0.0
 10
311.299075
 20
200.513970
 30
0.0
 10
301.299066
 20
200.513970
 30
0.0
 10
301.299066
 20
203.513974
 30
0.0
 10
291.299060
 20
203.513974
 30
0.0
 10
291.299060
 20
200.513970
 30
0.0
 10
281.299053
 20
200.513970
 30
0.0
 10
281.299053
 20
203.513974
 30
0.0
 10
271.299034
 20
203.513974
 30
0.0
 10
271.299034
 20
200.513970
 30
0.0
 10
261.299027
 20
200.513970
 30
0.0
 10
261.299027
 20
203.513974
 30
0.0
 10
251.299021
 20
203.513974
 30
0.0
 10
251.299021
 20
200.513970
 30
0.0
 10
241.299015
 20
200.513970
 30
0.0
 10
241.299015
 20
203.513974
 30
0.0
 10
231.299008
 20
203.513974
 30
0.0
 10
231.299008
 20
200.513970
 30
0.0
 10
221.299002
 20
200.513970
 30
0.0
 10
221.299002
 20
203.513974
 30
0.0
 10
207.298999
 20
203.513974
 30
0.0
 10
207.298999
 20
200.513970
 30
0.0
 10
193.298995
 20
200.513970
 30
0.0
 10
193.298995
 20
217.013968
 30
0.0
 10
196.299000
 20
217.013968
 30
0.0
 10
196.299000
 20
233.513993
 30
0.0
 10
193.298995
 20
233.513993
 30
0.0
 10
193.298995
 20
243.514000
 30
0.0
 10
196.299000
 20
243.514000
 30
0.0
 10
196.299000
 20
253.514009
 30
0.0
 10
193.298995
 20
253.514009
 30
0.0
 10
193.298995
 20
263.514015
 30
0.0
 10
196.299000
 20
263.514015
 30
0.0
 10
196.299000
 20
280.014027
 30
0.0
 10
193.298995
 20
280.014027
 30
0.0
 10
193.298995
 20
296.514041
 30
0.0
 10
207.299634
 20
296.514041
 30
0.0
 10
207.299634
 20
293.514055
 30
0.0
 10
212.749600
 20
293.514055
 30
0.0
 10
212.749600
 20
291.414068
 30
0.0
 10
211.499629
 20
291.414068
 30
0.0
 10
211.499629
 20
288.914081
 30
0.0
 10
212.749600
 20
288.914081
 30
0.0
 10
212.749600
 20
286.414096
 30
0.0
 10
215.849591
 20
286.414096
 30
0.0
 10
215.849591
 20
288.914081
 30
0.0
 10
217.099588
 20
288.914081
 30
0.0
 10
217.099588
 20
291.414068
 30
0.0
 10
215.849591
 20
291.414068
 30
0.0
 10
215.849591
 20
293.514055
 30
0.0
 10
221.299558
 20
293.514055
 30
0.0
 10
221.299558
 20
296.514041
 30
0.0
 10
231.299511
 20
296.514041
 30
0.0
  0
SPLINE
  5
113
100
AcDbEntity
  8
Layer_1
 62
7
100
AcDbSpline
 70
8
 71
3
 72
8
 73
4
 74
0
 40
0
 40
0
 40
0
 40
0
 40
1
 40
1
 40
1
 40
1
 10
290.948840
 20
369.513014
 30
0.0
 10
290.950463
 20
376.480774
 30
0.0
 10
287.234140
 20
382.919945
 30
0.0
 10
281.200152
 20
386.404294
 30
0.0
  0
SPLINE
  5
114
100
AcDbEntity
  8
Layer_1
 62
7
100
AcDbSpline
 70
8
 71
3
 72
8
 73
4
 74
0
 40
0
 40
0
 40
0
 40
0
 40
1
 40
1
 40
1
 40
1
 10
281.200152
 20
386.404294
 30
0.0
 10
275.166165
 20
389.888644
 30
0.0
 10
267.731517
 20
389.888644
 30
0.0
 10
261.697530
 20
386.404294
 30
0.0
  0
SPLINE
  5
115
100
AcDbEntity
  8
Layer_1
 62
7
100
AcDbSpline
 70
8
 71
3
 72
8
 73
4
 74
0
 40
0
 40
0
 40
0
 40
0
 40
1
 40
1
 40
1
 40
1
 10
261.697530
 20
386.404294
 30
0.0
 10
255.663542
 20
382.919945
 30
0.0
 10
251.947219
 20
376.480774
 30
0.0
 10
251.948842
 20
369.513014
 30
0.0
  0
SPLINE
  5
116
100
AcDbEntity
  8
Layer_1
 62
7
100
AcDbSpline
 70
8
 71
3
 72
8
 73
4
 74
0
 40
0
 40
0
 40
0
 40
0
 40
1
 40
1
 40
1
 40
1
 10
251.948842
 20
369.513014
 30
0.0
 10
251.946854
 20
362.545010
 30
0.0
 10
255.663098
 20
356.105458
 30
0.0
 10
261.697235
 20
352.620882
 30
0.0
  0
SPLINE
  5
117
100
AcDbEntity
  8
Layer_1
 62
7
100
AcDbSpline
 70
8
 71
3
 72
8
 73
4
 74
0
 40
0
 40
0
 40
0
 40
0
 40
1
 40
1
 40
1
 40
1
 10
261.697235
 20
352.620882
 30
0.0
 10
267.731372
 20
349.136306
 30
0.0
 10
275.166310
 20
349.136306
 30
0.0
 10
281.200447
 20
352.620882
 30
0.0
  0
SPLINE
  5
118
100
AcDbEntity
  8
Layer_1
 62
7
100
AcDbSpline
 70
8
 71
3
 72
8
 73
4
 74
0
 40
0
 40
0
 40
0
 40
0
 40
1
 40
1
 40
1
 40
1
 10
281.200447
 20
352.620882
 30
0.0
 10
287.234584
 20
356.105458
 30
0.0
 10
290.950828
 20
362.545010
 30
0.0
 10
290.948840
 20
369.513014
 30
0.0
  0
LWPOLYLINE
  5
119
100
AcDbEntity
  8
Layer_1
 62
7
100
AcDbPolyline
 90
180
 70
1
 10
344.448886
 20
399.513483
 30
0.0
 10
344.448886
 20
389.513537
 30
0.0
 10
341.448908
 20
389.513537
 30
0.0
 10
341.448908
 20
379.513592
 30
0.0
 10
344.448886
 20
379.513592
 30
0.0
 10
344.448886
 20
369.513646
 30
0.0
 10
341.448908
 20
369.513646
 30
0.0
 10
341.448908
 20
359.513701
 30
0.0
 10
344.448886
 20
359.513701
 30
0.0
 10
344.448886
 20
349.513755
 30
0.0
 10
341.448908
 20
349.513755
 30
0.0
 10
341.448908
 20
339.513807
 30
0.0
 10
344.448886
 20
339.513807
 30
0.0
 10
344.448886
 20
329.513862
 30
0.0
 10
341.448908
 20
329.513862
 30
0.0
 10
341.448908
 20
322.813900
 30
0.0
 10
339.348910
 20
322.813900
 30
0.0
 10
339.348910
 20
324.063892
 30
0.0
 10
336.848941
 20
324.063892
 30
0.0
 10
336.848941
 20
322.813900
 30
0.0
 10
334.348946
 20
322.813900
 30
0.0
 10
334.348946
 20
319.713917
 30
0.0
 10
336.848941
 20
319.713917
 30
0.0
 10
336.848941
 20
318.463922
 30
0.0
 10
339.348910
 20
318.463922
 30
0.0
 10
339.348910
 20
319.713917
 30
0.0
 10
341.448908
 20
319.713917
 30
0.0
 10
341.448908
 20
313.013953
 30
0.0
 10
344.448886
 20
313.013953
 30
0.0
 10
344.448886
 20
299.514025
 30
0.0
 10
330.448962
 20
299.514025
 30
0.0
 10
330.448962
 20
296.514042
 30
0.0
 10
325.299006
 20
296.514042
 30
0.0
 10
325.299006
 20
300.214023
 30
0.0
 10
321.599020
 20
300.214023
 30
0.0
 10
321.599020
 20
296.514042
 30
0.0
 10
316.449037
 20
296.514042
 30
0.0
 10
316.449037
 20
299.514025
 30
0.0
 10
306.449111
 20
299.514025
 30
0.0
 10
306.449111
 20
296.514042
 30
0.0
 10
296.449157
 20
296.514042
 30
0.0
 10
296.449157
 20
299.514025
 30
0.0
 10
286.449204
 20
299.514025
 30
0.0
 10
286.449204
 20
296.514042
 30
0.0
 10
276.449277
 20
296.514042
 30
0.0
 10
276.449277
 20
299.514025
 30
0.0
 10
266.449323
 20
299.514025
 30
0.0
 10
266.449323
 20
296.514042
 30
0.0
 10
256.449375
 20
296.514042
 30
0.0
 10
256.449375
 20
299.514025
 30
0.0
 10
246.449430
 20
299.514025
 30
0.0
 10
246.449430
 20
296.514042
 30
0.0
 10
236.449482
 20
296.514042
 30
0.0
 10
236.449482
 20
299.514025
 30
0.0
 10
226.449536
 20
299.514025
 30
0.0
 10
226.449536
 20
296.514042
 30
0.0
 10
221.299564
 20
296.514042
 30
0.0
 10
221.299564
 20
300.214023
 30
0.0
 10
217.599586
 20
300.214023
 30
0.0
 10
217.599586
 20
296.514042
 30
0.0
 10
212.449615
 20
296.514042
 30
0.0
 10
212.449615
 20
299.514025
 30
0.0
 10
198.449690
 20
299.514025
 30
0.0
 10
198.449690
 20
313.013953
 30
0.0
 10
201.449674
 20
313.013953
 30
0.0
 10
201.449674
 20
319.713917
 30
0.0
 10
203.549661
 20
319.713917
 30
0.0
 10
203.549661
 20
318.463922
 30
0.0
 10
206.049648
 20
318.463922
 30
0.0
 10
206.049648
 20
319.713917
 30
0.0
 10
208.549635
 20
319.713917
 30
0.0
 10
208.549635
 20
322.813900
 30
0.0
 10
206.049648
 20
322.813900
 30
0.0
 10
206.049648
 20
324.063892
 30
0.0
 10
203.549661
 20
324.063892
 30
0.0
 10
203.549661
 20
322.813900
 30
0.0
 10
201.449674
 20
322.813900
 30
0.0
 10
201.449674
 20
329.513862
 30
0.0
 10
198.449690
 20
329.513862
 30
0.0
 10
198.449690
 20
339.513807
 30
0.0
 10
201.449674
 20
339.513807
 30
0.0
 10
201.449674
 20
349.513755
 30
0.0
 10
198.449690
 20
349.513755
 30
0.0
 10
198.449690
 20
359.513701
 30
0.0
 10
201.449674
 20
359.513701
 30
0.0
 10
201.449674
 20
369.513646
 30
0.0
 10
198.449690
 20
369.513646
 30
0.0
 10
198.449690
 20
379.513592
 30
0.0
 10
201.449674
 20
379.513592
 30
0.0
 10
201.449674
 20
389.513537
 30
0.0
 10
198.449690
 20
389.513537
 30
0.0
 10
198.449690
 20
399.513483
 30
0.0
 10
201.449674
 20
399.513483
 30
0.0
 10
201.449674
 20
409.513428
 30
0.0
 10
198.449690
 20
409.513428
 30
0.0
 10
198.449690
 20
419.513374
 30
0.0
 10
201.449674
 20
419.513374
 30
0.0
 10
201.449674
 20
429.513319
 30
0.0
 10
198.449690
 20
429.513319
 30
0.0
 10
198.449690
 20
439.513264
 30
0.0
 10
201.449674
 20
439.513264
 30
0.0
 10
201.449674
 20
449.513210
 30
0.0
 10
198.449690
 20
449.513210
 30
0.0
 10
198.449690
 20
459.513155
 30
0.0
 10
201.449674
 20
459.513155
 30
0.0
 10
201.449674
 20
466.213119
 30
0.0
 10
203.549661
 20
466.213119
 30
0.0
 10
203.549661
 20
464.963126
 30
0.0
 10
206.049648
 20
464.963126
 30
0.0
 10
206.049648
 20
466.213119
 30
0.0
 10
208.549635
 20
466.213119
 30
0.0
 10
208.549635
 20
469.313102
 30
0.0
 10
206.049648
 20
469.313102
 30
0.0
 10
206.049648
 20
470.563096
 30
0.0
 10
203.549661
 20
470.563096
 30
0.0
 10
203.549661
 20
469.313102
 30
0.0
 10
201.449674
 20
469.313102
 30
0.0
 10
201.449674
 20
476.013066
 30
0.0
 10
198.449690
 20
476.013066
 30
0.0
 10
198.449690
 20
489.512992
 30
0.0
 10
212.449615
 20
489.512992
 30
0.0
 10
212.449615
 20
492.512976
 30
0.0
 10
217.599586
 20
492.512976
 30
0.0
 10
217.599586
 20
488.812996
 30
0.0
 10
221.299564
 20
488.812996
 30
0.0
 10
221.299564
 20
492.512976
 30
0.0
 10
226.449536
 20
492.512976
 30
0.0
 10
226.449536
 20
489.512992
 30
0.0
 10
236.449482
 20
489.512992
 30
0.0
 10
236.449482
 20
492.512976
 30
0.0
 10
246.449430
 20
492.512976
 30
0.0
 10
246.449430
 20
489.512992
 30
0.0
 10
256.449375
 20
489.512992
 30
0.0
 10
256.449375
 20
492.512976
 30
0.0
 10
266.449323
 20
492.512976
 30
0.0
 10
266.449323
 20
489.512992
 30
0.0
 10
276.449277
 20
489.512992
 30
0.0
 10
276.449277
 20
492.512976
 30
0.0
 10
286.449204
 20
492.512976
 30
0.0
 10
286.449204
 20
489.512992
 30
0.0
 10
296.449157
 20
489.512992
 30
0.0
 10
296.449157
 20
492.512976
 30
0.0
 10
306.449111
 20
492.512976
 30
0.0
 10
306.449111
 20
489.512992
 30
0.0
 10
316.449037
 20
489.512992
 30
0.0
 10
316.449037
 20
492.512976
 30
0.0
 10
321.599020
 20
492.512976
 30
0.0
 10
321.599020
 20
488.812996
 30
0.0
 10
325.299006
 20
488.812996
 30
0.0
 10
325.299006
 20
492.512976
 30
0.0
 10
330.448962
 20
492.512976
 30
0.0
 10
330.448962
 20
489.512992
 30
0.0
 10
344.448886
 20
489.512992
 30
0.0
 10
344.448886
 20
476.013066
 30
0.0
 10
341.448908
 20
476.013066
 30
0.0
 10
341.448908
 20
469.313102
 30
0.0
 10
339.348910
 20
469.313102
 30
0.0
 10
339.348910
 20
470.563096
 30
0.0
 10
336.848941
 20
470.563096
 30
0.0
 10
336.848941
 20
469.313102
 30
0.0
 10
334.348946
 20
469.313102
 30
0.0
 10
334.348946
 20
466.213119
 30
0.0
 10
336.848941
 20
466.213119
 30
0.0
 10
336.848941
 20
464.963126
 30
0.0
 10
339.348910
 20
464.963126
 30
0.0
 10
339.348910
 20
466.213119
 30
0.0
 10
341.448908
 20
466.213119
 30
0.0
 10
341.448908
 20
459.513155
 30
0.0
 10
344.448886
 20
459.513155
 30
0.0
 10
344.448886
 20
449.513210
 30
0.0
 10
341.448908
 20
449.513210
 30
0.0
 10
341.448908
 20
439.513264
 30
0.0
 10
344.448886
 20
439.513264
 30
0.0
 10
344.448886
 20
429.513319
 30
0.0
 10
341.448908
 20
429.513319
 30
0.0
 10
341.448908
 20
419.513374
 30
0.0
 10
344.448886
 20
419.513374
 30
0.0
 10
344.448886
 20
409.513428
 30
0.0
 10
341.448908
 20
409.513428
 30
0.0
 10
341.448908
 20
399.513483
 30
0.0
  0
SPLINE
  5
11a
100
AcDbEntity
  8
Layer_1
 62
7
100
AcDbSpline
 70
8
 71
3
 72
8
 73
4
 74
0
 40
0
 40
0
 40
0
 40
0
 40
1
 40
1
 40
1
 40
1
 10
290.948840
 20
369.513014
 30
0.0
 10
290.950463
 20
376.480774
 30
0.0
 10
287.234140
 20
382.919945
 30
0.0
 10
281.200152
 20
386.404294
 30
0.0
  0
SPLINE
  5
11b
100
AcDbEntity
  8
Layer_1
 62
7
100
AcDbSpline
 70
8
 71
3
 72
8
 73
4
 74
0
 40
0
 40
0
 40
0
 40
0
 40
1
 40
1
 40
1
 40
1
 10
281.200152
 20
386.404294
 30
0.0
 10
275.166165
 20
389.888644
 30
0.0
 10
267.731517
 20
389.888644
 30
0.0
 10
261.697530
 20
386.404294
 30
0.0
  0
SPLINE
  5
11c
100
AcDbEntity
  8
Layer_1
 62
7
100
AcDbSpline
 70
8
 71
3
 72
8
 73
4
 74
0
 40
0
 40
0
 40
0
 40
0
 40
1
 40
1
 40
1
 40
1
 10
261.697530
 20
386.404294
 30
0.0
 10
255.663542
 20
382.919945
 30
0.0
 10
251.947219
 20
376.480774
 30
0.0
 10
251.948842
 20
369.513014
 30
0.0
  0
SPLINE
  5
11d
100
AcDbEntity
  8
Layer_1
 62
7
100
AcDbSpline
 70
8
 71
3
 72
8
 73
4
 74
0
 40
0
 40
0
 40
0
 40
0
 40
1
 40
1
 40
1
 40
1
 10
251.948842
 20
369.513014
 30
0.0
 10
251.946854
 20
362.545010
 30
0.0
 10
255.663098
 20
356.105458
 30
0.0
 10
261.697235
 20
352.620882
 30
0.0
  0
SPLINE
  5
11e
100
AcDbEntity
  8
Layer_1
 62
7
100
AcDbSpline
 70
8
 71
3
 72
8
 73
4
 74
0
 40
0
 40
0
 40
0
 40
0
 40
1
 40
1
 40
1
 40
1
 10
261.697235
 20
352.620882
 30
0.0
 10
267.731372
 20
349.136306
 30
0.0
 10
275.166310
 20
349.136306
 30
0.0
 10
281.200447
 20
352.620882
 30
0.0
  0
SPLINE
  5
11f
100
AcDbEntity
  8
Layer_1
 62
7
100
AcDbSpline
 70
8
 71
3
 72
8
 73
4
 74
0
 40
0
 40
0
 40
0
 40
0
 40
1
 40
1
 40
1
 40
1
 10
281.200447
 20
352.620882
 30
0.0
 10
287.234584
 20
356.105458
 30
0.0
 10
290.950828
 20
362.545010
 30
0.0
 10
290.948840
 20
369.513014
 30
0.0
  0
SPLINE
  5
120
100
AcDbEntity
  8
Layer_1
 62
7
100
AcDbSpline
 70
8
 71
3
 72
8
 73
4
 74
0
 40
0
 40
0
 40
0
 40
0
 40
1
 40
1
 40
1
 40
1
 10
246.799008
 20
454.162870
 30
0.0
 10
246.799008
 20
455.949199
 30
0.0
 10
245.846013
 20
457.599834
 30
0.0
 10
244.299008
 20
458.492998
 30
0.0
  0
SPLINE
  5
121
100
AcDbEntity
  8
Layer_1
 62
7
100
AcDbSpline
 70
8
 71
3
 72
8
 73
4
 74
0
 40
0
 40
0
 40
0
 40
0
 40
1
 40
1
 40
1
 40
1
 10
244.299008
 20
458.492998
 30
0.0
 10
242.752002
 20
459.386162
 30
0.0
 10
240.846013
 20
459.386162
 30
0.0
 10
239.299007
 20
458.492998
 30
0.0
  0
SPLINE
  5
122
100
AcDbEntity
  8
Layer_1
 62
7
100
AcDbSpline
 70
8
 71
3
 72
8
 73
4
 74
0
 40
0
 40
0
 40
0
 40
0
 40
1
 40
1
 40
1
 40
1
 10
239.299007
 20
458.492998
 30
0.0
 10
237.752001
 20
457.599834
 30
0.0
 10
236.799007
 20
455.949199
 30
0.0
 10
236.799007
 20
454.162870
 30
0.0
  0
SPLINE
  5
123
100
AcDbEntity
  8
Layer_1
 62
7
100
AcDbSpline
 70
8
 71
3
 72
8
 73
4
 74
0
 40
0
 40
0
 40
0
 40
0
 40
1
 40
1
 40
1
 40
1
 10
236.799007
 20
454.162870
 30
0.0
 10
236.799007
 20
452.376542
 30
0.0
 10
237.752001
 20
450.725907
 30
0.0
 10
239.299007
 20
449.832743
 30
0.0
  0
SPLINE
  5
124
100
AcDbEntity
  8
Layer_1
 62
7
100
AcDbSpline
 70
8
 71
3
 72
8
 73
4
 74
0
 40
0
 40
0
 40
0
 40
0
 40
1
 40
1
 40
1
 40
1
 10
239.299007
 20
449.832743
 30
0.0
 10
240.846013
 20
448.939579
 30
0.0
 10
242.752002
 20
448.939579
 30
0.0
 10
244.299008
 20
449.832743
 30
0.0
  0
SPLINE
  5
125
100
AcDbEntity
  8
Layer_1
 62
7
100
AcDbSpline
 70
8
 71
3
 72
8
 73
4
 74
0
 40
0
 40
0
 40
0
 40
0
 40
1
 40
1
 40
1
 40
1
 10
244.299008
 20
449.832743
 30
0.0
 10
245.846013
 20
450.725907
 30
0.0
 10
246.799008
 20
452.376542
 30
0.0
 10
246.799008
 20
454.162870
 30
0.0
  0
LWPOLYLINE
  5
126
100
AcDbEntity
  8
Layer_1
 62
7
100
AcDbPolyline
 90
2
 70
1
 10
290.948840
 20
369.513014
 30
0.0
 10
290.948840
 20
369.513014
 30
0.0
  0
SPLINE
  5
127
100
AcDbEntity
  8
Layer_1
 62
7
100
AcDbSpline
 70
8
 71
3
 72
8
 73
4
 74
0
 40
0
 40
0
 40
0
 40
0
 40
1
 40
1
 40
1
 40
1
 10
244.799009
 20
474.162870
 30
0.0
 10
244.799009
 20
475.234667
 30
0.0
 10
244.227212
 20
476.225048
 30
0.0
 10
243.299009
 20
476.760947
 30
0.0
  0
SPLINE
  5
128
100
AcDbEntity
  8
Layer_1
 62
7
100
AcDbSpline
 70
8
 71
3
 72
8
 73
4
 74
0
 40
0
 40
0
 40
0
 40
0
 40
1
 40
1
 40
1
 40
1
 10
243.299009
 20
476.760947
 30
0.0
 10
242.370805
 20
477.296845
 30
0.0
 10
241.227212
 20
477.296845
 30
0.0
 10
240.299008
 20
476.760947
 30
0.0
  0
SPLINE
  5
129
100
AcDbEntity
  8
Layer_1
 62
7
100
AcDbSpline
 70
8
 71
3
 72
8
 73
4
 74
0
 40
0
 40
0
 40
0
 40
0
 40
1
 40
1
 40
1
 40
1
 10
240.299008
 20
476.760947
 30
0.0
 10
239.370805
 20
476.225048
 30
0.0
 10
238.799008
 20
475.234667
 30
0.0
 10
238.799008
 20
474.162870
 30
0.0
  0
SPLINE
  5
12a
100
AcDbEntity
  8
Layer_1
 62
7
100
AcDbSpline
 70
8
 71
3
 72
8
 73
4
 74
0
 40
0
 40
0
 40
0
 40
0
 40
1
 40
1
 40
1
 40
1
 10
238.799008
 20
474.162870
 30
0.0
 10
238.799008
 20
473.091073
 30
0.0
 10
239.370805
 20
472.100692
 30
0.0
 10
240.299008
 20
471.564793
 30
0.0
  0
SPLINE
  5
12b
100
AcDbEntity
  8
Layer_1
 62
7
100
AcDbSpline
 70
8
 71
3
 72
8
 73
4
 74
0
 40
0
 40
0
 40
0
 40
0
 40
1
 40
1
 40
1
 40
1
 10
240.299008
 20
471.564793
 30
0.0
 10
241.227212
 20
471.028895
 30
0.0
 10
242.370805
 20
471.028895
 30
0.0
 10
243.299009
 20
471.564793
 30
0.0
  0
SPLINE
  5
12c
100
AcDbEntity
  8
Layer_1
 62
7
100
AcDbSpline
 70
8
 71
3
 72
8
 73
4
 74
0
 40
0
 40
0
 40
0
 40
0
 40
1
 40
1
 40
1
 40
1
 10
243.299009
 20
471.564793
 30
0.0
 10
244.227212
 20
472.100692
 30
0.0
 10
244.799009
 20
473.091073
 30
0.0
 10
244.799009
 20
474.162870
 30
0.0
  0
LWPOLYLINE
  5
12d
100
AcDbEntity
  8
Layer_1
 62
7
100
AcDbPolyline
 90
1
 70
1
 10
246.799008
 20
454.162870
 30
0.0
  0
SPLINE
  5
12e
100
AcDbEntity
  8
Layer_1
 62
7
100
AcDbSpline
 70
8
 71
3
 72
8
 73
4
 74
0
 40
0
 40
0
 40
0
 40
0
 40
1
 40
1
 40
1
 40
1
 10
228.799007
 20
474.162870
 30
0.0
 10
228.800198
 20
476.664523
 30
0.0
 10
227.466267
 20
478.976655
 30
0.0
 10
225.299970
 20
480.227826
 30
0.0
  0
SPLINE
  5
12f
100
AcDbEntity
  8
Layer_1
 62
7
100
AcDbSpline
 70
8
 71
3
 72
8
 73
4
 74
0
 40
0
 40
0
 40
0
 40
0
 40
1
 40
1
 40
1
 40
1
 10
225.299970
 20
480.227826
 30
0.0
 10
223.133674
 20
481.478996
 30
0.0
 10
220.464342
 20
481.478996
 30
0.0
 10
218.298046
 20
480.227826
 30
0.0
  0
SPLINE
  5
130
100
AcDbEntity
  8
Layer_1
 62
7
100
AcDbSpline
 70
8
 71
3
 72
8
 73
4
 74
0
 40
0
 40
0
 40
0
 40
0
 40
1
 40
1
 40
1
 40
1
 10
218.298046
 20
480.227826
 30
0.0
 10
216.131749
 20
478.976655
 30
0.0
 10
214.797817
 20
476.664523
 30
0.0
 10
214.799009
 20
474.162870
 30
0.0
  0
SPLINE
  5
131
100
AcDbEntity
  8
Layer_1
 62
7
100
AcDbSpline
 70
8
 71
3
 72
8
 73
4
 74
0
 40
0
 40
0
 40
0
 40
0
 40
1
 40
1
 40
1
 40
1
 10
214.799009
 20
474.162870
 30
0.0
 10
214.797817
 20
471.661217
 30
0.0
 10
216.131749
 20
469.349085
 30
0.0
 10
218.298046
 20
468.097914
 30
0.0
  0
SPLINE
  5
132
100
AcDbEntity
  8
Layer_1
 62
7
100
AcDbSpline
 70
8
 71
3
 72
8
 73
4
 74
0
 40
0
 40
0
 40
0
 40
0
 40
1
 40
1
 40
1
 40
1
 10
218.298046
 20
468.097914
 30
0.0
 10
220.464342
 20
466.846744
 30
0.0
 10
223.133674
 20
466.846744
 30
0.0
 10
225.299970
 20
468.097914
 30
0.0
  0
SPLINE
  5
133
100
AcDbEntity
  8
Layer_1
 62
7
100
AcDbSpline
 70
8
 71
3
 72
8
 73
4
 74
0
 40
0
 40
0
 40
0
 40
0
 40
1
 40
1
 40
1
 40
1
 10
225.299970
 20
468.097914
 30
0.0
 10
227.466267
 20
469.349085
 30
0.0
 10
228.800198
 20
471.661217
 30
0.0
 10
228.799007
 20
474.162870
 30
0.0
  0
LWPOLYLINE
  5
134
100
AcDbEntity
  8
Layer_1
 62
7
100
AcDbPolyline
 90
1
 70
1
 10
244.799009
 20
474.162870
 30
0.0
  0
LWPOLYLINE
  5
135
100
AcDbEntity
  8
Layer_1
 62
7
100
AcDbPolyline
 90
1
 70
1
 10
228.799007
 20
474.162870
 30
0.0
  0
SPLINE
  5
136
100
AcDbEntity
  8
Layer_1
 62
1
100
AcDbSpline
 70
8
 71
3
 72
8
 73
4
 74
0
 40
0
 40
0
 40
0
 40
0
 40
1
 40
1
 40
1
 40
1
 10
221.386870
 20
327.108545
 30
0.0
 10
221.386870
 20
325.979656
 30
0.0
 10
221.927793
 20
325.368174
 30
0.0
 10
223.009640
 20
325.274100
 30
0.0
  0
LWPOLYLINE
  5
137
100
AcDbEntity
  8
Layer_1
 62
1
100
AcDbPolyline
 90
6
 70
0
 10
221.386870
 20
336.379544
 30
0.0
 10
221.386870
 20
331.482989
 30
0.0
 10
229.528980
 20
331.482989
 30
0.0
 10
229.528980
 20
328.900656
 30
0.0
 10
221.386870
 20
328.900656
 30
0.0
 10
221.386870
 20
327.108545
 30
0.0
  0
SPLINE
  5
138
100
AcDbEntity
  8
Layer_1
 62
1
100
AcDbSpline
 70
8
 71
3
 72
8
 73
4
 74
0
 40
0
 40
0
 40
0
 40
0
 40
1
 40
1
 40
1
 40
1
 10
223.009640
 20
322.832878
 30
0.0
 10
220.262680
 20
323.058656
 30
0.0
 10
218.889200
 20
324.620286
 30
0.0
 10
218.889200
 20
327.517767
 30
0.0
  0
LWPOLYLINE
  5
139
100
AcDbEntity
  8
Layer_1
 62
1
100
AcDbPolyline
 90
2
 70
0
 10
223.009640
 20
325.274100
 30
0.0
 10
223.009640
 20
322.832878
 30
0.0
  0
LWPOLYLINE
  5
13a
100
AcDbEntity
  8
Layer_1
 62
1
100
AcDbPolyline
 90
3
 70
0
 10
218.889200
 20
327.517767
 30
0.0
 10
218.889200
 20
336.379544
 30
0.0
 10
221.386870
 20
336.379544
 30
0.0
  0
SPLINE
  5
13b
100
AcDbEntity
  8
Layer_1
 62
1
100
AcDbSpline
 70
8
 71
3
 72
8
 73
4
 74
0
 40
0
 40
0
 40
0
 40
0
 40
1
 40
1
 40
1
 40
1
 10
221.386870
 20
344.289263
 30
0.0
 10
221.386870
 20
342.708819
 30
0.0
 10
221.556203
 20
341.683412
 30
0.0
 10
221.894870
 20
341.213041
 30
0.0
  0
SPLINE
  5
13c
100
AcDbEntity
  8
Layer_1
 62
1
100
AcDbSpline
 70
8
 71
3
 72
8
 73
4
 74
0
 40
0
 40
0
 40
0
 40
0
 40
1
 40
1
 40
1
 40
1
 10
221.894870
 20
341.213041
 30
0.0
 10
222.054790
 20
341.015486
 30
0.0
 10
222.238233
 20
340.850856
 30
0.0
 10
222.445200
 20
340.719152
 30
0.0
  0
SPLINE
  5
13d
100
AcDbEntity
  8
Layer_1
 62
1
100
AcDbSpline
 70
8
 71
3
 72
8
 73
4
 74
0
 40
0
 40
0
 40
0
 40
0
 40
1
 40
1
 40
1
 40
1
 10
222.445200
 20
340.719152
 30
0.0
 10
222.642753
 20
340.596856
 30
0.0
 10
222.849717
 20
340.516893
 30
0.0
 10
223.066090
 20
340.479263
 30
0.0
  0
LWPOLYLINE
  5
13e
100
AcDbEntity
  8
Layer_1
 62
1
100
AcDbPolyline
 90
2
 70
0
 10
221.386870
 20
348.974152
 30
0.0
 10
221.386870
 20
344.289263
 30
0.0
  0
LWPOLYLINE
  5
13f
100
AcDbEntity
  8
Layer_1
 62
1
100
AcDbPolyline
 90
3
 70
0
 10
223.066090
 20
340.479263
 30
0.0
 10
223.066090
 20
348.974152
 30
0.0
 10
221.386870
 20
348.974152
 30
0.0
  0
SPLINE
  5
140
100
AcDbEntity
  8
Layer_1
 62
1
100
AcDbSpline
 70
8
 71
3
 72
8
 73
4
 74
0
 40
0
 40
0
 40
0
 40
0
 40
1
 40
1
 40
1
 40
1
 10
224.180870
 20
337.713486
 30
0.0
 10
223.353017
 20
337.713486
 30
0.0
 10
222.614533
 20
337.831079
 30
0.0
 10
221.965420
 20
338.066264
 30
0.0
  0
SPLINE
  5
141
100
AcDbEntity
  8
Layer_1
 62
1
100
AcDbSpline
 70
8
 71
3
 72
8
 73
4
 74
0
 40
0
 40
0
 40
0
 40
0
 40
1
 40
1
 40
1
 40
1
 10
221.965420
 20
338.066264
 30
0.0
 10
221.306900
 20
338.301449
 30
0.0
 10
220.751863
 20
338.644819
 30
0.0
 10
220.300310
 20
339.096375
 30
0.0
  0
SPLINE
  5
142
100
AcDbEntity
  8
Layer_1
 62
1
100
AcDbSpline
 70
8
 71
3
 72
8
 73
4
 74
0
 40
0
 40
0
 40
0
 40
0
 40
1
 40
1
 40
1
 40
1
 10
220.300310
 20
339.096375
 30
0.0
 10
219.839350
 20
339.557338
 30
0.0
 10
219.491277
 20
340.117078
 30
0.0
 10
219.256090
 20
340.775597
 30
0.0
  0
SPLINE
  5
143
100
AcDbEntity
  8
Layer_1
 62
1
100
AcDbSpline
 70
8
 71
3
 72
8
 73
4
 74
0
 40
0
 40
0
 40
0
 40
0
 40
1
 40
1
 40
1
 40
1
 10
219.256090
 20
340.775597
 30
0.0
 10
219.011497
 20
341.434116
 30
0.0
 10
218.889200
 20
342.186708
 30
0.0
 10
218.889200
 20
343.033374
 30
0.0
  0
LWPOLYLINE
  5
144
100
AcDbEntity
  8
Layer_1
 62
1
100
AcDbPolyline
 90
7
 70
0
 10
229.528980
 20
351.570596
 30
0.0
 10
229.528980
 20
348.974152
 30
0.0
 10
225.408530
 20
348.974152
 30
0.0
 10
225.408530
 20
340.309930
 30
0.0
 10
229.528980
 20
340.309930
 30
0.0
 10
229.528980
 20
337.713486
 30
0.0
 10
224.180870
 20
337.713486
 30
0.0
  0
LWPOLYLINE
  5
145
100
AcDbEntity
  8
Layer_1
 62
1
100
AcDbPolyline
 90
3
 70
0
 10
218.889200
 20
343.033374
 30
0.0
 10
218.889200
 20
351.570596
 30
0.0
 10
229.528980
 20
351.570596
 30
0.0
  0
SPLINE
  5
146
100
AcDbEntity
  8
Layer_1
 62
1
100
AcDbSpline
 70
8
 71
3
 72
8
 73
4
 74
0
 40
0
 40
0
 40
0
 40
0
 40
1
 40
1
 40
1
 40
1
 10
227.003090
 20
361.677459
 30
0.0
 10
227.003090
 20
363.050940
 30
0.0
 10
226.471570
 20
363.916422
 30
0.0
 10
225.408530
 20
364.273904
 30
0.0
  0
LWPOLYLINE
  5
147
100
AcDbEntity
  8
Layer_1
 62
1
100
AcDbPolyline
 90
3
 70
0
 10
218.889200
 20
356.145904
 30
0.0
 10
227.003090
 20
356.145904
 30
0.0
 10
227.003090
 20
361.677459
 30
0.0
  0
SPLINE
  5
148
100
AcDbEntity
  8
Layer_1
 62
1
100
AcDbSpline
 70
8
 71
3
 72
8
 73
4
 74
0
 40
0
 40
0
 40
0
 40
0
 40
1
 40
1
 40
1
 40
1
 10
225.408530
 20
366.969126
 30
0.0
 10
226.772603
 20
366.733941
 30
0.0
 10
227.802717
 20
366.160089
 30
0.0
 10
228.498870
 20
365.247570
 30
0.0
  0
SPLINE
  5
149
100
AcDbEntity
  8
Layer_1
 62
1
100
AcDbSpline
 70
8
 71
3
 72
8
 73
4
 74
0
 40
0
 40
0
 40
0
 40
0
 40
1
 40
1
 40
1
 40
1
 10
228.498870
 20
365.247570
 30
0.0
 10
229.185610
 20
364.335052
 30
0.0
 10
229.528980
 20
363.163830
 30
0.0
 10
229.528980
 20
361.733904
 30
0.0
  0
LWPOLYLINE
  5
14a
100
AcDbEntity
  8
Layer_1
 62
1
100
AcDbPolyline
 90
2
 70
0
 10
225.408530
 20
364.273904
 30
0.0
 10
225.408530
 20
366.969126
 30
0.0
  0
LWPOLYLINE
  5
14b
100
AcDbEntity
  8
Layer_1
 62
1
100
AcDbPolyline
 90
4
 70
0
 10
229.528980
 20
361.733904
 30
0.0
 10
229.528980
 20
353.549459
 30
0.0
 10
218.889200
 20
353.549459
 30
0.0
 10
218.889200
 20
356.145904
 30
0.0
  0
SPLINE
  5
14c
100
AcDbEntity
  8
Layer_1
 62
1
100
AcDbSpline
 70
8
 71
3
 72
8
 73
4
 74
0
 40
0
 40
0
 40
0
 40
0
 40
1
 40
1
 40
1
 40
1
 10
223.122530
 20
377.919568
 30
0.0
 10
223.367123
 20
379.170753
 30
0.0
 10
223.931570
 20
380.144419
 30
0.0
 10
224.815870
 20
380.840567
 30
0.0
  0
SPLINE
  5
14d
100
AcDbEntity
  8
Layer_1
 62
1
100
AcDbSpline
 70
8
 71
3
 72
8
 73
4
 74
0
 40
0
 40
0
 40
0
 40
0
 40
1
 40
1
 40
1
 40
1
 10
224.815870
 20
380.840567
 30
0.0
 10
225.690757
 20
381.536716
 30
0.0
 10
226.852570
 20
381.884790
 30
0.0
 10
228.301310
 20
381.884790
 30
0.0
  0
LWPOLYLINE
  5
14e
100
AcDbEntity
  8
Layer_1
 62
1
100
AcDbPolyline
 90
9
 70
0
 10
229.528980
 20
370.835790
 30
0.0
 10
229.528980
 20
368.239346
 30
0.0
 10
218.889200
 20
368.239346
 30
0.0
 10
218.889200
 20
370.835790
 30
0.0
 10
223.009640
 20
370.835790
 30
0.0
 10
223.009640
 20
374.871568
 30
0.0
 10
218.889200
 20
378.484012
 30
0.0
 10
218.889200
 20
381.729567
 30
0.0
 10
223.122530
 20
377.919568
 30
0.0
  0
SPLINE
  5
14f
100
AcDbEntity
  8
Layer_1
 62
1
100
AcDbSpline
 70
8
 71
3
 72
8
 73
4
 74
0
 40
0
 40
0
 40
0
 40
0
 40
1
 40
1
 40
1
 40
1
 10
228.230750
 20
379.288345
 30
0.0
 10
226.349270
 20
379.288345
 30
0.0
 10
225.408530
 20
378.361715
 30
0.0
 10
225.408530
 20
376.508456
 30
0.0
  0
LWPOLYLINE
  5
150
100
AcDbEntity
  8
Layer_1
 62
1
100
AcDbPolyline
 90
4
 70
0
 10
228.301310
 20
381.884790
 30
0.0
 10
229.528980
 20
381.884790
 30
0.0
 10
229.528980
 20
379.288345
 30
0.0
 10
228.230750
 20
379.288345
 30
0.0
  0
LWPOLYLINE
  5
151
100
AcDbEntity
  8
Layer_1
 62
1
100
AcDbPolyline
 90
3
 70
0
 10
225.408530
 20
376.508456
 30
0.0
 10
225.408530
 20
370.835790
 30
0.0
 10
229.528980
 20
370.835790
 30
0.0
  0
SPLINE
  5
152
100
AcDbEntity
  8
Layer_1
 62
1
100
AcDbSpline
 70
8
 71
3
 72
8
 73
4
 74
0
 40
0
 40
0
 40
0
 40
0
 40
1
 40
1
 40
1
 40
1
 10
227.059530
 20
394.311169
 30
0.0
 10
227.059530
 20
394.885020
 30
0.0
 10
226.791420
 20
395.171946
 30
0.0
 10
226.255200
 20
395.171946
 30
0.0
  0
SPLINE
  5
153
100
AcDbEntity
  8
Layer_1
 62
1
100
AcDbSpline
 70
8
 71
3
 72
8
 73
4
 74
0
 40
0
 40
0
 40
0
 40
0
 40
1
 40
1
 40
1
 40
1
 10
226.255200
 20
395.171946
 30
0.0
 10
225.643720
 20
395.171946
 30
0.0
 10
225.337980
 20
394.885020
 30
0.0
 10
225.337980
 20
394.311169
 30
0.0
  0
LWPOLYLINE
  5
154
100
AcDbEntity
  8
Layer_1
 62
1
100
AcDbPolyline
 90
2
 70
0
 10
227.059530
 20
386.352502
 30
0.0
 10
227.059530
 20
394.311169
 30
0.0
  0
SPLINE
  5
155
100
AcDbEntity
  8
Layer_1
 62
1
100
AcDbSpline
 70
8
 71
3
 72
8
 73
4
 74
0
 40
0
 40
0
 40
0
 40
0
 40
1
 40
1
 40
1
 40
1
 10
223.080200
 20
394.311169
 30
0.0
 10
223.080200
 20
394.885020
 30
0.0
 10
222.774460
 20
395.171946
 30
0.0
 10
222.162980
 20
395.171946
 30
0.0
  0
SPLINE
  5
156
100
AcDbEntity
  8
Layer_1
 62
1
100
AcDbSpline
 70
8
 71
3
 72
8
 73
4
 74
0
 40
0
 40
0
 40
0
 40
0
 40
1
 40
1
 40
1
 40
1
 10
222.162980
 20
395.171946
 30
0.0
 10
221.636160
 20
395.171946
 30
0.0
 10
221.372750
 20
394.885020
 30
0.0
 10
221.372750
 20
394.311169
 30
0.0
  0
LWPOLYLINE
  5
157
100
AcDbEntity
  8
Layer_1
 62
1
100
AcDbPolyline
 90
4
 70
0
 10
225.337980
 20
394.311169
 30
0.0
 10
225.337980
 20
388.172835
 30
0.0
 10
223.080200
 20
388.172835
 30
0.0
 10
223.080200
 20
394.311169
 30
0.0
  0
LWPOLYLINE
  5
158
100
AcDbEntity
  8
Layer_1
 62
1
100
AcDbPolyline
 90
3
 70
0
 10
221.372750
 20
394.311169
 30
0.0
 10
221.372750
 20
386.352502
 30
0.0
 10
227.059530
 20
386.352502
 30
0.0
  0
SPLINE
  5
159
100
AcDbEntity
  8
Layer_1
 62
1
100
AcDbSpline
 70
8
 71
3
 72
8
 73
4
 74
0
 40
0
 40
0
 40
0
 40
0
 40
1
 40
1
 40
1
 40
1
 10
218.889200
 20
395.002613
 30
0.0
 10
218.889200
 20
396.940538
 30
0.0
 10
219.787607
 20
397.909500
 30
0.0
 10
221.584420
 20
397.909500
 30
0.0
  0
SPLINE
  5
15a
100
AcDbEntity
  8
Layer_1
 62
1
100
AcDbSpline
 70
8
 71
3
 72
8
 73
4
 74
0
 40
0
 40
0
 40
0
 40
0
 40
1
 40
1
 40
1
 40
1
 10
221.584420
 20
397.909500
 30
0.0
 10
222.318200
 20
397.909500
 30
0.0
 10
222.896757
 20
397.749573
 30
0.0
 10
223.320090
 20
397.429720
 30
0.0
  0
SPLINE
  5
15b
100
AcDbEntity
  8
Layer_1
 62
1
100
AcDbSpline
 70
8
 71
3
 72
8
 73
4
 74
0
 40
0
 40
0
 40
0
 40
0
 40
1
 40
1
 40
1
 40
1
 10
223.320090
 20
397.429720
 30
0.0
 10
223.734017
 20
397.119278
 30
0.0
 10
223.997423
 20
396.667724
 30
0.0
 10
224.110310
 20
396.075057
 30
0.0
  0
SPLINE
  5
15c
100
AcDbEntity
  8
Layer_1
 62
1
100
AcDbSpline
 70
8
 71
3
 72
8
 73
4
 74
0
 40
0
 40
0
 40
0
 40
0
 40
1
 40
1
 40
1
 40
1
 10
224.110310
 20
396.075057
 30
0.0
 10
224.223197
 20
396.658316
 30
0.0
 10
224.505420
 20
397.109871
 30
0.0
 10
224.956980
 20
397.429720
 30
0.0
  0
SPLINE
  5
15d
100
AcDbEntity
  8
Layer_1
 62
1
100
AcDbSpline
 70
8
 71
3
 72
8
 73
4
 74
0
 40
0
 40
0
 40
0
 40
0
 40
1
 40
1
 40
1
 40
1
 10
224.956980
 20
397.429720
 30
0.0
 10
225.408533
 20
397.749573
 30
0.0
 10
226.034123
 20
397.909500
 30
0.0
 10
226.833750
 20
397.909500
 30
0.0
  0
SPLINE
  5
15e
100
AcDbEntity
  8
Layer_1
 62
1
100
AcDbSpline
 70
8
 71
3
 72
8
 73
4
 74
0
 40
0
 40
0
 40
0
 40
0
 40
1
 40
1
 40
1
 40
1
 10
226.833750
 20
397.909500
 30
0.0
 10
228.630570
 20
397.909500
 30
0.0
 10
229.528980
 20
396.940538
 30
0.0
 10
229.528980
 20
395.002613
 30
0.0
  0
LWPOLYLINE
  5
15f
100
AcDbEntity
  8
Layer_1
 62
1
100
AcDbPolyline
 90
2
 70
0
 10
218.889200
 20
383.756058
 30
0.0
 10
218.889200
 20
395.002613
 30
0.0
  0
LWPOLYLINE
  5
160
100
AcDbEntity
  8
Layer_1
 62
1
100
AcDbPolyline
 90
3
 70
0
 10
229.528980
 20
395.002613
 30
0.0
 10
229.528980
 20
383.756058
 30
0.0
 10
218.889200
 20
383.756058
 30
0.0
  0
SPLINE
  5
161
100
AcDbEntity
  8
Layer_1
 62
1
100
AcDbSpline
 70
8
 71
3
 72
8
 73
4
 74
0
 40
0
 40
0
 40
0
 40
0
 40
1
 40
1
 40
1
 40
1
 10
221.386870
 20
405.087430
 30
0.0
 10
221.386870
 20
404.551203
 30
0.0
 10
221.433907
 20
404.104350
 30
0.0
 10
221.527980
 20
403.746870
 30
0.0
  0
SPLINE
  5
162
100
AcDbEntity
  8
Layer_1
 62
1
100
AcDbSpline
 70
8
 71
3
 72
8
 73
4
 74
0
 40
0
 40
0
 40
0
 40
0
 40
1
 40
1
 40
1
 40
1
 10
221.527980
 20
403.746870
 30
0.0
 10
221.622053
 20
403.389390
 30
0.0
 10
221.781977
 20
403.102463
 30
0.0
 10
222.007750
 20
402.886090
 30
0.0
  0
SPLINE
  5
163
100
AcDbEntity
  8
Layer_1
 62
1
100
AcDbSpline
 70
8
 71
3
 72
8
 73
4
 74
0
 40
0
 40
0
 40
0
 40
0
 40
1
 40
1
 40
1
 40
1
 10
222.007750
 20
402.886090
 30
0.0
 10
222.224123
 20
402.679130
 30
0.0
 10
222.515753
 20
402.528613
 30
0.0
 10
222.882640
 20
402.434540
 30
0.0
  0
SPLINE
  5
164
100
AcDbEntity
  8
Layer_1
 62
1
100
AcDbSpline
 70
8
 71
3
 72
8
 73
4
 74
0
 40
0
 40
0
 40
0
 40
0
 40
1
 40
1
 40
1
 40
1
 10
222.882640
 20
402.434540
 30
0.0
 10
223.240127
 20
402.349873
 30
0.0
 10
223.691683
 20
402.307540
 30
0.0
 10
224.237310
 20
402.307540
 30
0.0
  0
LWPOLYLINE
  5
165
100
AcDbEntity
  8
Layer_1
 62
1
100
AcDbPolyline
 90
2
 70
0
 10
221.386870
 20
411.253980
 30
0.0
 10
221.386870
 20
405.087430
 30
0.0
  0
SPLINE
  5
166
100
AcDbEntity
  8
Layer_1
 62
1
100
AcDbSpline
 70
8
 71
3
 72
8
 73
4
 74
0
 40
0
 40
0
 40
0
 40
0
 40
1
 40
1
 40
1
 40
1
 10
227.003090
 20
408.474090
 30
0.0
 10
227.003090
 20
409.000910
 30
0.0
 10
226.960757
 20
409.438357
 30
0.0
 10
226.876090
 20
409.786430
 30
0.0
  0
SPLINE
  5
167
100
AcDbEntity
  8
Layer_1
 62
1
100
AcDbSpline
 70
8
 71
3
 72
8
 73
4
 74
0
 40
0
 40
0
 40
0
 40
0
 40
1
 40
1
 40
1
 40
1
 10
226.876090
 20
409.786430
 30
0.0
 10
226.791423
 20
410.143910
 30
0.0
 10
226.640903
 20
410.430833
 30
0.0
 10
226.424530
 20
410.647200
 30
0.0
  0
SPLINE
  5
168
100
AcDbEntity
  8
Layer_1
 62
1
100
AcDbSpline
 70
8
 71
3
 72
8
 73
4
 74
0
 40
0
 40
0
 40
0
 40
0
 40
1
 40
1
 40
1
 40
1
 10
226.424530
 20
410.647200
 30
0.0
 10
226.208163
 20
410.863573
 30
0.0
 10
225.921237
 20
411.018797
 30
0.0
 10
225.563750
 20
411.112870
 30
0.0
  0
SPLINE
  5
169
100
AcDbEntity
  8
Layer_1
 62
1
100
AcDbSpline
 70
8
 71
3
 72
8
 73
4
 74
0
 40
0
 40
0
 40
0
 40
0
 40
1
 40
1
 40
1
 40
1
 10
225.563750
 20
411.112870
 30
0.0
 10
225.196863
 20
411.206943
 30
0.0
 10
224.735903
 20
411.253980
 30
0.0
 10
224.180870
 20
411.253980
 30
0.0
  0
LWPOLYLINE
  5
16a
100
AcDbEntity
  8
Layer_1
 62
1
100
AcDbPolyline
 90
3
 70
0
 10
224.237310
 20
402.307540
 30
0.0
 10
227.003090
 20
402.307540
 30
0.0
 10
227.003090
 20
408.474090
 30
0.0
  0
LWPOLYLINE
  5
16b
100
AcDbEntity
  8
Layer_1
 62
1
100
AcDbPolyline
 90
2
 70
0
 10
224.180870
 20
411.253980
 30
0.0
 10
221.386870
 20
411.253980
 30
0.0
  0
SPLINE
  5
16c
100
AcDbEntity
  8
Layer_1
 62
1
100
AcDbSpline
 70
8
 71
3
 72
8
 73
4
 74
0
 40
0
 40
0
 40
0
 40
0
 40
1
 40
1
 40
1
 40
1
 10
224.237310
 20
413.850430
 30
0.0
 10
225.065163
 20
413.850430
 30
0.0
 10
225.808350
 20
413.732837
 30
0.0
 10
226.466870
 20
413.497650
 30
0.0
  0
SPLINE
  5
16d
100
AcDbEntity
  8
Layer_1
 62
1
100
AcDbSpline
 70
8
 71
3
 72
8
 73
4
 74
0
 40
0
 40
0
 40
0
 40
0
 40
1
 40
1
 40
1
 40
1
 10
226.466870
 20
413.497650
 30
0.0
 10
227.115977
 20
413.262463
 30
0.0
 10
227.671013
 20
412.914390
 30
0.0
 10
228.131980
 20
412.453430
 30
0.0
  0
SPLINE
  5
16e
100
AcDbEntity
  8
Layer_1
 62
1
100
AcDbSpline
 70
8
 71
3
 72
8
 73
4
 74
0
 40
0
 40
0
 40
0
 40
0
 40
1
 40
1
 40
1
 40
1
 10
228.131980
 20
412.453430
 30
0.0
 10
228.583533
 20
412.001870
 30
0.0
 10
228.931607
 20
411.446833
 30
0.0
 10
229.176200
 20
410.788320
 30
0.0
  0
SPLINE
  5
16f
100
AcDbEntity
  8
Layer_1
 62
1
100
AcDbSpline
 70
8
 71
3
 72
8
 73
4
 74
0
 40
0
 40
0
 40
0
 40
0
 40
1
 40
1
 40
1
 40
1
 10
229.176200
 20
410.788320
 30
0.0
 10
229.411387
 20
410.129800
 30
0.0
 10
229.528980
 20
409.377207
 30
0.0
 10
229.528980
 20
408.530540
 30
0.0
  0
LWPOLYLINE
  5
170
100
AcDbEntity
  8
Layer_1
 62
1
100
AcDbPolyline
 90
2
 70
0
 10
218.889200
 20
413.850430
 30
0.0
 10
224.237310
 20
413.850430
 30
0.0
  0
SPLINE
  5
171
100
AcDbEntity
  8
Layer_1
 62
1
100
AcDbSpline
 70
8
 71
3
 72
8
 73
4
 74
0
 40
0
 40
0
 40
0
 40
0
 40
1
 40
1
 40
1
 40
1
 10
224.180870
 20
399.711090
 30
0.0
 10
223.371830
 20
399.711090
 30
0.0
 10
222.642753
 20
399.828683
 30
0.0
 10
221.993640
 20
400.063870
 30
0.0
  0
SPLINE
  5
172
100
AcDbEntity
  8
Layer_1
 62
1
100
AcDbSpline
 70
8
 71
3
 72
8
 73
4
 74
0
 40
0
 40
0
 40
0
 40
0
 40
1
 40
1
 40
1
 40
1
 10
221.993640
 20
400.063870
 30
0.0
 10
221.335127
 20
400.308463
 30
0.0
 10
220.780090
 20
400.661240
 30
0.0
 10
220.328530
 20
401.122200
 30
0.0
  0
SPLINE
  5
173
100
AcDbEntity
  8
Layer_1
 62
1
100
AcDbSpline
 70
8
 71
3
 72
8
 73
4
 74
0
 40
0
 40
0
 40
0
 40
0
 40
1
 40
1
 40
1
 40
1
 10
220.328530
 20
401.122200
 30
0.0
 10
219.867570
 20
401.583167
 30
0.0
 10
219.514793
 20
402.138207
 30
0.0
 10
219.270200
 20
402.787320
 30
0.0
  0
SPLINE
  5
174
100
AcDbEntity
  8
Layer_1
 62
1
100
AcDbSpline
 70
8
 71
3
 72
8
 73
4
 74
0
 40
0
 40
0
 40
0
 40
0
 40
1
 40
1
 40
1
 40
1
 10
219.270200
 20
402.787320
 30
0.0
 10
219.016200
 20
403.445833
 30
0.0
 10
218.889200
 20
404.193720
 30
0.0
 10
218.889200
 20
405.030980
 30
0.0
  0
LWPOLYLINE
  5
175
100
AcDbEntity
  8
Layer_1
 62
1
100
AcDbPolyline
 90
3
 70
0
 10
229.528980
 20
408.530540
 30
0.0
 10
229.528980
 20
399.711090
 30
0.0
 10
224.180870
 20
399.711090
 30
0.0
  0
LWPOLYLINE
  5
176
100
AcDbEntity
  8
Layer_1
 62
1
100
AcDbPolyline
 90
2
 70
0
 10
218.889200
 20
405.030980
 30
0.0
 10
218.889200
 20
413.850430
 30
0.0
  0
SPLINE
  5
177
100
AcDbEntity
  8
Layer_1
 62
7
100
AcDbSpline
 70
8
 71
3
 72
8
 73
4
 74
0
 40
0
 40
0
 40
0
 40
0
 40
1
 40
1
 40
1
 40
1
 10
40.254475
 20
483.041000
 30
0.0
 10
40.310975
 20
483.195340
 30
0.0
 10
40.391590
 20
483.309717
 30
0.0
 10
40.496320
 20
483.384130
 30
0.0
  0
SPLINE
  5
178
100
AcDbEntity
  8
Layer_1
 62
7
100
AcDbSpline
 70
8
 71
3
 72
8
 73
4
 74
0
 40
0
 40
0
 40
0
 40
0
 40
1
 40
1
 40
1
 40
1
 10
40.496320
 20
483.384130
 30
0.0
 10
40.601051
 20
483.458543
 30
0.0
 10
40.726453
 20
483.495750
 30
0.0
 10
40.872525
 20
483.495750
 30
0.0
  0
SPLINE
  5
179
100
AcDbEntity
  8
Layer_1
 62
7
100
AcDbSpline
 70
8
 71
3
 72
8
 73
4
 74
0
 40
0
 40
0
 40
0
 40
0
 40
1
 40
1
 40
1
 40
1
 10
40.872525
 20
483.495750
 30
0.0
 10
41.093011
 20
483.495750
 30
0.0
 10
41.278357
 20
483.416513
 30
0.0
 10
41.428563
 20
483.258040
 30
0.0
  0
SPLINE
  5
17a
100
AcDbEntity
  8
Layer_1
 62
7
100
AcDbSpline
 70
8
 71
3
 72
8
 73
4
 74
0
 40
0
 40
0
 40
0
 40
0
 40
1
 40
1
 40
1
 40
1
 10
41.428563
 20
483.258040
 30
0.0
 10
41.578769
 20
483.099567
 30
0.0
 10
41.653872
 20
482.888727
 30
0.0
 10
41.653872
 20
482.625520
 30
0.0
  0
SPLINE
  5
17b
100
AcDbEntity
  8
Layer_1
 62
7
100
AcDbSpline
 70
8
 71
3
 72
8
 73
4
 74
0
 40
0
 40
0
 40
0
 40
0
 40
1
 40
1
 40
1
 40
1
 10
41.653872
 20
482.625520
 30
0.0
 10
41.653872
 20
482.360940
 30
0.0
 10
41.576702
 20
482.148033
 30
0.0
 10
41.422362
 20
481.986800
 30
0.0
  0
SPLINE
  5
17c
100
AcDbEntity
  8
Layer_1
 62
7
100
AcDbSpline
 70
8
 71
3
 72
8
 73
4
 74
0
 40
0
 40
0
 40
0
 40
0
 40
1
 40
1
 40
1
 40
1
 10
41.422362
 20
481.986800
 30
0.0
 10
41.269400
 20
481.825573
 30
0.0
 10
41.082676
 20
481.744960
 30
0.0
 10
40.862189
 20
481.744960
 30
0.0
  0
SPLINE
  5
17d
100
AcDbEntity
  8
Layer_1
 62
7
100
AcDbSpline
 70
8
 71
3
 72
8
 73
4
 74
0
 40
0
 40
0
 40
0
 40
0
 40
1
 40
1
 40
1
 40
1
 10
40.862189
 20
481.744960
 30
0.0
 10
40.721630
 20
481.744960
 30
0.0
 10
40.598984
 20
481.782167
 30
0.0
 10
40.494253
 20
481.856580
 30
0.0
  0
SPLINE
  5
17e
100
AcDbEntity
  8
Layer_1
 62
7
100
AcDbSpline
 70
8
 71
3
 72
8
 73
4
 74
0
 40
0
 40
0
 40
0
 40
0
 40
1
 40
1
 40
1
 40
1
 10
40.494253
 20
481.856580
 30
0.0
 10
40.390900
 20
481.929613
 30
0.0
 10
40.310974
 20
482.041233
 30
0.0
 10
40.254475
 20
482.191440
 30
0.0
  0
SPLINE
  5
17f
100
AcDbEntity
  8
Layer_1
 62
7
100
AcDbSpline
 70
8
 71
3
 72
8
 73
4
 74
0
 40
0
 40
0
 40
0
 40
0
 40
1
 40
1
 40
1
 40
1
 10
40.254475
 20
482.191440
 30
0.0
 10
40.193842
 20
482.005407
 30
0.0
 10
40.096001
 20
481.864157
 30
0.0
 10
39.960952
 20
481.767690
 30
0.0
  0
SPLINE
  5
180
100
AcDbEntity
  8
Layer_1
 62
7
100
AcDbSpline
 70
8
 71
3
 72
8
 73
4
 74
0
 40
0
 40
0
 40
0
 40
0
 40
1
 40
1
 40
1
 40
1
 10
39.960952
 20
481.767690
 30
0.0
 10
39.825905
 20
481.669850
 30
0.0
 10
39.664674
 20
481.620930
 30
0.0
 10
39.477261
 20
481.620930
 30
0.0
  0
SPLINE
  5
181
100
AcDbEntity
  8
Layer_1
 62
7
100
AcDbSpline
 70
8
 71
3
 72
8
 73
4
 74
0
 40
0
 40
0
 40
0
 40
0
 40
1
 40
1
 40
1
 40
1
 10
39.477261
 20
481.620930
 30
0.0
 10
39.218190
 20
481.620930
 30
0.0
 10
39.000460
 20
481.712570
 30
0.0
 10
38.824071
 20
481.895850
 30
0.0
  0
SPLINE
  5
182
100
AcDbEntity
  8
Layer_1
 62
7
100
AcDbSpline
 70
8
 71
3
 72
8
 73
4
 74
0
 40
0
 40
0
 40
0
 40
0
 40
1
 40
1
 40
1
 40
1
 10
38.824071
 20
481.895850
 30
0.0
 10
38.647682
 20
482.079130
 30
0.0
 10
38.559488
 20
482.320287
 30
0.0
 10
38.559488
 20
482.619320
 30
0.0
  0
SPLINE
  5
183
100
AcDbEntity
  8
Layer_1
 62
7
100
AcDbSpline
 70
8
 71
3
 72
8
 73
4
 74
0
 40
0
 40
0
 40
0
 40
0
 40
1
 40
1
 40
1
 40
1
 10
38.559488
 20
482.619320
 30
0.0
 10
38.559488
 20
482.918353
 30
0.0
 10
38.647682
 20
483.159510
 30
0.0
 10
38.824071
 20
483.342790
 30
0.0
  0
SPLINE
  5
184
100
AcDbEntity
  8
Layer_1
 62
7
100
AcDbSpline
 70
8
 71
3
 72
8
 73
4
 74
0
 40
0
 40
0
 40
0
 40
0
 40
1
 40
1
 40
1
 40
1
 10
38.824071
 20
483.342790
 30
0.0
 10
39.001838
 20
483.526070
 30
0.0
 10
39.223013
 20
483.617710
 30
0.0
 10
39.487596
 20
483.617710
 30
0.0
  0
SPLINE
  5
185
100
AcDbEntity
  8
Layer_1
 62
7
100
AcDbSpline
 70
8
 71
3
 72
8
 73
4
 74
0
 40
0
 40
0
 40
0
 40
0
 40
1
 40
1
 40
1
 40
1
 10
39.487596
 20
483.617710
 30
0.0
 10
39.684656
 20
483.617710
 30
0.0
 10
39.849332
 20
483.568100
 30
0.0
 10
39.981623
 20
483.468880
 30
0.0
  0
SPLINE
  5
186
100
AcDbEntity
  8
Layer_1
 62
7
100
AcDbSpline
 70
8
 71
3
 72
8
 73
4
 74
0
 40
0
 40
0
 40
0
 40
0
 40
1
 40
1
 40
1
 40
1
 10
39.981623
 20
483.468880
 30
0.0
 10
40.115293
 20
483.368287
 30
0.0
 10
40.206244
 20
483.225660
 30
0.0
 10
40.254475
 20
483.041000
 30
0.0
  0
LWPOLYLINE
  5
187
100
AcDbEntity
  8
Layer_1
 62
1
100
AcDbPolyline
 90
16
 70
1
 10
229.528980
 20
430.824110
 30
0.0
 10
229.528980
 20
427.183440
 30
0.0
 10
225.606090
 20
422.992440
 30
0.0
 10
229.528980
 20
418.589770
 30
0.0
 10
229.528980
 20
415.019660
 30
0.0
 10
224.942870
 20
420.311330
 30
0.0
 10
224.251420
 20
421.228550
 30
0.0
 10
223.531750
 20
420.269000
 30
0.0
 10
218.889200
 20
414.977330
 30
0.0
 10
218.889200
 20
418.646220
 30
0.0
 10
222.783870
 20
422.865440
 30
0.0
 10
218.889200
 20
427.169330
 30
0.0
 10
218.889200
 20
430.824110
 30
0.0
 10
223.404750
 20
425.603000
 30
0.0
 10
224.138530
 20
424.615220
 30
0.0
 10
224.971090
 20
425.687660
 30
0.0
  0
SPLINE
  5
188
100
AcDbEntity
  8
Layer_1
 62
7
100
AcDbSpline
 70
8
 71
3
 72
8
 73
4
 74
0
 40
0
 40
0
 40
0
 40
0
 40
1
 40
1
 40
1
 40
1
 10
40.884927
 20
483.115400
 30
0.0
 10
40.741611
 20
483.115400
 30
0.0
 10
40.624478
 20
483.069233
 30
0.0
 10
40.533527
 20
482.976900
 30
0.0
  0
SPLINE
  5
189
100
AcDbEntity
  8
Layer_1
 62
7
100
AcDbSpline
 70
8
 71
3
 72
8
 73
4
 74
0
 40
0
 40
0
 40
0
 40
0
 40
1
 40
1
 40
1
 40
1
 10
40.533527
 20
482.976900
 30
0.0
 10
40.442576
 20
482.884573
 30
0.0
 10
40.397101
 20
482.764683
 30
0.0
 10
40.397101
 20
482.617230
 30
0.0
  0
SPLINE
  5
18a
100
AcDbEntity
  8
Layer_1
 62
7
100
AcDbSpline
 70
8
 71
3
 72
8
 73
4
 74
0
 40
0
 40
0
 40
0
 40
0
 40
1
 40
1
 40
1
 40
1
 10
40.397101
 20
482.617230
 30
0.0
 10
40.397101
 20
482.473917
 30
0.0
 10
40.441887
 20
482.356783
 30
0.0
 10
40.531460
 20
482.265830
 30
0.0
  0
SPLINE
  5
18b
100
AcDbEntity
  8
Layer_1
 62
7
100
AcDbSpline
 70
8
 71
3
 72
8
 73
4
 74
0
 40
0
 40
0
 40
0
 40
0
 40
1
 40
1
 40
1
 40
1
 10
40.531460
 20
482.265830
 30
0.0
 10
40.622411
 20
482.173503
 30
0.0
 10
40.733343
 20
482.127340
 30
0.0
 10
40.864256
 20
482.127340
 30
0.0
  0
SPLINE
  5
18c
100
AcDbEntity
  8
Layer_1
 62
7
100
AcDbSpline
 70
8
 71
3
 72
8
 73
4
 74
0
 40
0
 40
0
 40
0
 40
0
 40
1
 40
1
 40
1
 40
1
 10
40.864256
 20
482.127340
 30
0.0
 10
41.000682
 20
482.127340
 30
0.0
 10
41.115059
 20
482.174883
 30
0.0
 10
41.207388
 20
482.269970
 30
0.0
  0
SPLINE
  5
18d
100
AcDbEntity
  8
Layer_1
 62
7
100
AcDbSpline
 70
8
 71
3
 72
8
 73
4
 74
0
 40
0
 40
0
 40
0
 40
0
 40
1
 40
1
 40
1
 40
1
 10
41.207388
 20
482.269970
 30
0.0
 10
41.301095
 20
482.363677
 30
0.0
 10
41.347948
 20
482.480810
 30
0.0
 10
41.347948
 20
482.621370
 30
0.0
  0
SPLINE
  5
18e
100
AcDbEntity
  8
Layer_1
 62
7
100
AcDbSpline
 70
8
 71
3
 72
8
 73
4
 74
0
 40
0
 40
0
 40
0
 40
0
 40
1
 40
1
 40
1
 40
1
 10
41.347948
 20
482.621370
 30
0.0
 10
41.347948
 20
482.763310
 30
0.0
 10
41.302473
 20
482.881133
 30
0.0
 10
41.211522
 20
482.974840
 30
0.0
  0
SPLINE
  5
18f
100
AcDbEntity
  8
Layer_1
 62
7
100
AcDbSpline
 70
8
 71
3
 72
8
 73
4
 74
0
 40
0
 40
0
 40
0
 40
0
 40
1
 40
1
 40
1
 40
1
 10
41.211522
 20
482.974840
 30
0.0
 10
41.120571
 20
483.068547
 30
0.0
 10
41.011706
 20
483.115400
 30
0.0
 10
40.884927
 20
483.115400
 30
0.0
  0
LWPOLYLINE
  5
190
100
AcDbEntity
  8
Layer_1
 62
7
100
AcDbPolyline
 90
1
 70
1
 10
40.254475
 20
483.041000
 30
0.0
  0
SPLINE
  5
191
100
AcDbEntity
  8
Layer_1
 62
7
100
AcDbSpline
 70
8
 71
3
 72
8
 73
4
 74
0
 40
0
 40
0
 40
0
 40
0
 40
1
 40
1
 40
1
 40
1
 10
39.485529
 20
483.235280
 30
0.0
 10
39.379420
 20
483.235280
 30
0.0
 10
39.276757
 20
483.210480
 30
0.0
 10
39.177538
 20
483.160880
 30
0.0
  0
SPLINE
  5
192
100
AcDbEntity
  8
Layer_1
 62
7
100
AcDbSpline
 70
8
 71
3
 72
8
 73
4
 74
0
 40
0
 40
0
 40
0
 40
0
 40
1
 40
1
 40
1
 40
1
 10
39.177538
 20
483.160880
 30
0.0
 10
39.078319
 20
483.109880
 30
0.0
 10
39.001149
 20
483.034777
 30
0.0
 10
38.946027
 20
482.935570
 30
0.0
  0
SPLINE
  5
193
100
AcDbEntity
  8
Layer_1
 62
7
100
AcDbSpline
 70
8
 71
3
 72
8
 73
4
 74
0
 40
0
 40
0
 40
0
 40
0
 40
1
 40
1
 40
1
 40
1
 10
38.946027
 20
482.935570
 30
0.0
 10
38.892280
 20
482.836350
 30
0.0
 10
38.865407
 20
482.729553
 30
0.0
 10
38.865407
 20
482.615180
 30
0.0
  0
SPLINE
  5
194
100
AcDbEntity
  8
Layer_1
 62
7
100
AcDbSpline
 70
8
 71
3
 72
8
 73
4
 74
0
 40
0
 40
0
 40
0
 40
0
 40
1
 40
1
 40
1
 40
1
 10
38.865407
 20
482.615180
 30
0.0
 10
38.865407
 20
482.437413
 30
0.0
 10
38.922596
 20
482.290650
 30
0.0
 10
39.036973
 20
482.174890
 30
0.0
  0
SPLINE
  5
195
100
AcDbEntity
  8
Layer_1
 62
7
100
AcDbSpline
 70
8
 71
3
 72
8
 73
4
 74
0
 40
0
 40
0
 40
0
 40
0
 40
1
 40
1
 40
1
 40
1
 10
39.036973
 20
482.174890
 30
0.0
 10
39.151350
 20
482.059137
 30
0.0
 10
39.296733
 20
482.001260
 30
0.0
 10
39.473122
 20
482.001260
 30
0.0
  0
SPLINE
  5
196
100
AcDbEntity
  8
Layer_1
 62
7
100
AcDbSpline
 70
8
 71
3
 72
8
 73
4
 74
0
 40
0
 40
0
 40
0
 40
0
 40
1
 40
1
 40
1
 40
1
 10
39.473122
 20
482.001260
 30
0.0
 10
39.652267
 20
482.001260
 30
0.0
 10
39.800406
 20
482.061207
 30
0.0
 10
39.917539
 20
482.181100
 30
0.0
  0
SPLINE
  5
197
100
AcDbEntity
  8
Layer_1
 62
7
100
AcDbSpline
 70
8
 71
3
 72
8
 73
4
 74
0
 40
0
 40
0
 40
0
 40
0
 40
1
 40
1
 40
1
 40
1
 10
39.917539
 20
482.181100
 30
0.0
 10
40.034672
 20
482.299607
 30
0.0
 10
40.093239
 20
482.448433
 30
0.0
 10
40.093239
 20
482.627580
 30
0.0
  0
SPLINE
  5
198
100
AcDbEntity
  8
Layer_1
 62
7
100
AcDbSpline
 70
8
 71
3
 72
8
 73
4
 74
0
 40
0
 40
0
 40
0
 40
0
 40
1
 40
1
 40
1
 40
1
 10
40.093239
 20
482.627580
 30
0.0
 10
40.093239
 20
482.802593
 30
0.0
 10
40.035361
 20
482.947977
 30
0.0
 10
39.919606
 20
483.063730
 30
0.0
  0
SPLINE
  5
199
100
AcDbEntity
  8
Layer_1
 62
7
100
AcDbSpline
 70
8
 71
3
 72
8
 73
4
 74
0
 40
0
 40
0
 40
0
 40
0
 40
1
 40
1
 40
1
 40
1
 10
39.919606
 20
483.063730
 30
0.0
 10
39.803851
 20
483.178103
 30
0.0
 10
39.659157
 20
483.235290
 30
0.0
 10
39.485524
 20
483.235290
 30
0.0
  0
LWPOLYLINE
  5
19a
100
AcDbEntity
  8
Layer_1
 62
7
100
AcDbPolyline
 90
1
 70
1
 10
40.884927
 20
483.115400
 30
0.0
  0
LWPOLYLINE
  5
19b
100
AcDbEntity
  8
Layer_1
 62
7
100
AcDbPolyline
 90
1
 70
1
 10
39.485524
 20
483.235290
 30
0.0
  0
LWPOLYLINE
  5
19c
100
AcDbEntity
  8
Layer_1
 62
7
100
AcDbPolyline
 90
4
 70
1
 10
39.520669
 20
480.124380
 30
0.0
 10
39.894807
 20
480.124380
 30
0.0
 10
39.894807
 20
478.981300
 30
0.0
 10
39.520669
 20
478.981300
 30
0.0
  0
SPLINE
  5
19d
100
AcDbEntity
  8
Layer_1
 62
7
100
AcDbSpline
 70
8
 71
3
 72
8
 73
4
 74
0
 40
0
 40
0
 40
0
 40
0
 40
1
 40
1
 40
1
 40
1
 10
38.611164
 20
477.542630
 30
0.0
 10
38.700737
 20
477.545297
 30
0.0
 10
38.786864
 20
477.530830
 30
0.0
 10
38.869546
 20
477.499230
 30
0.0
  0
SPLINE
  5
19e
100
AcDbEntity
  8
Layer_1
 62
7
100
AcDbSpline
 70
8
 71
3
 72
8
 73
4
 74
0
 40
0
 40
0
 40
0
 40
0
 40
1
 40
1
 40
1
 40
1
 10
38.869546
 20
477.499230
 30
0.0
 10
39.005972
 20
477.448230
 30
0.0
 10
39.140331
 20
477.366927
 30
0.0
 10
39.272622
 20
477.255320
 30
0.0
  0
SPLINE
  5
19f
100
AcDbEntity
  8
Layer_1
 62
7
100
AcDbSpline
 70
8
 71
3
 72
8
 73
4
 74
0
 40
0
 40
0
 40
0
 40
0
 40
1
 40
1
 40
1
 40
1
 10
39.272622
 20
477.255320
 30
0.0
 10
39.404914
 20
477.142320
 30
0.0
 10
39.557876
 20
476.979710
 30
0.0
 10
39.731509
 20
476.767490
 30
0.0
  0
SPLINE
  5
1a0
100
AcDbEntity
  8
Layer_1
 62
7
100
AcDbSpline
 70
8
 71
3
 72
8
 73
4
 74
0
 40
0
 40
0
 40
0
 40
0
 40
1
 40
1
 40
1
 40
1
 10
39.731509
 20
476.767490
 30
0.0
 10
40.001604
 20
476.438143
 30
0.0
 10
40.215200
 20
476.215590
 30
0.0
 10
40.372297
 20
476.099830
 30
0.0
  0
SPLINE
  5
1a1
100
AcDbEntity
  8
Layer_1
 62
7
100
AcDbSpline
 70
8
 71
3
 72
8
 73
4
 74
0
 40
0
 40
0
 40
0
 40
0
 40
1
 40
1
 40
1
 40
1
 10
40.372297
 20
476.099830
 30
0.0
 10
40.530771
 20
475.984077
 30
0.0
 10
40.680288
 20
475.926200
 30
0.0
 10
40.820848
 20
475.926200
 30
0.0
  0
SPLINE
  5
1a2
100
AcDbEntity
  8
Layer_1
 62
7
100
AcDbSpline
 70
8
 71
3
 72
8
 73
4
 74
0
 40
0
 40
0
 40
0
 40
0
 40
1
 40
1
 40
1
 40
1
 10
40.820848
 20
475.926200
 30
0.0
 10
40.968298
 20
475.926200
 30
0.0
 10
41.092322
 20
475.979253
 30
0.0
 10
41.192919
 20
476.085360
 30
0.0
  0
SPLINE
  5
1a3
100
AcDbEntity
  8
Layer_1
 62
7
100
AcDbSpline
 70
8
 71
3
 72
8
 73
4
 74
0
 40
0
 40
0
 40
0
 40
0
 40
1
 40
1
 40
1
 40
1
 10
41.192919
 20
476.085360
 30
0.0
 10
41.294894
 20
476.190093
 30
0.0
 10
41.345881
 20
476.327210
 30
0.0
 10
41.345881
 20
476.496710
 30
0.0
  0
SPLINE
  5
1a4
100
AcDbEntity
  8
Layer_1
 62
7
100
AcDbSpline
 70
8
 71
3
 72
8
 73
4
 74
0
 40
0
 40
0
 40
0
 40
0
 40
1
 40
1
 40
1
 40
1
 10
41.345881
 20
476.496710
 30
0.0
 10
41.345881
 20
476.675857
 30
0.0
 10
41.292137
 20
476.819173
 30
0.0
 10
41.184650
 20
476.926660
 30
0.0
  0
SPLINE
  5
1a5
100
AcDbEntity
  8
Layer_1
 62
7
100
AcDbSpline
 70
8
 71
3
 72
8
 73
4
 74
0
 40
0
 40
0
 40
0
 40
0
 40
1
 40
1
 40
1
 40
1
 10
41.184650
 20
476.926660
 30
0.0
 10
41.077163
 20
477.034147
 30
0.0
 10
40.928335
 20
477.088577
 30
0.0
 10
40.738166
 20
477.089950
 30
0.0
  0
LWPOLYLINE
  5
1a6
100
AcDbEntity
  8
Layer_1
 62
7
100
AcDbPolyline
 90
3
 70
0
 10
38.968765
 20
475.539650
 30
0.0
 10
38.611164
 20
475.539650
 30
0.0
 10
38.611164
 20
477.542630
 30
0.0
  0
SPLINE
  5
1a7
100
AcDbEntity
  8
Layer_1
 62
7
100
AcDbSpline
 70
8
 71
3
 72
8
 73
4
 74
0
 40
0
 40
0
 40
0
 40
0
 40
1
 40
1
 40
1
 40
1
 10
40.777436
 20
477.472360
 30
0.0
 10
41.062690
 20
477.446160
 30
0.0
 10
41.279731
 20
477.347630
 30
0.0
 10
41.428559
 20
477.176770
 30
0.0
  0
SPLINE
  5
1a8
100
AcDbEntity
  8
Layer_1
 62
7
100
AcDbSpline
 70
8
 71
3
 72
8
 73
4
 74
0
 40
0
 40
0
 40
0
 40
0
 40
1
 40
1
 40
1
 40
1
 10
41.428559
 20
477.176770
 30
0.0
 10
41.578765
 20
477.005897
 30
0.0
 10
41.653868
 20
476.776453
 30
0.0
 10
41.653868
 20
476.488440
 30
0.0
  0
SPLINE
  5
1a9
100
AcDbEntity
  8
Layer_1
 62
7
100
AcDbSpline
 70
8
 71
3
 72
8
 73
4
 74
0
 40
0
 40
0
 40
0
 40
0
 40
1
 40
1
 40
1
 40
1
 10
41.653868
 20
476.488440
 30
0.0
 10
41.653868
 20
476.197673
 30
0.0
 10
41.573253
 20
475.967540
 30
0.0
 10
41.412023
 20
475.798040
 30
0.0
  0
SPLINE
  5
1aa
100
AcDbEntity
  8
Layer_1
 62
7
100
AcDbSpline
 70
8
 71
3
 72
8
 73
4
 74
0
 40
0
 40
0
 40
0
 40
0
 40
1
 40
1
 40
1
 40
1
 10
41.412023
 20
475.798040
 30
0.0
 10
41.250792
 20
475.628547
 30
0.0
 10
41.050977
 20
475.543800
 30
0.0
 10
40.812576
 20
475.543800
 30
0.0
  0
SPLINE
  5
1ab
100
AcDbEntity
  8
Layer_1
 62
7
100
AcDbSpline
 70
8
 71
3
 72
8
 73
4
 74
0
 40
0
 40
0
 40
0
 40
0
 40
1
 40
1
 40
1
 40
1
 10
40.812576
 20
475.543800
 30
0.0
 10
40.691309
 20
475.543800
 30
0.0
 10
40.572108
 20
475.568600
 30
0.0
 10
40.454975
 20
475.618200
 30
0.0
  0
SPLINE
  5
1ac
100
AcDbEntity
  8
Layer_1
 62
7
100
AcDbSpline
 70
8
 71
3
 72
8
 73
4
 74
0
 40
0
 40
0
 40
0
 40
0
 40
1
 40
1
 40
1
 40
1
 10
40.454975
 20
475.618200
 30
0.0
 10
40.337842
 20
475.667800
 30
0.0
 10
40.214507
 20
475.750483
 30
0.0
 10
40.084972
 20
475.866250
 30
0.0
  0
SPLINE
  5
1ad
100
AcDbEntity
  8
Layer_1
 62
7
100
AcDbSpline
 70
8
 71
3
 72
8
 73
4
 74
0
 40
0
 40
0
 40
0
 40
0
 40
1
 40
1
 40
1
 40
1
 10
40.084972
 20
475.866250
 30
0.0
 10
39.955436
 20
475.980623
 30
0.0
 10
39.777669
 20
476.171480
 30
0.0
 10
39.551671
 20
476.438820
 30
0.0
  0
SPLINE
  5
1ae
100
AcDbEntity
  8
Layer_1
 62
7
100
AcDbSpline
 70
8
 71
3
 72
8
 73
4
 74
0
 40
0
 40
0
 40
0
 40
0
 40
1
 40
1
 40
1
 40
1
 10
39.551671
 20
476.438820
 30
0.0
 10
39.364258
 20
476.662060
 30
0.0
 10
39.236789
 20
476.805377
 30
0.0
 10
39.169266
 20
476.868770
 30
0.0
  0
SPLINE
  5
1af
100
AcDbEntity
  8
Layer_1
 62
7
100
AcDbSpline
 70
8
 71
3
 72
8
 73
4
 74
0
 40
0
 40
0
 40
0
 40
0
 40
1
 40
1
 40
1
 40
1
 10
39.169266
 20
476.868770
 30
0.0
 10
39.103119
 20
476.932170
 30
0.0
 10
39.036284
 20
476.984537
 30
0.0
 10
38.968761
 20
477.025870
 30
0.0
  0
LWPOLYLINE
  5
1b0
100
AcDbEntity
  8
Layer_1
 62
7
100
AcDbPolyline
 90
2
 70
0
 10
40.738166
 20
477.089950
 30
0.0
 10
40.777436
 20
477.472360
 30
0.0
  0
SPLINE
  5
1b1
100
AcDbEntity
  8
Layer_1
 62
7
100
AcDbSpline
 70
8
 71
3
 72
8
 73
4
 74
0
 40
0
 40
0
 40
0
 40
0
 40
1
 40
1
 40
1
 40
1
 10
40.105646
 20
475.138640
 30
0.0
 10
40.463936
 20
475.138640
 30
0.0
 10
40.751946
 20
475.102123
 30
0.0
 10
40.969676
 20
475.029090
 30
0.0
  0
SPLINE
  5
1b2
100
AcDbEntity
  8
Layer_1
 62
7
100
AcDbSpline
 70
8
 71
3
 72
8
 73
4
 74
0
 40
0
 40
0
 40
0
 40
0
 40
1
 40
1
 40
1
 40
1
 10
40.969676
 20
475.029090
 30
0.0
 10
41.188784
 20
474.954677
 30
0.0
 10
41.357594
 20
474.845123
 30
0.0
 10
41.476105
 20
474.700430
 30
0.0
  0
SPLINE
  5
1b3
100
AcDbEntity
  8
Layer_1
 62
7
100
AcDbSpline
 70
8
 71
3
 72
8
 73
4
 74
0
 40
0
 40
0
 40
0
 40
0
 40
1
 40
1
 40
1
 40
1
 10
41.476105
 20
474.700430
 30
0.0
 10
41.594616
 20
474.554357
 30
0.0
 10
41.653872
 20
474.371077
 30
0.0
 10
41.653872
 20
474.150590
 30
0.0
  0
SPLINE
  5
1b4
100
AcDbEntity
  8
Layer_1
 62
7
100
AcDbSpline
 70
8
 71
3
 72
8
 73
4
 74
0
 40
0
 40
0
 40
0
 40
0
 40
1
 40
1
 40
1
 40
1
 10
41.653872
 20
474.150590
 30
0.0
 10
41.653872
 20
473.987983
 30
0.0
 10
41.620799
 20
473.845357
 30
0.0
 10
41.554652
 20
473.722710
 30
0.0
  0
SPLINE
  5
1b5
100
AcDbEntity
  8
Layer_1
 62
7
100
AcDbSpline
 70
8
 71
3
 72
8
 73
4
 74
0
 40
0
 40
0
 40
0
 40
0
 40
1
 40
1
 40
1
 40
1
 10
41.554652
 20
473.722710
 30
0.0
 10
41.489885
 20
473.600063
 30
0.0
 10
41.395490
 20
473.498777
 30
0.0
 10
41.271465
 20
473.418850
 30
0.0
  0
SPLINE
  5
1b6
100
AcDbEntity
  8
Layer_1
 62
7
100
AcDbSpline
 70
8
 71
3
 72
8
 73
4
 74
0
 40
0
 40
0
 40
0
 40
0
 40
1
 40
1
 40
1
 40
1
 10
41.271465
 20
473.418850
 30
0.0
 10
41.148820
 20
473.338923
 30
0.0
 10
40.998613
 20
473.276223
 30
0.0
 10
40.820846
 20
473.230750
 30
0.0
  0
SPLINE
  5
1b7
100
AcDbEntity
  8
Layer_1
 62
7
100
AcDbSpline
 70
8
 71
3
 72
8
 73
4
 74
0
 40
0
 40
0
 40
0
 40
0
 40
1
 40
1
 40
1
 40
1
 10
40.820846
 20
473.230750
 30
0.0
 10
40.644457
 20
473.185283
 30
0.0
 10
40.406057
 20
473.162550
 30
0.0
 10
40.105644
 20
473.162550
 30
0.0
  0
SPLINE
  5
1b8
100
AcDbEntity
  8
Layer_1
 62
7
100
AcDbSpline
 70
8
 71
3
 72
8
 73
4
 74
0
 40
0
 40
0
 40
0
 40
0
 40
1
 40
1
 40
1
 40
1
 10
40.105644
 20
473.162550
 30
0.0
 10
39.750111
 20
473.162550
 30
0.0
 10
39.462790
 20
473.199067
 30
0.0
 10
39.243682
 20
473.272100
 30
0.0
  0
SPLINE
  5
1b9
100
AcDbEntity
  8
Layer_1
 62
7
100
AcDbSpline
 70
8
 71
3
 72
8
 73
4
 74
0
 40
0
 40
0
 40
0
 40
0
 40
1
 40
1
 40
1
 40
1
 10
39.243682
 20
473.272100
 30
0.0
 10
39.025952
 20
473.345133
 30
0.0
 10
38.857142
 20
473.454687
 30
0.0
 10
38.737253
 20
473.600760
 30
0.0
  0
SPLINE
  5
1ba
100
AcDbEntity
  8
Layer_1
 62
7
100
AcDbSpline
 70
8
 71
3
 72
8
 73
4
 74
0
 40
0
 40
0
 40
0
 40
0
 40
1
 40
1
 40
1
 40
1
 10
38.737253
 20
473.600760
 30
0.0
 10
38.618742
 20
473.745453
 30
0.0
 10
38.559486
 20
473.928733
 30
0.0
 10
38.559486
 20
474.150600
 30
0.0
  0
SPLINE
  5
1bb
100
AcDbEntity
  8
Layer_1
 62
7
100
AcDbSpline
 70
8
 71
3
 72
8
 73
4
 74
0
 40
0
 40
0
 40
0
 40
0
 40
1
 40
1
 40
1
 40
1
 10
38.559486
 20
474.150600
 30
0.0
 10
38.559486
 20
474.442740
 30
0.0
 10
38.664217
 20
474.672183
 30
0.0
 10
38.873678
 20
474.838930
 30
0.0
  0
SPLINE
  5
1bc
100
AcDbEntity
  8
Layer_1
 62
7
100
AcDbSpline
 70
8
 71
3
 72
8
 73
4
 74
0
 40
0
 40
0
 40
0
 40
0
 40
1
 40
1
 40
1
 40
1
 10
38.873678
 20
474.838930
 30
0.0
 10
39.125859
 20
475.038743
 30
0.0
 10
39.536515
 20
475.138650
 30
0.0
 10
40.105644
 20
475.138650
 30
0.0
  0
LWPOLYLINE
  5
1bd
100
AcDbEntity
  8
Layer_1
 62
7
100
AcDbPolyline
 90
2
 70
0
 10
38.968761
 20
477.025870
 30
0.0
 10
38.968765
 20
475.539650
 30
0.0
  0
SPLINE
  5
1be
100
AcDbEntity
  8
Layer_1
 62
7
100
AcDbSpline
 70
8
 71
3
 72
8
 73
4
 74
0
 40
0
 40
0
 40
0
 40
0
 40
1
 40
1
 40
1
 40
1
 10
40.105646
 20
474.756240
 30
0.0
 10
39.608175
 20
474.756240
 30
0.0
 10
39.276757
 20
474.698360
 30
0.0
 10
39.111392
 20
474.582600
 30
0.0
  0
SPLINE
  5
1bf
100
AcDbEntity
  8
Layer_1
 62
7
100
AcDbSpline
 70
8
 71
3
 72
8
 73
4
 74
0
 40
0
 40
0
 40
0
 40
0
 40
1
 40
1
 40
1
 40
1
 10
39.111392
 20
474.582600
 30
0.0
 10
38.947405
 20
474.465467
 30
0.0
 10
38.865412
 20
474.321463
 30
0.0
 10
38.865412
 20
474.150590
 30
0.0
  0
SPLINE
  5
1c0
100
AcDbEntity
  8
Layer_1
 62
7
100
AcDbSpline
 70
8
 71
3
 72
8
 73
4
 74
0
 40
0
 40
0
 40
0
 40
0
 40
1
 40
1
 40
1
 40
1
 10
38.865412
 20
474.150590
 30
0.0
 10
38.865412
 20
473.979710
 30
0.0
 10
38.948094
 20
473.836393
 30
0.0
 10
39.113459
 20
473.720640
 30
0.0
  0
SPLINE
  5
1c1
100
AcDbEntity
  8
Layer_1
 62
7
100
AcDbSpline
 70
8
 71
3
 72
8
 73
4
 74
0
 40
0
 40
0
 40
0
 40
0
 40
1
 40
1
 40
1
 40
1
 10
39.113459
 20
473.720640
 30
0.0
 10
39.278824
 20
473.603507
 30
0.0
 10
39.609553
 20
473.544940
 30
0.0
 10
40.105646
 20
473.544940
 30
0.0
  0
SPLINE
  5
1c2
100
AcDbEntity
  8
Layer_1
 62
7
100
AcDbSpline
 70
8
 71
3
 72
8
 73
4
 74
0
 40
0
 40
0
 40
0
 40
0
 40
1
 40
1
 40
1
 40
1
 10
40.105646
 20
473.544940
 30
0.0
 10
40.604496
 20
473.544940
 30
0.0
 10
40.935914
 20
473.603507
 30
0.0
 10
41.099901
 20
473.720640
 30
0.0
  0
SPLINE
  5
1c3
100
AcDbEntity
  8
Layer_1
 62
7
100
AcDbSpline
 70
8
 71
3
 72
8
 73
4
 74
0
 40
0
 40
0
 40
0
 40
0
 40
1
 40
1
 40
1
 40
1
 10
41.099901
 20
473.720640
 30
0.0
 10
41.263888
 20
473.836393
 30
0.0
 10
41.345881
 20
473.981087
 30
0.0
 10
41.345881
 20
474.154720
 30
0.0
  0
SPLINE
  5
1c4
100
AcDbEntity
  8
Layer_1
 62
7
100
AcDbSpline
 70
8
 71
3
 72
8
 73
4
 74
0
 40
0
 40
0
 40
0
 40
0
 40
1
 40
1
 40
1
 40
1
 10
41.345881
 20
474.154720
 30
0.0
 10
41.345881
 20
474.325600
 30
0.0
 10
41.273534
 20
474.462027
 30
0.0
 10
41.128840
 20
474.564000
 30
0.0
  0
SPLINE
  5
1c5
100
AcDbEntity
  8
Layer_1
 62
7
100
AcDbSpline
 70
8
 71
3
 72
8
 73
4
 74
0
 40
0
 40
0
 40
0
 40
0
 40
1
 40
1
 40
1
 40
1
 10
41.128840
 20
474.564000
 30
0.0
 10
40.944183
 20
474.692160
 30
0.0
 10
40.603118
 20
474.756240
 30
0.0
 10
40.105646
 20
474.756240
 30
0.0
  0
LWPOLYLINE
  5
1c6
100
AcDbEntity
  8
Layer_1
 62
7
100
AcDbPolyline
 90
1
 70
1
 10
40.105644
 20
475.138650
 30
0.0
  0
LWPOLYLINE
  5
1c7
100
AcDbEntity
  8
Layer_1
 62
7
100
AcDbPolyline
 90
1
 70
1
 10
40.105646
 20
474.756240
 30
0.0
  0
SPLINE
  5
1c8
100
AcDbEntity
  8
Layer_1
 62
7
100
AcDbSpline
 70
8
 71
3
 72
8
 73
4
 74
0
 40
0
 40
0
 40
0
 40
0
 40
1
 40
1
 40
1
 40
1
 10
39.440054
 20
470.543570
 30
0.0
 10
39.263665
 20
470.480170
 30
0.0
 10
39.098301
 20
470.427117
 30
0.0
 10
38.943960
 20
470.384410
 30
0.0
  0
SPLINE
  5
1c9
100
AcDbEntity
  8
Layer_1
 62
7
100
AcDbSpline
 70
8
 71
3
 72
8
 73
4
 74
0
 40
0
 40
0
 40
0
 40
0
 40
1
 40
1
 40
1
 40
1
 10
38.943960
 20
470.384410
 30
0.0
 10
39.109325
 20
470.337543
 30
0.0
 10
39.274689
 20
470.283110
 30
0.0
 10
39.440054
 20
470.221110
 30
0.0
  0
LWPOLYLINE
  5
1ca
100
AcDbEntity
  8
Layer_1
 62
7
100
AcDbPolyline
 90
4
 70
0
 10
38.611164
 20
470.591120
 30
0.0
 10
41.641470
 20
471.765210
 30
0.0
 10
41.641470
 20
471.331120
 30
0.0
 10
39.440054
 20
470.543570
 30
0.0
  0
LWPOLYLINE
  5
1cb
100
AcDbEntity
  8
Layer_1
 62
7
100
AcDbPolyline
 90
5
 70
0
 10
39.440054
 20
470.221110
 30
0.0
 10
41.641470
 20
469.402560
 30
0.0
 10
41.641470
 20
468.993280
 30
0.0
 10
38.611164
 20
470.179770
 30
0.0
 10
38.611164
 20
470.591120
 30
0.0
  0
SPLINE
  5
1cc
100
AcDbEntity
  8
Layer_1
 62
7
100
AcDbSpline
 70
8
 71
3
 72
8
 73
4
 74
0
 40
0
 40
0
 40
0
 40
0
 40
1
 40
1
 40
1
 40
1
 10
41.641470
 20
467.585610
 30
0.0
 10
41.641470
 20
467.349970
 30
0.0
 10
41.627000
 20
467.170137
 30
0.0
 10
41.598060
 20
467.046110
 30
0.0
  0
SPLINE
  5
1cd
100
AcDbEntity
  8
Layer_1
 62
7
100
AcDbSpline
 70
8
 71
3
 72
8
 73
4
 74
0
 40
0
 40
0
 40
0
 40
0
 40
1
 40
1
 40
1
 40
1
 10
41.598060
 20
467.046110
 30
0.0
 10
41.558100
 20
466.872477
 30
0.0
 10
41.485753
 20
466.724340
 30
0.0
 10
41.381019
 20
466.601700
 30
0.0
  0
SPLINE
  5
1ce
100
AcDbEntity
  8
Layer_1
 62
7
100
AcDbSpline
 70
8
 71
3
 72
8
 73
4
 74
0
 40
0
 40
0
 40
0
 40
0
 40
1
 40
1
 40
1
 40
1
 10
41.381019
 20
466.601700
 30
0.0
 10
41.245971
 20
466.441847
 30
0.0
 10
41.073027
 20
466.322643
 30
0.0
 10
40.862187
 20
466.244090
 30
0.0
  0
SPLINE
  5
1cf
100
AcDbEntity
  8
Layer_1
 62
7
100
AcDbSpline
 70
8
 71
3
 72
8
 73
4
 74
0
 40
0
 40
0
 40
0
 40
0
 40
1
 40
1
 40
1
 40
1
 10
40.862187
 20
466.244090
 30
0.0
 10
40.652726
 20
466.164170
 30
0.0
 10
40.412947
 20
466.124210
 30
0.0
 10
40.142851
 20
466.124210
 30
0.0
  0
SPLINE
  5
1d0
100
AcDbEntity
  8
Layer_1
 62
7
100
AcDbSpline
 70
8
 71
3
 72
8
 73
4
 74
0
 40
0
 40
0
 40
0
 40
0
 40
1
 40
1
 40
1
 40
1
 10
40.142851
 20
466.124210
 30
0.0
 10
39.912719
 20
466.124210
 30
0.0
 10
39.708770
 20
466.151077
 30
0.0
 10
39.531003
 20
466.204810
 30
0.0
  0
SPLINE
  5
1d1
100
AcDbEntity
  8
Layer_1
 62
7
100
AcDbSpline
 70
8
 71
3
 72
8
 73
4
 74
0
 40
0
 40
0
 40
0
 40
0
 40
1
 40
1
 40
1
 40
1
 10
39.531003
 20
466.204810
 30
0.0
 10
39.353236
 20
466.258543
 30
0.0
 10
39.205785
 20
466.327447
 30
0.0
 10
39.088652
 20
466.411520
 30
0.0
  0
SPLINE
  5
1d2
100
AcDbEntity
  8
Layer_1
 62
7
100
AcDbSpline
 70
8
 71
3
 72
8
 73
4
 74
0
 40
0
 40
0
 40
0
 40
0
 40
1
 40
1
 40
1
 40
1
 10
39.088652
 20
466.411520
 30
0.0
 10
38.972897
 20
466.495580
 30
0.0
 10
38.881257
 20
466.587907
 30
0.0
 10
38.813734
 20
466.688500
 30
0.0
  0
SPLINE
  5
1d3
100
AcDbEntity
  8
Layer_1
 62
7
100
AcDbSpline
 70
8
 71
3
 72
8
 73
4
 74
0
 40
0
 40
0
 40
0
 40
0
 40
1
 40
1
 40
1
 40
1
 10
38.813734
 20
466.688500
 30
0.0
 10
38.747587
 20
466.787720
 30
0.0
 10
38.697289
 20
466.908300
 30
0.0
 10
38.662839
 20
467.050240
 30
0.0
  0
SPLINE
  5
1d4
100
AcDbEntity
  8
Layer_1
 62
7
100
AcDbSpline
 70
8
 71
3
 72
8
 73
4
 74
0
 40
0
 40
0
 40
0
 40
0
 40
1
 40
1
 40
1
 40
1
 10
38.662839
 20
467.050240
 30
0.0
 10
38.628386
 20
467.190800
 30
0.0
 10
38.611159
 20
467.352720
 30
0.0
 10
38.611159
 20
467.536000
 30
0.0
  0
LWPOLYLINE
  5
1d5
100
AcDbEntity
  8
Layer_1
 62
7
100
AcDbPolyline
 90
3
 70
0
 10
38.611164
 20
468.629480
 30
0.0
 10
41.641470
 20
468.629480
 30
0.0
 10
41.641470
 20
467.585610
 30
0.0
  0
LWPOLYLINE
  5
1d6
100
AcDbEntity
  8
Layer_1
 62
7
100
AcDbPolyline
 90
2
 70
0
 10
38.611159
 20
467.536000
 30
0.0
 10
38.611164
 20
468.629480
 30
0.0
  0
SPLINE
  5
1d7
100
AcDbEntity
  8
Layer_1
 62
7
100
AcDbSpline
 70
8
 71
3
 72
8
 73
4
 74
0
 40
0
 40
0
 40
0
 40
0
 40
1
 40
1
 40
1
 40
1
 10
38.968765
 20
467.581480
 30
0.0
 10
38.968765
 20
467.381667
 30
0.0
 10
38.987368
 20
467.225260
 30
0.0
 10
39.024575
 20
467.112260
 30
0.0
  0
SPLINE
  5
1d8
100
AcDbEntity
  8
Layer_1
 62
7
100
AcDbSpline
 70
8
 71
3
 72
8
 73
4
 74
0
 40
0
 40
0
 40
0
 40
0
 40
1
 40
1
 40
1
 40
1
 10
39.024575
 20
467.112260
 30
0.0
 10
39.061782
 20
466.997880
 30
0.0
 10
39.114147
 20
466.906930
 30
0.0
 10
39.181671
 20
466.839410
 30
0.0
  0
SPLINE
  5
1d9
100
AcDbEntity
  8
Layer_1
 62
7
100
AcDbSpline
 70
8
 71
3
 72
8
 73
4
 74
0
 40
0
 40
0
 40
0
 40
0
 40
1
 40
1
 40
1
 40
1
 10
39.181671
 20
466.839410
 30
0.0
 10
39.276756
 20
466.744323
 30
0.0
 10
39.404224
 20
466.670597
 30
0.0
 10
39.564076
 20
466.618230
 30
0.0
  0
SPLINE
  5
1da
100
AcDbEntity
  8
Layer_1
 62
7
100
AcDbSpline
 70
8
 71
3
 72
8
 73
4
 74
0
 40
0
 40
0
 40
0
 40
0
 40
1
 40
1
 40
1
 40
1
 10
39.564076
 20
466.618230
 30
0.0
 10
39.725307
 20
466.564497
 30
0.0
 10
39.920299
 20
466.537630
 30
0.0
 10
40.149054
 20
466.537630
 30
0.0
  0
SPLINE
  5
1db
100
AcDbEntity
  8
Layer_1
 62
7
100
AcDbSpline
 70
8
 71
3
 72
8
 73
4
 74
0
 40
0
 40
0
 40
0
 40
0
 40
1
 40
1
 40
1
 40
1
 10
40.149054
 20
466.537630
 30
0.0
 10
40.466003
 20
466.537630
 30
0.0
 10
40.709226
 20
466.589993
 30
0.0
 10
40.878725
 20
466.694720
 30
0.0
  0
SPLINE
  5
1dc
100
AcDbEntity
  8
Layer_1
 62
7
100
AcDbSpline
 70
8
 71
3
 72
8
 73
4
 74
0
 40
0
 40
0
 40
0
 40
0
 40
1
 40
1
 40
1
 40
1
 10
40.878725
 20
466.694720
 30
0.0
 10
41.049602
 20
466.798073
 30
0.0
 10
41.163979
 20
466.924163
 30
0.0
 10
41.221856
 20
467.072990
 30
0.0
  0
SPLINE
  5
1dd
100
AcDbEntity
  8
Layer_1
 62
7
100
AcDbSpline
 70
8
 71
3
 72
8
 73
4
 74
0
 40
0
 40
0
 40
0
 40
0
 40
1
 40
1
 40
1
 40
1
 10
41.221856
 20
467.072990
 30
0.0
 10
41.263196
 20
467.180483
 30
0.0
 10
41.283866
 20
467.353430
 30
0.0
 10
41.283866
 20
467.591830
 30
0.0
  0
LWPOLYLINE
  5
1de
100
AcDbEntity
  8
Layer_1
 62
7
100
AcDbPolyline
 90
2
 70
0
 10
38.968765
 20
468.228470
 30
0.0
 10
38.968765
 20
467.581480
 30
0.0
  0
LWPOLYLINE
  5
1df
100
AcDbEntity
  8
Layer_1
 62
7
100
AcDbPolyline
 90
3
 70
0
 10
41.283866
 20
467.591830
 30
0.0
 10
41.283866
 20
468.228480
 30
0.0
 10
38.968765
 20
468.228470
 30
0.0
  0
SPLINE
  5
1e0
100
AcDbEntity
  8
Layer_1
 62
7
100
AcDbSpline
 70
8
 71
3
 72
8
 73
4
 74
0
 40
0
 40
0
 40
0
 40
0
 40
1
 40
1
 40
1
 40
1
 10
39.572346
 20
463.007080
 30
0.0
 10
39.242995
 20
463.091140
 30
0.0
 10
38.991503
 20
463.242727
 30
0.0
 10
38.817870
 20
463.461840
 30
0.0
  0
SPLINE
  5
1e1
100
AcDbEntity
  8
Layer_1
 62
7
100
AcDbSpline
 70
8
 71
3
 72
8
 73
4
 74
0
 40
0
 40
0
 40
0
 40
0
 40
1
 40
1
 40
1
 40
1
 10
38.817870
 20
463.461840
 30
0.0
 10
38.645615
 20
463.679567
 30
0.0
 10
38.559488
 20
463.946217
 30
0.0
 10
38.559488
 20
464.261790
 30
0.0
  0
SPLINE
  5
1e2
100
AcDbEntity
  8
Layer_1
 62
7
100
AcDbSpline
 70
8
 71
3
 72
8
 73
4
 74
0
 40
0
 40
0
 40
0
 40
0
 40
1
 40
1
 40
1
 40
1
 10
38.559488
 20
464.261790
 30
0.0
 10
38.559488
 20
464.588383
 30
0.0
 10
38.625634
 20
464.854343
 30
0.0
 10
38.757925
 20
465.059670
 30
0.0
  0
SPLINE
  5
1e3
100
AcDbEntity
  8
Layer_1
 62
7
100
AcDbSpline
 70
8
 71
3
 72
8
 73
4
 74
0
 40
0
 40
0
 40
0
 40
0
 40
1
 40
1
 40
1
 40
1
 10
38.757925
 20
465.059670
 30
0.0
 10
38.891595
 20
465.263623
 30
0.0
 10
39.084520
 20
465.419343
 30
0.0
 10
39.336701
 20
465.526830
 30
0.0
  0
SPLINE
  5
1e4
100
AcDbEntity
  8
Layer_1
 62
7
100
AcDbSpline
 70
8
 71
3
 72
8
 73
4
 74
0
 40
0
 40
0
 40
0
 40
0
 40
1
 40
1
 40
1
 40
1
 10
39.336701
 20
465.526830
 30
0.0
 10
39.588882
 20
465.632937
 30
0.0
 10
39.859667
 20
465.685990
 30
0.0
 10
40.149055
 20
465.685990
 30
0.0
  0
SPLINE
  5
1e5
100
AcDbEntity
  8
Layer_1
 62
7
100
AcDbSpline
 70
8
 71
3
 72
8
 73
4
 74
0
 40
0
 40
0
 40
0
 40
0
 40
1
 40
1
 40
1
 40
1
 10
40.149055
 20
465.685990
 30
0.0
 10
40.464626
 20
465.685990
 30
0.0
 10
40.739544
 20
465.626047
 30
0.0
 10
40.973810
 20
465.506160
 30
0.0
  0
SPLINE
  5
1e6
100
AcDbEntity
  8
Layer_1
 62
7
100
AcDbSpline
 70
8
 71
3
 72
8
 73
4
 74
0
 40
0
 40
0
 40
0
 40
0
 40
1
 40
1
 40
1
 40
1
 10
40.973810
 20
465.506160
 30
0.0
 10
41.209455
 20
465.384887
 30
0.0
 10
41.387911
 20
465.213320
 30
0.0
 10
41.509178
 20
464.991460
 30
0.0
  0
SPLINE
  5
1e7
100
AcDbEntity
  8
Layer_1
 62
7
100
AcDbSpline
 70
8
 71
3
 72
8
 73
4
 74
0
 40
0
 40
0
 40
0
 40
0
 40
1
 40
1
 40
1
 40
1
 10
41.509178
 20
464.991460
 30
0.0
 10
41.631823
 20
464.768220
 30
0.0
 10
41.693146
 20
464.522930
 30
0.0
 10
41.693146
 20
464.255590
 30
0.0
  0
SPLINE
  5
1e8
100
AcDbEntity
  8
Layer_1
 62
7
100
AcDbSpline
 70
8
 71
3
 72
8
 73
4
 74
0
 40
0
 40
0
 40
0
 40
0
 40
1
 40
1
 40
1
 40
1
 10
41.693146
 20
464.255590
 30
0.0
 10
41.693146
 20
463.952417
 30
0.0
 10
41.615976
 20
463.697480
 30
0.0
 10
41.461636
 20
463.490780
 30
0.0
  0
SPLINE
  5
1e9
100
AcDbEntity
  8
Layer_1
 62
7
100
AcDbSpline
 70
8
 71
3
 72
8
 73
4
 74
0
 40
0
 40
0
 40
0
 40
0
 40
1
 40
1
 40
1
 40
1
 10
41.461636
 20
463.490780
 30
0.0
 10
41.307296
 20
463.284073
 30
0.0
 10
41.090255
 20
463.140067
 30
0.0
 10
40.810513
 20
463.058760
 30
0.0
  0
LWPOLYLINE
  5
1ea
100
AcDbEntity
  8
Layer_1
 62
7
100
AcDbPolyline
 90
2
 70
0
 10
39.673631
 20
463.408090
 30
0.0
 10
39.572346
 20
463.007080
 30
0.0
  0
SPLINE
  5
1eb
100
AcDbEntity
  8
Layer_1
 62
7
100
AcDbSpline
 70
8
 71
3
 72
8
 73
4
 74
0
 40
0
 40
0
 40
0
 40
0
 40
1
 40
1
 40
1
 40
1
 10
40.717493
 20
463.453570
 30
0.0
 10
40.937980
 20
463.523850
 30
0.0
 10
41.098521
 20
463.625823
 30
0.0
 10
41.199118
 20
463.759490
 30
0.0
  0
SPLINE
  5
1ec
100
AcDbEntity
  8
Layer_1
 62
7
100
AcDbSpline
 70
8
 71
3
 72
8
 73
4
 74
0
 40
0
 40
0
 40
0
 40
0
 40
1
 40
1
 40
1
 40
1
 10
41.199118
 20
463.759490
 30
0.0
 10
41.299715
 20
463.893163
 30
0.0
 10
41.350013
 20
464.061283
 30
0.0
 10
41.350013
 20
464.263850
 30
0.0
  0
SPLINE
  5
1ed
100
AcDbEntity
  8
Layer_1
 62
7
100
AcDbSpline
 70
8
 71
3
 72
8
 73
4
 74
0
 40
0
 40
0
 40
0
 40
0
 40
1
 40
1
 40
1
 40
1
 10
41.350013
 20
464.263850
 30
0.0
 10
41.350013
 20
464.496743
 30
0.0
 10
41.294202
 20
464.691737
 30
0.0
 10
41.182581
 20
464.848830
 30
0.0
  0
SPLINE
  5
1ee
100
AcDbEntity
  8
Layer_1
 62
7
100
AcDbSpline
 70
8
 71
3
 72
8
 73
4
 74
0
 40
0
 40
0
 40
0
 40
0
 40
1
 40
1
 40
1
 40
1
 10
41.182581
 20
464.848830
 30
0.0
 10
41.070960
 20
465.004550
 30
0.0
 10
40.920754
 20
465.114103
 30
0.0
 10
40.731963
 20
465.177490
 30
0.0
  0
SPLINE
  5
1ef
100
AcDbEntity
  8
Layer_1
 62
7
100
AcDbSpline
 70
8
 71
3
 72
8
 73
4
 74
0
 40
0
 40
0
 40
0
 40
0
 40
1
 40
1
 40
1
 40
1
 10
40.731963
 20
465.177490
 30
0.0
 10
40.544550
 20
465.240890
 30
0.0
 10
40.350935
 20
465.272590
 30
0.0
 10
40.151120
 20
465.272590
 30
0.0
  0
SPLINE
  5
1f0
100
AcDbEntity
  8
Layer_1
 62
7
100
AcDbSpline
 70
8
 71
3
 72
8
 73
4
 74
0
 40
0
 40
0
 40
0
 40
0
 40
1
 40
1
 40
1
 40
1
 10
40.151120
 20
465.272590
 30
0.0
 10
39.893427
 20
465.272590
 30
0.0
 10
39.668117
 20
465.235383
 30
0.0
 10
39.475192
 20
465.160970
 30
0.0
  0
SPLINE
  5
1f1
100
AcDbEntity
  8
Layer_1
 62
7
100
AcDbSpline
 70
8
 71
3
 72
8
 73
4
 74
0
 40
0
 40
0
 40
0
 40
0
 40
1
 40
1
 40
1
 40
1
 10
39.475192
 20
465.160970
 30
0.0
 10
39.283645
 20
465.085177
 30
0.0
 10
39.140329
 20
464.968043
 30
0.0
 10
39.045244
 20
464.809570
 30
0.0
  0
SPLINE
  5
1f2
100
AcDbEntity
  8
Layer_1
 62
7
100
AcDbSpline
 70
8
 71
3
 72
8
 73
4
 74
0
 40
0
 40
0
 40
0
 40
0
 40
1
 40
1
 40
1
 40
1
 10
39.045244
 20
464.809570
 30
0.0
 10
38.950159
 20
464.651097
 30
0.0
 10
38.902617
 20
464.479530
 30
0.0
 10
38.902617
 20
464.294870
 30
0.0
  0
SPLINE
  5
1f3
100
AcDbEntity
  8
Layer_1
 62
7
100
AcDbSpline
 70
8
 71
3
 72
8
 73
4
 74
0
 40
0
 40
0
 40
0
 40
0
 40
1
 40
1
 40
1
 40
1
 10
38.902617
 20
464.294870
 30
0.0
 10
38.902617
 20
464.070250
 30
0.0
 10
38.967385
 20
463.880080
 30
0.0
 10
39.096921
 20
463.724360
 30
0.0
  0
SPLINE
  5
1f4
100
AcDbEntity
  8
Layer_1
 62
7
100
AcDbSpline
 70
8
 71
3
 72
8
 73
4
 74
0
 40
0
 40
0
 40
0
 40
0
 40
1
 40
1
 40
1
 40
1
 10
39.096921
 20
463.724360
 30
0.0
 10
39.226456
 20
463.568647
 30
0.0
 10
39.418692
 20
463.463227
 30
0.0
 10
39.673629
 20
463.408100
 30
0.0
  0
LWPOLYLINE
  5
1f5
100
AcDbEntity
  8
Layer_1
 62
7
100
AcDbPolyline
 90
2
 70
0
 10
40.810513
 20
463.058760
 30
0.0
 10
40.717493
 20
463.453570
 30
0.0
  0
SPLINE
  5
1f6
100
AcDbEntity
  8
Layer_1
 62
7
100
AcDbSpline
 70
8
 71
3
 72
8
 73
4
 74
0
 40
0
 40
0
 40
0
 40
0
 40
1
 40
1
 40
1
 40
1
 10
34.813980
 20
483.613580
 30
0.0
 10
35.172270
 20
483.613580
 30
0.0
 10
35.460280
 20
483.577060
 30
0.0
 10
35.678010
 20
483.504020
 30
0.0
  0
SPLINE
  5
1f7
100
AcDbEntity
  8
Layer_1
 62
7
100
AcDbSpline
 70
8
 71
3
 72
8
 73
4
 74
0
 40
0
 40
0
 40
0
 40
0
 40
1
 40
1
 40
1
 40
1
 10
35.678010
 20
483.504020
 30
0.0
 10
35.897118
 20
483.429607
 30
0.0
 10
36.065928
 20
483.320053
 30
0.0
 10
36.184439
 20
483.175360
 30
0.0
  0
SPLINE
  5
1f8
100
AcDbEntity
  8
Layer_1
 62
7
100
AcDbSpline
 70
8
 71
3
 72
8
 73
4
 74
0
 40
0
 40
0
 40
0
 40
0
 40
1
 40
1
 40
1
 40
1
 10
36.184439
 20
483.175360
 30
0.0
 10
36.302950
 20
483.029287
 30
0.0
 10
36.362206
 20
482.846007
 30
0.0
 10
36.362206
 20
482.625520
 30
0.0
  0
SPLINE
  5
1f9
100
AcDbEntity
  8
Layer_1
 62
7
100
AcDbSpline
 70
8
 71
3
 72
8
 73
4
 74
0
 40
0
 40
0
 40
0
 40
0
 40
1
 40
1
 40
1
 40
1
 10
36.362206
 20
482.625520
 30
0.0
 10
36.362206
 20
482.462913
 30
0.0
 10
36.329133
 20
482.320287
 30
0.0
 10
36.262986
 20
482.197640
 30
0.0
  0
SPLINE
  5
1fa
100
AcDbEntity
  8
Layer_1
 62
7
100
AcDbSpline
 70
8
 71
3
 72
8
 73
4
 74
0
 40
0
 40
0
 40
0
 40
0
 40
1
 40
1
 40
1
 40
1
 10
36.262986
 20
482.197640
 30
0.0
 10
36.198219
 20
482.074993
 30
0.0
 10
36.103824
 20
481.973707
 30
0.0
 10
35.979799
 20
481.893780
 30
0.0
  0
SPLINE
  5
1fb
100
AcDbEntity
  8
Layer_1
 62
7
100
AcDbSpline
 70
8
 71
3
 72
8
 73
4
 74
0
 40
0
 40
0
 40
0
 40
0
 40
1
 40
1
 40
1
 40
1
 10
35.979799
 20
481.893780
 30
0.0
 10
35.857154
 20
481.813860
 30
0.0
 10
35.706948
 20
481.751160
 30
0.0
 10
35.529181
 20
481.705680
 30
0.0
  0
SPLINE
  5
1fc
100
AcDbEntity
  8
Layer_1
 62
7
100
AcDbSpline
 70
8
 71
3
 72
8
 73
4
 74
0
 40
0
 40
0
 40
0
 40
0
 40
1
 40
1
 40
1
 40
1
 10
35.529181
 20
481.705680
 30
0.0
 10
35.352792
 20
481.660213
 30
0.0
 10
35.114392
 20
481.637480
 30
0.0
 10
34.813979
 20
481.637480
 30
0.0
  0
SPLINE
  5
1fd
100
AcDbEntity
  8
Layer_1
 62
7
100
AcDbSpline
 70
8
 71
3
 72
8
 73
4
 74
0
 40
0
 40
0
 40
0
 40
0
 40
1
 40
1
 40
1
 40
1
 10
34.813979
 20
481.637480
 30
0.0
 10
34.458445
 20
481.637480
 30
0.0
 10
34.171124
 20
481.673997
 30
0.0
 10
33.952016
 20
481.747030
 30
0.0
  0
SPLINE
  5
1fe
100
AcDbEntity
  8
Layer_1
 62
7
100
AcDbSpline
 70
8
 71
3
 72
8
 73
4
 74
0
 40
0
 40
0
 40
0
 40
0
 40
1
 40
1
 40
1
 40
1
 10
33.952016
 20
481.747030
 30
0.0
 10
33.734286
 20
481.820070
 30
0.0
 10
33.565476
 20
481.929627
 30
0.0
 10
33.445587
 20
482.075700
 30
0.0
  0
SPLINE
  5
1ff
100
AcDbEntity
  8
Layer_1
 62
7
100
AcDbSpline
 70
8
 71
3
 72
8
 73
4
 74
0
 40
0
 40
0
 40
0
 40
0
 40
1
 40
1
 40
1
 40
1
 10
33.445587
 20
482.075700
 30
0.0
 10
33.327076
 20
482.220393
 30
0.0
 10
33.267820
 20
482.403670
 30
0.0
 10
33.267820
 20
482.625530
 30
0.0
  0
SPLINE
  5
200
100
AcDbEntity
  8
Layer_1
 62
7
100
AcDbSpline
 70
8
 71
3
 72
8
 73
4
 74
0
 40
0
 40
0
 40
0
 40
0
 40
1
 40
1
 40
1
 40
1
 10
33.267820
 20
482.625530
 30
0.0
 10
33.267820
 20
482.917677
 30
0.0
 10
33.372551
 20
483.147120
 30
0.0
 10
33.582013
 20
483.313860
 30
0.0
  0
SPLINE
  5
201
100
AcDbEntity
  8
Layer_1
 62
7
100
AcDbSpline
 70
8
 71
3
 72
8
 73
4
 74
0
 40
0
 40
0
 40
0
 40
0
 40
1
 40
1
 40
1
 40
1
 10
33.582013
 20
483.313860
 30
0.0
 10
33.834194
 20
483.513680
 30
0.0
 10
34.244849
 20
483.613590
 30
0.0
 10
34.813979
 20
483.613590
 30
0.0
  0
LWPOLYLINE
  5
202
100
AcDbEntity
  8
Layer_1
 62
7
100
AcDbPolyline
 90
1
 70
1
 10
39.673629
 20
463.408100
 30
0.0
  0
SPLINE
  5
203
100
AcDbEntity
  8
Layer_1
 62
7
100
AcDbSpline
 70
8
 71
3
 72
8
 73
4
 74
0
 40
0
 40
0
 40
0
 40
0
 40
1
 40
1
 40
1
 40
1
 10
34.813980
 20
483.231170
 30
0.0
 10
34.316508
 20
483.231170
 30
0.0
 10
33.985090
 20
483.173293
 30
0.0
 10
33.819726
 20
483.057540
 30
0.0
  0
SPLINE
  5
204
100
AcDbEntity
  8
Layer_1
 62
7
100
AcDbSpline
 70
8
 71
3
 72
8
 73
4
 74
0
 40
0
 40
0
 40
0
 40
0
 40
1
 40
1
 40
1
 40
1
 10
33.819726
 20
483.057540
 30
0.0
 10
33.655739
 20
482.940407
 30
0.0
 10
33.573746
 20
482.796400
 30
0.0
 10
33.573746
 20
482.625520
 30
0.0
  0
SPLINE
  5
205
100
AcDbEntity
  8
Layer_1
 62
7
100
AcDbSpline
 70
8
 71
3
 72
8
 73
4
 74
0
 40
0
 40
0
 40
0
 40
0
 40
1
 40
1
 40
1
 40
1
 10
33.573746
 20
482.625520
 30
0.0
 10
33.573746
 20
482.454647
 30
0.0
 10
33.656428
 20
482.311333
 30
0.0
 10
33.821793
 20
482.195580
 30
0.0
  0
SPLINE
  5
206
100
AcDbEntity
  8
Layer_1
 62
7
100
AcDbSpline
 70
8
 71
3
 72
8
 73
4
 74
0
 40
0
 40
0
 40
0
 40
0
 40
1
 40
1
 40
1
 40
1
 10
33.821793
 20
482.195580
 30
0.0
 10
33.987157
 20
482.078447
 30
0.0
 10
34.317886
 20
482.019880
 30
0.0
 10
34.813980
 20
482.019880
 30
0.0
  0
SPLINE
  5
207
100
AcDbEntity
  8
Layer_1
 62
7
100
AcDbSpline
 70
8
 71
3
 72
8
 73
4
 74
0
 40
0
 40
0
 40
0
 40
0
 40
1
 40
1
 40
1
 40
1
 10
34.813980
 20
482.019880
 30
0.0
 10
35.312830
 20
482.019880
 30
0.0
 10
35.644248
 20
482.078447
 30
0.0
 10
35.808235
 20
482.195580
 30
0.0
  0
SPLINE
  5
208
100
AcDbEntity
  8
Layer_1
 62
7
100
AcDbSpline
 70
8
 71
3
 72
8
 73
4
 74
0
 40
0
 40
0
 40
0
 40
0
 40
1
 40
1
 40
1
 40
1
 10
35.808235
 20
482.195580
 30
0.0
 10
35.972221
 20
482.311333
 30
0.0
 10
36.054214
 20
482.456027
 30
0.0
 10
36.054214
 20
482.629660
 30
0.0
  0
SPLINE
  5
209
100
AcDbEntity
  8
Layer_1
 62
7
100
AcDbSpline
 70
8
 71
3
 72
8
 73
4
 74
0
 40
0
 40
0
 40
0
 40
0
 40
1
 40
1
 40
1
 40
1
 10
36.054214
 20
482.629660
 30
0.0
 10
36.054214
 20
482.800533
 30
0.0
 10
35.981867
 20
482.936957
 30
0.0
 10
35.837173
 20
483.038930
 30
0.0
  0
SPLINE
  5
20a
100
AcDbEntity
  8
Layer_1
 62
7
100
AcDbSpline
 70
8
 71
3
 72
8
 73
4
 74
0
 40
0
 40
0
 40
0
 40
0
 40
1
 40
1
 40
1
 40
1
 10
35.837173
 20
483.038930
 30
0.0
 10
35.652516
 20
483.167090
 30
0.0
 10
35.311452
 20
483.231170
 30
0.0
 10
34.813980
 20
483.231170
 30
0.0
  0
LWPOLYLINE
  5
20b
100
AcDbEntity
  8
Layer_1
 62
7
100
AcDbPolyline
 90
1
 70
1
 10
34.813979
 20
483.613590
 30
0.0
  0
LWPOLYLINE
  5
20c
100
AcDbEntity
  8
Layer_1
 62
7
100
AcDbPolyline
 90
1
 70
1
 10
34.813980
 20
483.231170
 30
0.0
  0
SPLINE
  5
20d
100
AcDbEntity
  8
Layer_1
 62
7
100
AcDbSpline
 70
8
 71
3
 72
8
 73
4
 74
0
 40
0
 40
0
 40
0
 40
0
 40
1
 40
1
 40
1
 40
1
 10
34.962808
 20
479.510470
 30
0.0
 10
35.019308
 20
479.664810
 30
0.0
 10
35.099923
 20
479.779187
 30
0.0
 10
35.204654
 20
479.853600
 30
0.0
  0
SPLINE
  5
20e
100
AcDbEntity
  8
Layer_1
 62
7
100
AcDbSpline
 70
8
 71
3
 72
8
 73
4
 74
0
 40
0
 40
0
 40
0
 40
0
 40
1
 40
1
 40
1
 40
1
 10
35.204654
 20
479.853600
 30
0.0
 10
35.309385
 20
479.928013
 30
0.0
 10
35.434786
 20
479.965220
 30
0.0
 10
35.580858
 20
479.965220
 30
0.0
  0
SPLINE
  5
20f
100
AcDbEntity
  8
Layer_1
 62
7
100
AcDbSpline
 70
8
 71
3
 72
8
 73
4
 74
0
 40
0
 40
0
 40
0
 40
0
 40
1
 40
1
 40
1
 40
1
 10
35.580858
 20
479.965220
 30
0.0
 10
35.801344
 20
479.965220
 30
0.0
 10
35.986690
 20
479.885983
 30
0.0
 10
36.136897
 20
479.727510
 30
0.0
  0
SPLINE
  5
210
100
AcDbEntity
  8
Layer_1
 62
7
100
AcDbSpline
 70
8
 71
3
 72
8
 73
4
 74
0
 40
0
 40
0
 40
0
 40
0
 40
1
 40
1
 40
1
 40
1
 10
36.136897
 20
479.727510
 30
0.0
 10
36.287103
 20
479.569037
 30
0.0
 10
36.362206
 20
479.358197
 30
0.0
 10
36.362206
 20
479.094990
 30
0.0
  0
SPLINE
  5
211
100
AcDbEntity
  8
Layer_1
 62
7
100
AcDbSpline
 70
8
 71
3
 72
8
 73
4
 74
0
 40
0
 40
0
 40
0
 40
0
 40
1
 40
1
 40
1
 40
1
 10
36.362206
 20
479.094990
 30
0.0
 10
36.362206
 20
478.830403
 30
0.0
 10
36.285036
 20
478.617497
 30
0.0
 10
36.130695
 20
478.456270
 30
0.0
  0
SPLINE
  5
212
100
AcDbEntity
  8
Layer_1
 62
7
100
AcDbSpline
 70
8
 71
3
 72
8
 73
4
 74
0
 40
0
 40
0
 40
0
 40
0
 40
1
 40
1
 40
1
 40
1
 10
36.130695
 20
478.456270
 30
0.0
 10
35.977733
 20
478.295037
 30
0.0
 10
35.791009
 20
478.214420
 30
0.0
 10
35.570523
 20
478.214420
 30
0.0
  0
SPLINE
  5
213
100
AcDbEntity
  8
Layer_1
 62
7
100
AcDbSpline
 70
8
 71
3
 72
8
 73
4
 74
0
 40
0
 40
0
 40
0
 40
0
 40
1
 40
1
 40
1
 40
1
 10
35.570523
 20
478.214420
 30
0.0
 10
35.429963
 20
478.214420
 30
0.0
 10
35.307318
 20
478.251627
 30
0.0
 10
35.202587
 20
478.326040
 30
0.0
  0
SPLINE
  5
214
100
AcDbEntity
  8
Layer_1
 62
7
100
AcDbSpline
 70
8
 71
3
 72
8
 73
4
 74
0
 40
0
 40
0
 40
0
 40
0
 40
1
 40
1
 40
1
 40
1
 10
35.202587
 20
478.326040
 30
0.0
 10
35.099234
 20
478.399080
 30
0.0
 10
35.019308
 20
478.510703
 30
0.0
 10
34.962808
 20
478.660910
 30
0.0
  0
SPLINE
  5
215
100
AcDbEntity
  8
Layer_1
 62
7
100
AcDbSpline
 70
8
 71
3
 72
8
 73
4
 74
0
 40
0
 40
0
 40
0
 40
0
 40
1
 40
1
 40
1
 40
1
 10
34.962808
 20
478.660910
 30
0.0
 10
34.902175
 20
478.474870
 30
0.0
 10
34.804334
 20
478.333620
 30
0.0
 10
34.669286
 20
478.237160
 30
0.0
  0
SPLINE
  5
216
100
AcDbEntity
  8
Layer_1
 62
7
100
AcDbSpline
 70
8
 71
3
 72
8
 73
4
 74
0
 40
0
 40
0
 40
0
 40
0
 40
1
 40
1
 40
1
 40
1
 10
34.669286
 20
478.237160
 30
0.0
 10
34.534238
 20
478.139320
 30
0.0
 10
34.373008
 20
478.090400
 30
0.0
 10
34.185595
 20
478.090400
 30
0.0
  0
SPLINE
  5
217
100
AcDbEntity
  8
Layer_1
 62
7
100
AcDbSpline
 70
8
 71
3
 72
8
 73
4
 74
0
 40
0
 40
0
 40
0
 40
0
 40
1
 40
1
 40
1
 40
1
 10
34.185595
 20
478.090400
 30
0.0
 10
33.926524
 20
478.090400
 30
0.0
 10
33.708794
 20
478.182040
 30
0.0
 10
33.532405
 20
478.365320
 30
0.0
  0
SPLINE
  5
218
100
AcDbEntity
  8
Layer_1
 62
7
100
AcDbSpline
 70
8
 71
3
 72
8
 73
4
 74
0
 40
0
 40
0
 40
0
 40
0
 40
1
 40
1
 40
1
 40
1
 10
33.532405
 20
478.365320
 30
0.0
 10
33.356016
 20
478.548600
 30
0.0
 10
33.267821
 20
478.789757
 30
0.0
 10
33.267821
 20
479.088790
 30
0.0
  0
SPLINE
  5
219
100
AcDbEntity
  8
Layer_1
 62
7
100
AcDbSpline
 70
8
 71
3
 72
8
 73
4
 74
0
 40
0
 40
0
 40
0
 40
0
 40
1
 40
1
 40
1
 40
1
 10
33.267821
 20
479.088790
 30
0.0
 10
33.267821
 20
479.387823
 30
0.0
 10
33.356016
 20
479.628980
 30
0.0
 10
33.532405
 20
479.812260
 30
0.0
  0
SPLINE
  5
21a
100
AcDbEntity
  8
Layer_1
 62
7
100
AcDbSpline
 70
8
 71
3
 72
8
 73
4
 74
0
 40
0
 40
0
 40
0
 40
0
 40
1
 40
1
 40
1
 40
1
 10
33.532405
 20
479.812260
 30
0.0
 10
33.710172
 20
479.995540
 30
0.0
 10
33.931347
 20
480.087180
 30
0.0
 10
34.195930
 20
480.087180
 30
0.0
  0
SPLINE
  5
21b
100
AcDbEntity
  8
Layer_1
 62
7
100
AcDbSpline
 70
8
 71
3
 72
8
 73
4
 74
0
 40
0
 40
0
 40
0
 40
0
 40
1
 40
1
 40
1
 40
1
 10
34.195930
 20
480.087180
 30
0.0
 10
34.392989
 20
480.087180
 30
0.0
 10
34.557665
 20
480.037570
 30
0.0
 10
34.689957
 20
479.938350
 30
0.0
  0
SPLINE
  5
21c
100
AcDbEntity
  8
Layer_1
 62
7
100
AcDbSpline
 70
8
 71
3
 72
8
 73
4
 74
0
 40
0
 40
0
 40
0
 40
0
 40
1
 40
1
 40
1
 40
1
 10
34.689957
 20
479.938350
 30
0.0
 10
34.823626
 20
479.837750
 30
0.0
 10
34.914577
 20
479.695123
 30
0.0
 10
34.962808
 20
479.510470
 30
0.0
  0
LWPOLYLINE
  5
21d
100
AcDbEntity
  8
Layer_1
 62
7
100
AcDbPolyline
 90
4
 70
1
 10
33.319498
 20
481.048360
 30
0.0
 10
33.743244
 20
481.048360
 30
0.0
 10
33.743244
 20
480.624610
 30
0.0
 10
33.319498
 20
480.624610
 30
0.0
  0
SPLINE
  5
21e
100
AcDbEntity
  8
Layer_1
 62
7
100
AcDbSpline
 70
8
 71
3
 72
8
 73
4
 74
0
 40
0
 40
0
 40
0
 40
0
 40
1
 40
1
 40
1
 40
1
 10
35.593261
 20
479.584870
 30
0.0
 10
35.449945
 20
479.584870
 30
0.0
 10
35.332812
 20
479.538707
 30
0.0
 10
35.241861
 20
479.446380
 30
0.0
  0
SPLINE
  5
21f
100
AcDbEntity
  8
Layer_1
 62
7
100
AcDbSpline
 70
8
 71
3
 72
8
 73
4
 74
0
 40
0
 40
0
 40
0
 40
0
 40
1
 40
1
 40
1
 40
1
 10
35.241861
 20
479.446380
 30
0.0
 10
35.150910
 20
479.354053
 30
0.0
 10
35.105435
 20
479.234163
 30
0.0
 10
35.105435
 20
479.086710
 30
0.0
  0
SPLINE
  5
220
100
AcDbEntity
  8
Layer_1
 62
7
100
AcDbSpline
 70
8
 71
3
 72
8
 73
4
 74
0
 40
0
 40
0
 40
0
 40
0
 40
1
 40
1
 40
1
 40
1
 10
35.105435
 20
479.086710
 30
0.0
 10
35.105435
 20
478.943397
 30
0.0
 10
35.150221
 20
478.826263
 30
0.0
 10
35.239794
 20
478.735310
 30
0.0
  0
SPLINE
  5
221
100
AcDbEntity
  8
Layer_1
 62
7
100
AcDbSpline
 70
8
 71
3
 72
8
 73
4
 74
0
 40
0
 40
0
 40
0
 40
0
 40
1
 40
1
 40
1
 40
1
 10
35.239794
 20
478.735310
 30
0.0
 10
35.330745
 20
478.642983
 30
0.0
 10
35.441677
 20
478.596820
 30
0.0
 10
35.572590
 20
478.596820
 30
0.0
  0
SPLINE
  5
222
100
AcDbEntity
  8
Layer_1
 62
7
100
AcDbSpline
 70
8
 71
3
 72
8
 73
4
 74
0
 40
0
 40
0
 40
0
 40
0
 40
1
 40
1
 40
1
 40
1
 10
35.572590
 20
478.596820
 30
0.0
 10
35.709016
 20
478.596820
 30
0.0
 10
35.823393
 20
478.644363
 30
0.0
 10
35.915722
 20
478.739450
 30
0.0
  0
SPLINE
  5
223
100
AcDbEntity
  8
Layer_1
 62
7
100
AcDbSpline
 70
8
 71
3
 72
8
 73
4
 74
0
 40
0
 40
0
 40
0
 40
0
 40
1
 40
1
 40
1
 40
1
 10
35.915722
 20
478.739450
 30
0.0
 10
36.009428
 20
478.833157
 30
0.0
 10
36.056281
 20
478.950290
 30
0.0
 10
36.056281
 20
479.090850
 30
0.0
  0
SPLINE
  5
224
100
AcDbEntity
  8
Layer_1
 62
7
100
AcDbSpline
 70
8
 71
3
 72
8
 73
4
 74
0
 40
0
 40
0
 40
0
 40
0
 40
1
 40
1
 40
1
 40
1
 10
36.056281
 20
479.090850
 30
0.0
 10
36.056281
 20
479.232783
 30
0.0
 10
36.010806
 20
479.350603
 30
0.0
 10
35.919856
 20
479.444310
 30
0.0
  0
SPLINE
  5
225
100
AcDbEntity
  8
Layer_1
 62
7
100
AcDbSpline
 70
8
 71
3
 72
8
 73
4
 74
0
 40
0
 40
0
 40
0
 40
0
 40
1
 40
1
 40
1
 40
1
 10
35.919856
 20
479.444310
 30
0.0
 10
35.828905
 20
479.538017
 30
0.0
 10
35.720040
 20
479.584870
 30
0.0
 10
35.593261
 20
479.584870
 30
0.0
  0
LWPOLYLINE
  5
226
100
AcDbEntity
  8
Layer_1
 62
7
100
AcDbPolyline
 90
1
 70
1
 10
34.962808
 20
479.510470
 30
0.0
  0
SPLINE
  5
227
100
AcDbEntity
  8
Layer_1
 62
7
100
AcDbSpline
 70
8
 71
3
 72
8
 73
4
 74
0
 40
0
 40
0
 40
0
 40
0
 40
1
 40
1
 40
1
 40
1
 10
34.193863
 20
479.704760
 30
0.0
 10
34.087754
 20
479.704760
 30
0.0
 10
33.985090
 20
479.679960
 30
0.0
 10
33.885871
 20
479.630360
 30
0.0
  0
SPLINE
  5
228
100
AcDbEntity
  8
Layer_1
 62
7
100
AcDbSpline
 70
8
 71
3
 72
8
 73
4
 74
0
 40
0
 40
0
 40
0
 40
0
 40
1
 40
1
 40
1
 40
1
 10
33.885871
 20
479.630360
 30
0.0
 10
33.786652
 20
479.579360
 30
0.0
 10
33.709482
 20
479.504257
 30
0.0
 10
33.654361
 20
479.405050
 30
0.0
  0
SPLINE
  5
229
100
AcDbEntity
  8
Layer_1
 62
7
100
AcDbSpline
 70
8
 71
3
 72
8
 73
4
 74
0
 40
0
 40
0
 40
0
 40
0
 40
1
 40
1
 40
1
 40
1
 10
33.654361
 20
479.405050
 30
0.0
 10
33.600614
 20
479.305830
 30
0.0
 10
33.573741
 20
479.199030
 30
0.0
 10
33.573741
 20
479.084650
 30
0.0
  0
SPLINE
  5
22a
100
AcDbEntity
  8
Layer_1
 62
7
100
AcDbSpline
 70
8
 71
3
 72
8
 73
4
 74
0
 40
0
 40
0
 40
0
 40
0
 40
1
 40
1
 40
1
 40
1
 10
33.573741
 20
479.084650
 30
0.0
 10
33.573741
 20
478.906883
 30
0.0
 10
33.630929
 20
478.760123
 30
0.0
 10
33.745306
 20
478.644370
 30
0.0
  0
SPLINE
  5
22b
100
AcDbEntity
  8
Layer_1
 62
7
100
AcDbSpline
 70
8
 71
3
 72
8
 73
4
 74
0
 40
0
 40
0
 40
0
 40
0
 40
1
 40
1
 40
1
 40
1
 10
33.745306
 20
478.644370
 30
0.0
 10
33.859683
 20
478.528617
 30
0.0
 10
34.005067
 20
478.470740
 30
0.0
 10
34.181456
 20
478.470740
 30
0.0
  0
SPLINE
  5
22c
100
AcDbEntity
  8
Layer_1
 62
7
100
AcDbSpline
 70
8
 71
3
 72
8
 73
4
 74
0
 40
0
 40
0
 40
0
 40
0
 40
1
 40
1
 40
1
 40
1
 10
34.181456
 20
478.470740
 30
0.0
 10
34.360601
 20
478.470740
 30
0.0
 10
34.508740
 20
478.530683
 30
0.0
 10
34.625873
 20
478.650570
 30
0.0
  0
SPLINE
  5
22d
100
AcDbEntity
  8
Layer_1
 62
7
100
AcDbSpline
 70
8
 71
3
 72
8
 73
4
 74
0
 40
0
 40
0
 40
0
 40
0
 40
1
 40
1
 40
1
 40
1
 10
34.625873
 20
478.650570
 30
0.0
 10
34.743006
 20
478.769083
 30
0.0
 10
34.801573
 20
478.917913
 30
0.0
 10
34.801573
 20
479.097060
 30
0.0
  0
SPLINE
  5
22e
100
AcDbEntity
  8
Layer_1
 62
7
100
AcDbSpline
 70
8
 71
3
 72
8
 73
4
 74
0
 40
0
 40
0
 40
0
 40
0
 40
1
 40
1
 40
1
 40
1
 10
34.801573
 20
479.097060
 30
0.0
 10
34.801573
 20
479.272067
 30
0.0
 10
34.743695
 20
479.417450
 30
0.0
 10
34.627940
 20
479.533210
 30
0.0
  0
SPLINE
  5
22f
100
AcDbEntity
  8
Layer_1
 62
7
100
AcDbSpline
 70
8
 71
3
 72
8
 73
4
 74
0
 40
0
 40
0
 40
0
 40
0
 40
1
 40
1
 40
1
 40
1
 10
34.627940
 20
479.533210
 30
0.0
 10
34.512185
 20
479.647583
 30
0.0
 10
34.367491
 20
479.704770
 30
0.0
 10
34.193858
 20
479.704770
 30
0.0
  0
LWPOLYLINE
  5
230
100
AcDbEntity
  8
Layer_1
 62
7
100
AcDbPolyline
 90
1
 70
1
 10
35.593261
 20
479.584870
 30
0.0
  0
LWPOLYLINE
  5
231
100
AcDbEntity
  8
Layer_1
 62
7
100
AcDbPolyline
 90
1
 70
1
 10
34.193858
 20
479.704770
 30
0.0
  0
LWPOLYLINE
  5
232
100
AcDbEntity
  8
Layer_1
 62
7
100
AcDbPolyline
 90
8
 70
1
 10
33.319498
 20
476.965920
 30
0.0
 10
36.349804
 20
475.802170
 30
0.0
 10
36.349804
 20
475.370150
 30
0.0
 10
33.319498
 20
474.129920
 30
0.0
 10
33.319498
 20
474.586740
 30
0.0
 10
34.237271
 20
474.940200
 30
0.0
 10
34.237271
 20
476.207310
 30
0.0
 10
33.319498
 20
476.540110
 30
0.0
  0
SPLINE
  5
233
100
AcDbEntity
  8
Layer_1
 62
7
100
AcDbSpline
 70
8
 71
3
 72
8
 73
4
 74
0
 40
0
 40
0
 40
0
 40
0
 40
1
 40
1
 40
1
 40
1
 10
35.403091
 20
475.380490
 30
0.0
 10
35.658028
 20
475.476950
 30
0.0
 10
35.867490
 20
475.548607
 30
0.0
 10
36.031477
 20
475.595460
 30
0.0
  0
SPLINE
  5
234
100
AcDbEntity
  8
Layer_1
 62
7
100
AcDbSpline
 70
8
 71
3
 72
8
 73
4
 74
0
 40
0
 40
0
 40
0
 40
0
 40
1
 40
1
 40
1
 40
1
 10
36.031477
 20
475.595460
 30
0.0
 10
35.837174
 20
475.634060
 30
0.0
 10
35.644248
 20
475.688493
 30
0.0
 10
35.452701
 20
475.758760
 30
0.0
  0
LWPOLYLINE
  5
235
100
AcDbEntity
  8
Layer_1
 62
7
100
AcDbPolyline
 90
3
 70
0
 10
34.563866
 20
476.091560
 30
0.0
 10
34.563866
 20
475.064230
 30
0.0
 10
35.403091
 20
475.380490
 30
0.0
  0
LWPOLYLINE
  5
236
100
AcDbEntity
  8
Layer_1
 62
7
100
AcDbPolyline
 90
2
 70
0
 10
35.452701
 20
475.758760
 30
0.0
 10
34.563866
 20
476.091560
 30
0.0
  0
ENDSEC
  0
SECTION
  2
OBJECTS
  0
DICTIONARY
  5
C
330
0
100
AcDbDictionary
  3
ACAD_GROUP
350
D
  3
ACAD_MLINESTYLE
350
17
  0
DICTIONARY
  5
D
330
C
100
AcDbDictionary
  0
DICTIONARY
  5
1A
330
C
100
AcDbDictionary
  0
DICTIONARY
  5
17
330
C
100
AcDbDictionary
  3
STANDARD
350
18
  0
DICTIONARY
  5
19
330
C
100
AcDbDictionary
  0
ENDSEC
  0
EOF
