0
SECTION
2
HEADER
9
$INSUNITS
70
4
9
$ACADVER
1
AC1014
9
$HANDSEED
5
FFFF
0
ENDSEC
0
SECTION
2
TABLES
0
TABLE
2
VPORT
5
8
100
AcDbSymbolTable
0
ENDTAB
0
TABLE
2
LTYPE
5
5
100
AcDbSymbolTable
0
LTYPE
5
14
100
AcDbSymbolTableRecord
100
AcDbLinetypeTableRecord
2
BYBLOCK
70
0
0
LTYPE
5
15
100
AcDbSymbolTableRecord
100
AcDbLinetypeTableRecord
2
BYLAYER
70
0
0
ENDTAB
0
TABLE
2
LAYER
5
2
100
AcDbSymbolTable
70
2
0
LAYER
5
50
100
AcDbSymbolTableRecord
100
AcDbLayerTableRecord
2
0
70
0
6
CONTINUOUS
0
ENDTAB
0
TABLE
2
STYLE
5
3
100
AcDbSymbolTable
70
1
0
STYLE
5
11
100
AcDbSymbolTableRecord
100
AcDbTextStyleTableRecord
2
STANDARD
70
0
0
ENDTAB
0
TABLE
2
VIEW
5
6
100
AcDbSymbolTable
70
0
0
ENDTAB
0
TABLE
2
UCS
5
7
100
AcDbSymbolTable
70
0
0
ENDTAB
0
TABLE
2
APPID
5
9
100
AcDbSymbolTable
70
2
0
APPID
5
12
100
AcDbSymbolTableRecord
100
AcDbRegAppTableRecord
2
ACAD
70
0
0
ENDTAB
0
TABLE
2
DIMSTYLE
5
A
100
AcDbSymbolTable
70
1
0
ENDTAB
0
TABLE
2
BLOCK_RECORD
5
1
100
AcDbSymbolTable
70
1
0
BLOCK_RECORD
5
1F
100
AcDbSymbolTableRecord
100
AcDbBlockTableRecord
2
*MODEL_SPACE
0
BLOCK_RECORD
5
1B
100
AcDbSymbolTableRecord
100
AcDbBlockTableRecord
2
*PAPER_SPACE
0
ENDTAB
0
ENDSEC
0
SECTION
2
BLOCKS
0
BLOCK
5
20
100
AcDbEntity
100
AcDbBlockBegin
2
*MODEL_SPACE
0
ENDBLK
5
21
100
AcDbEntity
100
AcDbBlockEnd
0
BLOCK
5
1C
100
AcDbEntity
100
AcDbBlockBegin
2
*PAPER_SPACE
0
ENDBLK
5
1D
100
AcDbEntity
100
AcDbBlockEnd
0
ENDSEC
0
SECTION
2
ENTITIES
0
LWPOLYLINE
5
100
100
AcDbEntity
8
0
100
AcDbPolyline
90
47
70
1
43
0.0
10
-19.440527396093987
20
-22.137353530651993
10
-19.440527396093987
20
0
10
-2.8529242903771745
20
0
10
-2.602924290377167
20
0
10
-2.602924290377167
20
-7
10
0.14707570962283256
20
-7
10
2.8970757096228321
20
-7
10
2.8970757096228321
20
0
10
3.1470757096228397
20
0
10
36.322281921056465
20
0
10
36.572281921056458
20
0
10
36.572281921056472
20
-7.0000000000000062
10
39.322281921056472
20
-7
10
42.072281921056472
20
-6.9999999999999929
10
42.072281921056472
20
0
10
42.322281921056472
20
0
10
75.497488132490133
20
0
10
75.747488132490133
20
0
10
75.747488132490133
20
-6.9999999999999929
10
78.497488132490133
20
-7
10
81.247488132490133
20
-7.0000000000000062
10
81.247488132490147
20
0
10
81.497488132490133
20
0
10
114.67269434392377
20
0
10
114.92269434392377
20
0
10
114.92269434392377
20
-7
10
117.67269434392377
20
-7
10
120.42269434392378
20
-7
10
120.42269434392378
20
0
10
120.67269434392378
20
0
10
137.26029744964057
20
0
10
137.26029744964057
20
-56.77046327319357
10
124.04442616618768
20
-70.824285786650606
10
102.26029744964059
20
-70.824285786650606
10
2.0896828632555042
20
-70.824285786650606
10
-12.406530780476219
20
-65.107081881753587
10
-24.760074938334743
20
-53.682112160819443
10
-41.571550568351128
20
-32.352082506627653
10
-35.649464754729991
20
-27.684531502309557
10
-35.453118678210515
20
-27.529779383631293
10
-31.120059355219141
20
-33.027469526176397
10
-28.960252513504994
20
-31.325196220715497
10
-26.800445671790847
20
-29.622922915254598
10
-31.133504994782225
20
-24.125232772709499
10
-30.937158918262753
20
-23.970480654031235
10
-25.015073104641612
20
-19.302929649713143
10
-22.106737265360195
20
-22.992962045528529
0
LINE
5
101
100
AcDbEntity
8
0
100
AcDbLine
10
-19.440527396093987
20
-19.302929649713143
30
0
11
115.4761687330935
21
-19.302929649713143
31
0
0
LINE
5
102
100
AcDbEntity
8
0
100
AcDbLine
10
71.548050266113847
20
-30.387716690533875
30
0
11
115.4761687330935
21
-30.387716690533875
31
0
0
LINE
5
103
100
AcDbEntity
8
0
100
AcDbLine
10
-39.499171643100368
20
-34.981471199396303
30
0
11
115.4761687330935
21
-34.981471199396303
31
0
0
LINE
5
104
100
AcDbEntity
8
0
100
AcDbLine
10
72.006392191505455
20
-46.066471199396304
30
0
11
-30.762418324892529
21
-46.066471199396304
31
0
0
LINE
5
105
100
AcDbEntity
8
0
100
AcDbLine
10
72.006392191505455
20
-46.066471199396304
30
0
11
115.4761687330935
21
-46.066471199396304
31
0
0
LINE
5
106
100
AcDbEntity
8
0
100
AcDbLine
10
-28.960252513504994
20
-31.325196220715497
30
0
11
-27.770799153249769
21
-30.387716690533875
31
0
0
LINE
5
107
100
AcDbEntity
8
0
100
AcDbLine
10
71.548050266113847
20
-30.387716690533875
30
0
11
-27.770799153249769
21
-30.387716690533875
31
0
0
LINE
5
108
100
AcDbEntity
8
0
100
AcDbLine
10
-22.106737265360195
20
-22.992962045528529
30
0
11
-16.2784876323351
21
-30.387716690533875
31
0
0
LINE
5
109
100
AcDbEntity
8
0
100
AcDbLine
10
115.4761687330935
20
-30.387716690533875
30
0
11
137.26029744964057
21
-30.387716690533875
31
0
0
LINE
5
110
100
AcDbEntity
8
0
100
AcDbLine
10
115.4761687330935
20
-34.981471199396303
30
0
11
137.26029744964057
21
-34.981471199396303
31
0
0
LINE
5
111
100
AcDbEntity
8
0
100
AcDbLine
10
115.4761687330935
20
-46.066471199396304
30
0
11
137.26029744964057
21
-46.066471199396304
31
0
0
LINE
5
112
100
AcDbEntity
8
0
100
AcDbLine
10
115.4761687330935
20
-19.302929649713143
30
0
11
137.26029744964057
21
-19.302929649713143
31
0
0
LINE
5
113
100
AcDbEntity
8
0
100
AcDbLine
10
-28.960252513504994
20
-31.325196220715497
30
0
11
-31.120059355219141
21
-33.027469526176397
31
0
0
ENDSEC
0
SECTION
2
OBJECTS
0
DICTIONARY
5
C
100
AcDbDictionary
3
ACAD_GROUP
350
D
3
ACAD_MLINESTYLE
350
17
0
DICTIONARY
5
D
100
AcDbDictionary
0
DICTIONARY
5
1A
330
C
100
AcDbDictionary
0
DICTIONARY
5
17
100
AcDbDictionary
0
ENDSEC
0
EOF
