0
SECTION
2
HEADER
9
$INSUNITS
70
4
9
$ACADVER
1
AC1014
9
$HANDSEED
5
FFFF
0
ENDSEC
0
SECTION
2
TABLES
0
TABLE
2
VPORT
5
8
100
AcDbSymbolTable
0
ENDTAB
0
TABLE
2
LTYPE
5
5
100
AcDbSymbolTable
0
LTYPE
5
14
100
AcDbSymbolTableRecord
100
AcDbLinetypeTableRecord
2
BYBLOCK
70
0
0
LTYPE
5
15
100
AcDbSymbolTableRecord
100
AcDbLinetypeTableRecord
2
BYLAYER
70
0
0
ENDTAB
0
TABLE
2
LAYER
5
2
100
AcDbSymbolTable
70
2
0
LAYER
5
50
100
AcDbSymbolTableRecord
100
AcDbLayerTableRecord
2
0
70
0
6
CONTINUOUS
0
ENDTAB
0
TABLE
2
STYLE
5
3
100
AcDbSymbolTable
70
1
0
STYLE
5
11
100
AcDbSymbolTableRecord
100
AcDbTextStyleTableRecord
2
STANDARD
70
0
0
ENDTAB
0
TABLE
2
VIEW
5
6
100
AcDbSymbolTable
70
0
0
ENDTAB
0
TABLE
2
UCS
5
7
100
AcDbSymbolTable
70
0
0
ENDTAB
0
TABLE
2
APPID
5
9
100
AcDbSymbolTable
70
2
0
APPID
5
12
100
AcDbSymbolTableRecord
100
AcDbRegAppTableRecord
2
ACAD
70
0
0
ENDTAB
0
TABLE
2
DIMSTYLE
5
A
100
AcDbSymbolTable
70
1
0
ENDTAB
0
TABLE
2
BLOCK_RECORD
5
1
100
AcDbSymbolTable
70
1
0
BLOCK_RECORD
5
1F
100
AcDbSymbolTableRecord
100
AcDbBlockTableRecord
2
*MODEL_SPACE
0
BLOCK_RECORD
5
1B
100
AcDbSymbolTableRecord
100
AcDbBlockTableRecord
2
*PAPER_SPACE
0
ENDTAB
0
ENDSEC
0
SECTION
2
BLOCKS
0
BLOCK
5
20
100
AcDbEntity
100
AcDbBlockBegin
2
*MODEL_SPACE
0
ENDBLK
5
21
100
AcDbEntity
100
AcDbBlockEnd
0
BLOCK
5
1C
100
AcDbEntity
100
AcDbBlockBegin
2
*PAPER_SPACE
0
ENDBLK
5
1D
100
AcDbEntity
100
AcDbBlockEnd
0
ENDSEC
0
SECTION
2
ENTITIES
0
LINE
5
100
100
AcDbEntity
8
0
100
AcDbLine
10
50.682504940773029
20
-149.68724847996293
30
0
11
100.68250494077303
21
-149.68724847996293
31
0
0
LINE
5
101
100
AcDbEntity
8
0
100
AcDbLine
10
100.68250494077303
20
-149.68724847996293
30
0
11
100.68250494077303
21
-139.68724847996293
31
0
0
LINE
5
102
100
AcDbEntity
8
0
100
AcDbLine
10
100.68250494077303
20
-139.68724847996293
30
0
11
150.68250494077301
21
-139.68724847996293
31
0
0
LINE
5
103
100
AcDbEntity
8
0
100
AcDbLine
10
150.68250494077301
20
-139.68724847996293
30
0
11
150.68250494077301
21
-149.68724847996293
31
0
0
LINE
5
104
100
AcDbEntity
8
0
100
AcDbLine
10
150.68250494077301
20
-149.68724847996293
30
0
11
200.68250494077304
21
-149.68724847996293
31
0
0
LINE
5
105
100
AcDbEntity
8
0
100
AcDbLine
10
200.68250494077304
20
-149.68724847996293
30
0
11
200.68250494077304
21
-49.687248479962932
31
0
0
LINE
5
106
100
AcDbEntity
8
0
100
AcDbLine
10
200.68250494077304
20
-49.687248479962932
30
0
11
190.68250494077304
21
-49.687248479962932
31
0
0
LINE
5
107
100
AcDbEntity
8
0
100
AcDbLine
10
190.68250494077304
20
-49.687248479962932
30
0
11
190.68250494077304
21
50.312751520037068
31
0
0
LINE
5
108
100
AcDbEntity
8
0
100
AcDbLine
10
190.68250494077304
20
50.312751520037068
30
0
11
200.68250494077304
21
50.312751520037068
31
0
0
LINE
5
109
100
AcDbEntity
8
0
100
AcDbLine
10
200.68250494077304
20
50.312751520037068
30
0
11
200.68250494077304
21
150.31275152003707
31
0
0
LINE
5
110
100
AcDbEntity
8
0
100
AcDbLine
10
200.68250494077304
20
150.31275152003707
30
0
11
150.68250494077304
21
150.31275152003707
31
0
0
LINE
5
111
100
AcDbEntity
8
0
100
AcDbLine
10
150.68250494077304
20
150.31275152003707
30
0
11
150.68250494077304
21
140.31275152003707
31
0
0
LINE
5
112
100
AcDbEntity
8
0
100
AcDbLine
10
150.68250494077304
20
140.31275152003707
30
0
11
100.68250494077304
21
140.31275152003707
31
0
0
LINE
5
113
100
AcDbEntity
8
0
100
AcDbLine
10
100.68250494077304
20
140.31275152003707
30
0
11
100.68250494077304
21
150.31275152003707
31
0
0
LINE
5
114
100
AcDbEntity
8
0
100
AcDbLine
10
100.68250494077304
20
150.31275152003707
30
0
11
50.682504940773043
21
150.31275152003707
31
0
0
LINE
5
115
100
AcDbEntity
8
0
100
AcDbLine
10
50.682504940773043
20
150.31275152003707
30
0
11
50.682504940773043
21
50.312751520037068
31
0
0
LINE
5
116
100
AcDbEntity
8
0
100
AcDbLine
10
50.682504940773043
20
50.312751520037068
30
0
11
60.682504940773043
21
50.312751520037068
31
0
0
LINE
5
117
100
AcDbEntity
8
0
100
AcDbLine
10
60.682504940773043
20
50.312751520037068
30
0
11
60.682504940773043
21
-49.687248479962932
31
0
0
LINE
5
118
100
AcDbEntity
8
0
100
AcDbLine
10
60.682504940773043
20
-49.687248479962932
30
0
11
50.682504940773043
21
-49.687248479962932
31
0
0
LINE
5
119
100
AcDbEntity
8
0
100
AcDbLine
10
50.682504940773043
20
-49.687248479962932
30
0
11
50.682504940773043
21
-149.68724847996293
31
0
0
ENDSEC
0
SECTION
2
OBJECTS
0
DICTIONARY
5
C
100
AcDbDictionary
3
ACAD_GROUP
350
D
3
ACAD_MLINESTYLE
350
17
0
DICTIONARY
5
D
100
AcDbDictionary
0
DICTIONARY
5
1A
330
C
100
AcDbDictionary
0
DICTIONARY
5
17
100
AcDbDictionary
0
ENDSEC
0
EOF
