  0
SECTION
  2
HEADER
  9
$ACADVER
  1
AC1015
  9
$ACADMAINTVER
 70
    20
  9
$DWGCODEPAGE
  3
ANSI_1252
  9
$INSBASE
 10
0.0
 20
0.0
 30
0.0
  9
$EXTMIN
 10
-340.2918479037335
 20
422.1446018746623
 30
0.0
  9
$EXTMAX
 10
29.04148542867654
 20
722.1446018739121
 30
0.0
  9
$LIMMIN
 10
0.0
 20
0.0
  9
$LIMMAX
 10
420.0
 20
297.0
  9
$ORTHOMODE
 70
     0
  9
$REGENMODE
 70
     1
  9
$FILLMODE
 70
     1
  9
$QTEXTMODE
 70
     0
  9
$MIRRTEXT
 70
     0
  9
$LTSCALE
 40
1.0
  9
$ATTMODE
 70
     1
  9
$TEXTSIZE
 40
2.5
  9
$TRACEWID
 40
1.0
  9
$TEXTSTYLE
  7
Standard
  9
$CLAYER
  8
0
  9
$CELTYPE
  6
ByLayer
  9
$CECOLOR
 62
   256
  9
$CELTSCALE
 40
1.0
  9
$DISPSILH
 70
     0
  9
$DIMSCALE
 40
1.0
  9
$DIMASZ
 40
2.5
  9
$DIMEXO
 40
0.625
  9
$DIMDLI
 40
3.75
  9
$DIMRND
 40
0.0
  9
$DIMDLE
 40
0.0
  9
$DIMEXE
 40
1.25
  9
$DIMTP
 40
0.0
  9
$DIMTM
 40
0.0
  9
$DIMTXT
 40
2.5
  9
$DIMCEN
 40
2.5
  9
$DIMTSZ
 40
0.0
  9
$DIMTOL
 70
     0
  9
$DIMLIM
 70
     0
  9
$DIMTIH
 70
     0
  9
$DIMTOH
 70
     0
  9
$DIMSE1
 70
     0
  9
$DIMSE2
 70
     0
  9
$DIMTAD
 70
     1
  9
$DIMZIN
 70
     8
  9
$DIMBLK
  1

  9
$DIMASO
 70
     1
  9
$DIMSHO
 70
     1
  9
$DIMPOST
  1

  9
$DIMAPOST
  1

  9
$DIMALT
 70
     0
  9
$DIMALTD
 70
     3
  9
$DIMALTF
 40
0.03937007874016
  9
$DIMLFAC
 40
1.0
  9
$DIMTOFL
 70
     1
  9
$DIMTVP
 40
0.0
  9
$DIMTIX
 70
     0
  9
$DIMSOXD
 70
     0
  9
$DIMSAH
 70
     0
  9
$DIMBLK1
  1

  9
$DIMBLK2
  1

  9
$DIMSTYLE
  2
ISO-25
  9
$DIMCLRD
 70
     0
  9
$DIMCLRE
 70
     0
  9
$DIMCLRT
 70
     0
  9
$DIMTFAC
 40
1.0
  9
$DIMGAP
 40
0.625
  9
$DIMJUST
 70
     0
  9
$DIMSD1
 70
     0
  9
$DIMSD2
 70
     0
  9
$DIMTOLJ
 70
     0
  9
$DIMTZIN
 70
     8
  9
$DIMALTZ
 70
     0
  9
$DIMALTTZ
 70
     0
  9
$DIMUPT
 70
     0
  9
$DIMDEC
 70
     2
  9
$DIMTDEC
 70
     2
  9
$DIMALTU
 70
     2
  9
$DIMALTTD
 70
     3
  9
$DIMTXSTY
  7
Standard
  9
$DIMAUNIT
 70
     0
  9
$DIMADEC
 70
     0
  9
$DIMALTRND
 40
0.0
  9
$DIMAZIN
 70
     0
  9
$DIMDSEP
 70
    44
  9
$DIMATFIT
 70
     3
  9
$DIMFRAC
 70
     0
  9
$DIMLDRBLK
  1

  9
$DIMLUNIT
 70
     2
  9
$DIMLWD
 70
    -2
  9
$DIMLWE
 70
    -2
  9
$DIMTMOVE
 70
     0
  9
$LUNITS
 70
     2
  9
$LUPREC
 70
     4
  9
$SKETCHINC
 40
1.0
  9
$FILLETRAD
 40
40.0
  9
$AUNITS
 70
     0
  9
$AUPREC
 70
     0
  9
$MENU
  1
.
  9
$ELEVATION
 40
0.0
  9
$PELEVATION
 40
0.0
  9
$THICKNESS
 40
0.0
  9
$LIMCHECK
 70
     0
  9
$CHAMFERA
 40
0.0
  9
$CHAMFERB
 40
0.0
  9
$CHAMFERC
 40
0.0
  9
$CHAMFERD
 40
0.0
  9
$SKPOLY
 70
     0
  9
$TDCREATE
 40
2453766.821152697
  9
$TDUCREATE
 40
2453766.737819364
  9
$TDUPDATE
 40
2454577.406464294
  9
$TDUUPDATE
 40
2454577.323130961
  9
$TDINDWG
 40
0.0300207986
  9
$TDUSRTIMER
 40
0.0300206250
  9
$USRTIMER
 70
     1
  9
$ANGBASE
 50
0.0
  9
$ANGDIR
 70
     0
  9
$PDMODE
 70
     0
  9
$PDSIZE
 40
0.0
  9
$PLINEWID
 40
0.0
  9
$SPLFRAME
 70
     0
  9
$SPLINETYPE
 70
     6
  9
$SPLINESEGS
 70
     8
  9
$HANDSEED
  5
D58
  9
$SURFTAB1
 70
     6
  9
$SURFTAB2
 70
     6
  9
$SURFTYPE
 70
     6
  9
$SURFU
 70
     6
  9
$SURFV
 70
     6
  9
$UCSBASE
  2

  9
$UCSNAME
  2

  9
$UCSORG
 10
0.0
 20
0.0
 30
0.0
  9
$UCSXDIR
 10
1.0
 20
0.0
 30
0.0
  9
$UCSYDIR
 10
0.0
 20
1.0
 30
0.0
  9
$UCSORTHOREF
  2

  9
$UCSORTHOVIEW
 70
     0
  9
$UCSORGTOP
 10
0.0
 20
0.0
 30
0.0
  9
$UCSORGBOTTOM
 10
0.0
 20
0.0
 30
0.0
  9
$UCSORGLEFT
 10
0.0
 20
0.0
 30
0.0
  9
$UCSORGRIGHT
 10
0.0
 20
0.0
 30
0.0
  9
$UCSORGFRONT
 10
0.0
 20
0.0
 30
0.0
  9
$UCSORGBACK
 10
0.0
 20
0.0
 30
0.0
  9
$PUCSBASE
  2

  9
$PUCSNAME
  2

  9
$PUCSORG
 10
0.0
 20
0.0
 30
0.0
  9
$PUCSXDIR
 10
1.0
 20
0.0
 30
0.0
  9
$PUCSYDIR
 10
0.0
 20
1.0
 30
0.0
  9
$PUCSORTHOREF
  2

  9
$PUCSORTHOVIEW
 70
     0
  9
$PUCSORGTOP
 10
0.0
 20
0.0
 30
0.0
  9
$PUCSORGBOTTOM
 10
0.0
 20
0.0
 30
0.0
  9
$PUCSORGLEFT
 10
0.0
 20
0.0
 30
0.0
  9
$PUCSORGRIGHT
 10
0.0
 20
0.0
 30
0.0
  9
$PUCSORGFRONT
 10
0.0
 20
0.0
 30
0.0
  9
$PUCSORGBACK
 10
0.0
 20
0.0
 30
0.0
  9
$USERI1
 70
     0
  9
$USERI2
 70
     0
  9
$USERI3
 70
     0
  9
$USERI4
 70
     0
  9
$USERI5
 70
     0
  9
$USERR1
 40
0.0
  9
$USERR2
 40
0.0
  9
$USERR3
 40
0.0
  9
$USERR4
 40
0.0
  9
$USERR5
 40
0.0
  9
$WORLDVIEW
 70
     1
  9
$SHADEDGE
 70
     3
  9
$SHADEDIF
 70
    70
  9
$TILEMODE
 70
     1
  9
$MAXACTVP
 70
    64
  9
$PINSBASE
 10
0.0
 20
0.0
 30
0.0
  9
$PLIMCHECK
 70
     0
  9
$PEXTMIN
 10
0.0
 20
0.0
 30
0.0
  9
$PEXTMAX
 10
0.0
 20
0.0
 30
0.0
  9
$PLIMMIN
 10
0.0
 20
0.0
  9
$PLIMMAX
 10
12.0
 20
9.0
  9
$UNITMODE
 70
     0
  9
$VISRETAIN
 70
     1
  9
$PLINEGEN
 70
     0
  9
$PSLTSCALE
 70
     1
  9
$TREEDEPTH
 70
  3020
  9
$CMLSTYLE
  2
Standard
  9
$CMLJUST
 70
     0
  9
$CMLSCALE
 40
20.0
  9
$PROXYGRAPHICS
 70
     1
  9
$MEASUREMENT
 70
     1
  9
$CELWEIGHT
370
    -1
  9
$ENDCAPS
280
     0
  9
$JOINSTYLE
280
     0
  9
$LWDISPLAY
290
     0
  9
$INSUNITS
 70
     4
  9
$HYPERLINKBASE
  1

  9
$STYLESHEET
  1

  9
$XEDIT
290
     1
  9
$CEPSNTYPE
380
     0
  9
$PSTYLEMODE
290
     1
  9
$FINGERPRINTGUID
  2
{FA1CD0E0-EE85-4958-8D08-D50259C1C401}
  9
$VERSIONGUID
  2
{E1BE5142-E859-4C50-8A5C-F30D68C7520C}
  9
$EXTNAMES
290
     1
  9
$PSVPSCALE
 40
0.0
  9
$OLESTARTUP
290
     0
  0
ENDSEC
  0
SECTION
  2
CLASSES
  0
CLASS
  1
ACDBDICTIONARYWDFLT
  2
AcDbDictionaryWithDefault
  3
ObjectDBX Classes
 90
        0
280
     0
281
     0
  0
CLASS
  1
DICTIONARYVAR
  2
AcDbDictionaryVar
  3
ObjectDBX Classes
 90
        0
280
     0
281
     0
  0
CLASS
  1
TABLESTYLE
  2
AcDbTableStyle
  3
ObjectDBX Classes
 90
     2047
280
     0
281
     0
  0
CLASS
  1
SORTENTSTABLE
  2
AcDbSortentsTable
  3
ObjectDBX Classes
 90
        0
280
     0
281
     0
  0
CLASS
  1
DIMASSOC
  2
AcDbDimAssoc
  3
"AcDbDimAssoc|Product Desc:     AcDim ARX App For Dimension|Company:          Autodesk, Inc.|WEB Address:      www.autodesk.com"
 90
    32768
280
     0
281
     0
  0
CLASS
  1
ACDBPLACEHOLDER
  2
AcDbPlaceHolder
  3
ObjectDBX Classes
 90
        0
280
     0
281
     0
  0
CLASS
  1
LAYOUT
  2
AcDbLayout
  3
ObjectDBX Classes
 90
        0
280
     0
281
     0
  0
ENDSEC
  0
SECTION
  2
TABLES
  0
TABLE
  2
VPORT
  5
8
330
0
100
AcDbSymbolTable
 70
     2
  0
VPORT
  5
D4F
330
8
100
AcDbSymbolTableRecord
100
AcDbViewportTableRecord
  2
*Active
 70
     0
 10
0.0
 20
0.0
 11
1.0
 21
1.0
 12
-201.9253753404568
 22
558.2118362377813
 13
0.0
 23
0.0
 14
10.0
 24
10.0
 15
10.0
 25
10.0
 16
0.0
 26
0.0
 36
1.0
 17
0.0
 27
0.0
 37
0.0
 40
514.8553921567147
 41
1.916467780429594
 42
50.0
 43
0.0
 44
0.0
 50
0.0
 51
0.0
 71
     0
 72
  1000
 73
     1
 74
     3
 75
     0
 76
     0
 77
     0
 78
     0
281
     0
 65
     1
110
0.0
120
0.0
130
0.0
111
1.0
121
0.0
131
0.0
112
0.0
122
1.0
132
0.0
 79
     0
146
0.0
  0
ENDTAB
  0
TABLE
  2
LTYPE
  5
5
330
0
100
AcDbSymbolTable
 70
     1
  0
LTYPE
  5
14
330
5
100
AcDbSymbolTableRecord
100
AcDbLinetypeTableRecord
  2
ByBlock
 70
     0
  3

 72
    65
 73
     0
 40
0.0
  0
LTYPE
  5
15
330
5
100
AcDbSymbolTableRecord
100
AcDbLinetypeTableRecord
  2
ByLayer
 70
     0
  3

 72
    65
 73
     0
 40
0.0
  0
LTYPE
  5
16
330
5
100
AcDbSymbolTableRecord
100
AcDbLinetypeTableRecord
  2
Continuous
 70
     0
  3
Solid line
 72
    65
 73
     0
 40
0.0
  0
ENDTAB
  0
TABLE
  2
LAYER
  5
2
330
0
100
AcDbSymbolTable
 70
     4
  0
LAYER
  5
10
330
2
100
AcDbSymbolTableRecord
100
AcDbLayerTableRecord
  2
0
 70
     0
 62
     7
  6
Continuous
370
    -3
390
F
  0
LAYER
  5
EE
330
2
100
AcDbSymbolTableRecord
100
AcDbLayerTableRecord
  2
Defpoints
 70
     0
 62
     7
  6
Continuous
290
     0
370
    -3
390
F
  0
LAYER
  5
2B4
330
2
100
AcDbSymbolTableRecord
100
AcDbLayerTableRecord
  2
WHITE
 70
     0
 62
     7
  6
Continuous
370
    -3
390
F
  0
LAYER
  5
2B5
330
2
100
AcDbSymbolTableRecord
100
AcDbLayerTableRecord
  2
CYAN
 70
     0
 62
     7
  6
Continuous
370
    -3
390
F
  0
ENDTAB
  0
TABLE
  2
STYLE
  5
3
330
0
100
AcDbSymbolTable
 70
     1
  0
STYLE
  5
11
330
3
100
AcDbSymbolTableRecord
100
AcDbTextStyleTableRecord
  2
Standard
 70
     0
 40
0.0
 41
1.0
 50
0.0
 71
     0
 42
2.5
  3
txt
  4

  0
ENDTAB
  0
TABLE
  2
VIEW
  5
6
330
0
100
AcDbSymbolTable
 70
     0
  0
ENDTAB
  0
TABLE
  2
UCS
  5
7
330
0
100
AcDbSymbolTable
 70
     0
  0
ENDTAB
  0
TABLE
  2
APPID
  5
9
330
0
100
AcDbSymbolTable
 70
     2
  0
APPID
  5
12
330
9
100
AcDbSymbolTableRecord
100
AcDbRegAppTableRecord
  2
ACAD
 70
     0
  0
APPID
  5
9E
330
9
100
AcDbSymbolTableRecord
100
AcDbRegAppTableRecord
  2
ACAD_PSEXT
 70
     0
  0
ENDTAB
  0
TABLE
  2
DIMSTYLE
  5
A
330
0
100
AcDbSymbolTable
 70
     2
100
AcDbDimStyleTable
 71
     1
340
27
  0
DIMSTYLE
105
27
330
A
100
AcDbSymbolTableRecord
100
AcDbDimStyleTableRecord
  2
ISO-25
 70
     0
 41
2.5
 42
0.625
 43
3.75
 44
1.25
 73
     0
 74
     0
 77
     1
 78
     8
140
2.5
141
2.5
143
0.03937007874016
147
0.625
171
     3
172
     1
271
     2
272
     2
274
     3
278
    44
283
     0
284
     8
340
11
  0
DIMSTYLE
105
2B6
330
A
100
AcDbSymbolTableRecord
100
AcDbDimStyleTableRecord
  2
Standard
 70
     0
340
11
  0
ENDTAB
  0
TABLE
  2
BLOCK_RECORD
  5
1
330
0
100
AcDbSymbolTable
 70
     1
  0
BLOCK_RECORD
  5
1F
102
{ACAD_XDICTIONARY
360
13E
102
}
330
1
100
AcDbSymbolTableRecord
100
AcDbBlockTableRecord
  2
*Model_Space
340
22
  0
BLOCK_RECORD
  5
D2
330
1
100
AcDbSymbolTableRecord
100
AcDbBlockTableRecord
  2
*Paper_Space
340
D3
  0
BLOCK_RECORD
  5
D6
330
1
100
AcDbSymbolTableRecord
100
AcDbBlockTableRecord
  2
*Paper_Space0
340
D7
  0
ENDTAB
  0
ENDSEC
  0
SECTION
  2
BLOCKS
  0
BLOCK
  5
20
330
1F
100
AcDbEntity
  8
0
100
AcDbBlockBegin
  2
*Model_Space
 70
     0
 10
0.0
 20
0.0
 30
0.0
  3
*Model_Space
  1

  0
ENDBLK
  5
21
330
1F
100
AcDbEntity
  8
0
100
AcDbBlockEnd
  0
BLOCK
  5
D4
330
D2
100
AcDbEntity
 67
     1
  8
0
100
AcDbBlockBegin
  2
*Paper_Space
 70
     0
 10
0.0
 20
0.0
 30
0.0
  3
*Paper_Space
  1

  0
ENDBLK
  5
D5
330
D2
100
AcDbEntity
 67
     1
  8
0
100
AcDbBlockEnd
  0
BLOCK
  5
D8
330
D6
100
AcDbEntity
 67
     1
  8
0
100
AcDbBlockBegin
  2
*Paper_Space0
 70
     0
 10
0.0
 20
0.0
 30
0.0
  3
*Paper_Space0
  1

  0
ENDBLK
  5
D9
330
D6
100
AcDbEntity
 67
     1
  8
0
100
AcDbBlockEnd
  0
ENDSEC
  0
SECTION
  2
ENTITIES
  0
LINE
  5
7DB
330
1F
100
AcDbEntity
  8
WHITE
100
AcDbLine
 10
11.68421340671992
 20
696.6152263739761
 30
0.0
 11
8.752436740060602
 21
696.9950637073085
 31
0.0
  0
LINE
  5
7DC
330
1F
100
AcDbEntity
  8
WHITE
100
AcDbLine
 10
-59.44184659310224
 20
663.9701463740578
 30
0.0
 11
-57.54162125977368
 21
665.3809710407207
 31
0.0
  0
LINE
  5
7DD
330
1F
100
AcDbEntity
  8
WHITE
100
AcDbLine
 10
-60.47339792643301
 20
666.3576963740517
 30
0.0
 11
-60.96258125976513
 21
664.9468710407219
 31
0.0
  0
LINE
  5
7DE
330
1F
100
AcDbEntity
  8
WHITE
100
AcDbLine
 10
-70.69306725974081
 20
660.2531643740669
 30
0.0
 11
-74.00544325973256
 21
658.1372697074057
 31
0.0
  0
LINE
  5
7DF
330
1F
100
AcDbEntity
  8
WHITE
100
AcDbLine
 10
-68.19562725974704
 20
661.5554643740637
 30
0.0
 11
-70.69306725974081
 21
660.2531643740669
 31
0.0
  0
LINE
  5
7E0
330
1F
100
AcDbEntity
  8
WHITE
100
AcDbLine
 10
-65.9153565930861
 20
662.6407150407277
 30
0.0
 11
-68.19562725974704
 21
661.5554643740637
 31
0.0
  0
LINE
  5
7E1
330
1F
100
AcDbEntity
  8
WHITE
100
AcDbLine
 10
-64.66663659308925
 20
662.749239707394
 30
0.0
 11
-65.9153565930861
 21
662.6407150407277
 31
0.0
  0
LINE
  5
7E2
330
1F
100
AcDbEntity
  8
WHITE
100
AcDbLine
 10
-64.34088392642336
 20
661.9895643740626
 30
0.0
 11
-64.66663659308925
 21
662.749239707394
 31
0.0
  0
LINE
  5
7E3
330
1F
100
AcDbEntity
  8
WHITE
100
AcDbLine
 10
-64.28659192642354
 20
661.0671017073983
 30
0.0
 11
-64.34088392642336
 21
661.9895643740626
 31
0.0
  0
LINE
  5
7E4
330
1F
100
AcDbEntity
  8
WHITE
100
AcDbLine
 10
-131.0172025929233
 20
615.2657677075127
 30
0.0
 11
-129.1712692595946
 21
615.8083930408447
 31
0.0
  0
LINE
  5
7E5
330
1F
100
AcDbEntity
  8
WHITE
100
AcDbLine
 10
-131.6687085929216
 20
615.5913430408453
 30
0.0
 11
-131.0172025929233
 21
615.2657677075127
 31
0.0
  0
LINE
  5
7E6
330
1F
100
AcDbEntity
  8
WHITE
100
AcDbLine
 10
-131.8315852595879
 20
616.4052803741768
 30
0.0
 11
-131.6687085929216
 21
615.5913430408453
 31
0.0
  0
LINE
  5
7E7
330
1F
100
AcDbEntity
  8
WHITE
100
AcDbLine
 10
-131.7230005929215
 20
617.3273997075077
 30
0.0
 11
-131.8315852595879
 21
616.4052803741768
 31
0.0
  0
LINE
  5
7E8
330
1F
100
AcDbEntity
  8
WHITE
100
AcDbLine
 10
-129.4427299262605
 20
618.412649707505
 30
0.0
 11
-131.7230005929215
 21
617.3273997075077
 31
0.0
  0
LINE
  5
7E9
330
1F
100
AcDbEntity
  8
WHITE
100
AcDbLine
 10
-26.23775592651865
 20
654.9481457074135
 30
0.0
 11
-24.01177725985752
 21
655.1651957074129
 31
0.0
  0
LINE
  5
7EA
330
1F
100
AcDbEntity
  8
WHITE
100
AcDbLine
 10
-69.37509725974412
 20
649.1365623740947
 30
0.0
 11
-71.92682859307106
 21
646.8036177074338
 31
0.0
  0
LINE
  5
7EB
330
1F
100
AcDbEntity
  8
WHITE
100
AcDbLine
 10
-25.20786659318786
 20
678.0797717073556
 30
0.0
 11
-26.29426392651847
 21
675.8553523740281
 31
0.0
  0
LINE
  5
7EC
330
1F
100
AcDbEntity
  8
WHITE
100
AcDbLine
 10
-49.42383459312729
 20
663.5923690407252
 30
0.0
 11
-51.10744525978979
 21
663.212531707393
 31
0.0
  0
LINE
  5
7ED
330
1F
100
AcDbEntity
  8
WHITE
100
AcDbLine
 10
-51.10744525978979
 20
663.212531707393
 30
0.0
 11
-51.97611992645427
 21
663.8636817073914
 31
0.0
  0
LINE
  5
7EE
330
1F
100
AcDbEntity
  8
WHITE
100
AcDbLine
 10
-51.97611992645427
 20
663.8636817073914
 30
0.0
 11
-51.92182792645436
 21
665.1659817073881
 31
0.0
  0
LINE
  5
7EF
330
1F
100
AcDbEntity
  8
WHITE
100
AcDbLine
 10
-7.373444593232477
 20
674.6399410406977
 30
0.0
 11
-4.333083259906714
 21
674.5856783740312
 31
0.0
  0
LINE
  5
7F0
330
1F
100
AcDbEntity
  8
WHITE
100
AcDbLine
 10
-16.82083525987548
 20
680.5542110406829
 30
0.0
 11
-7.373444593232477
 21
674.6399410406977
 31
0.0
  0
LINE
  5
7F1
330
1F
100
AcDbEntity
  8
WHITE
100
AcDbLine
 10
-17.47234125987384
 20
683.213073707343
 30
0.0
 11
-16.82083525987548
 21
680.5542110406829
 31
0.0
  0
LINE
  5
7F2
330
1F
100
AcDbEntity
  8
WHITE
100
AcDbLine
 10
-16.16932925987711
 20
684.5153737073396
 30
0.0
 11
-17.47234125987384
 21
683.213073707343
 31
0.0
  0
LINE
  5
7F3
330
1F
100
AcDbEntity
  8
WHITE
100
AcDbLine
 10
12.68751074005075
 20
712.37814170727
 30
0.0
 11
8.995643406726685
 21
712.2242830406038
 31
0.0
  0
LINE
  5
7F4
330
1F
100
AcDbEntity
  8
WHITE
100
AcDbLine
 10
14.37998540671319
 20
701.7701643739633
 30
0.0
 11
16.22591940670861
 21
702.8464857072938
 31
0.0
  0
LINE
  5
7F5
330
1F
100
AcDbEntity
  8
WHITE
100
AcDbLine
 10
0.5343754067478132
 20
701.616649707297
 30
0.0
 11
2.688334073409038
 21
701.0015603739653
 31
0.0
  0
LINE
  5
7F6
330
1F
100
AcDbEntity
  8
WHITE
100
AcDbLine
 10
-0.3885912599165522
 20
702.8464857072938
 30
0.0
 11
0.5343754067478132
 21
701.616649707297
 31
0.0
  0
LINE
  5
7F7
330
1F
100
AcDbEntity
  8
WHITE
100
AcDbLine
 10
0.0728920734156304
 20
707.9196863739479
 30
0.0
 11
-0.3885912599165522
 21
702.8464857072938
 31
0.0
  0
LINE
  5
7F8
330
1F
100
AcDbEntity
  8
WHITE
100
AcDbLine
 10
0.9958587400799103
 20
709.7646117072764
 30
0.0
 11
0.0728920734156304
 21
707.9196863739479
 31
0.0
  0
LINE
  5
7F9
330
1F
100
AcDbEntity
  8
WHITE
100
AcDbLine
 10
-53.8985059264495
 20
644.2378257074404
 30
0.0
 11
-53.8985059264495
 21
645.8114383741031
 31
0.0
  0
LINE
  5
7FA
330
1F
100
AcDbEntity
  8
WHITE
100
AcDbLine
 10
-52.75837059311895
 20
636.0445303741276
 30
0.0
 11
-52.59549392645276
 21
638.1607683741222
 31
0.0
  0
LINE
  5
7FB
330
1F
100
AcDbEntity
  8
WHITE
100
AcDbLine
 10
-54.71288859311407
 20
635.0135430407967
 30
0.0
 11
-52.75837059311895
 21
636.0445303741276
 31
0.0
  0
LINE
  5
7FC
330
1F
100
AcDbEntity
  8
WHITE
100
AcDbLine
 10
-61.82571592642965
 20
633.9825550407993
 30
0.0
 11
-59.92549059310103
 21
633.6027177074669
 31
0.0
  0
LINE
  5
7FD
330
1F
100
AcDbEntity
  8
WHITE
100
AcDbLine
 10
-46.35134125980164
 20
650.9660330407569
 30
0.0
 11
-49.012211259795
 21
649.5009457074273
 31
0.0
  0
LINE
  5
7FE
330
1F
100
AcDbEntity
  8
WHITE
100
AcDbLine
 10
-49.012211259795
 20
649.5009457074273
 30
0.0
 11
-49.60942525979354
 21
649.2296330407612
 31
0.0
  0
LINE
  5
7FF
330
1F
100
AcDbEntity
  8
WHITE
100
AcDbLine
 10
-49.60942525979354
 20
649.2296330407612
 30
0.0
 11
-49.93517792645936
 21
647.8730703740981
 31
0.0
  0
LINE
  5
800
330
1F
100
AcDbEntity
  8
WHITE
100
AcDbLine
 10
-32.01765525983752
 20
651.345871040756
 30
0.0
 11
-33.91788125983275
 21
652.0512830407542
 31
0.0
  0
LINE
  5
801
330
1F
100
AcDbEntity
  8
WHITE
100
AcDbLine
 10
-31.42044192650565
 20
650.3148830407585
 30
0.0
 11
-32.01765525983752
 21
651.345871040756
 31
0.0
  0
LINE
  5
802
330
1F
100
AcDbEntity
  8
WHITE
100
AcDbLine
 10
-31.52902592650536
 20
649.2838957074277
 30
0.0
 11
-31.42044192650565
 21
650.3148830407585
 31
0.0
  0
LINE
  5
803
330
1F
100
AcDbEntity
  8
WHITE
100
AcDbLine
 10
-48.03495192646413
 20
639.0286250407868
 30
0.0
 11
-46.56906392646777
 21
639.2999377074527
 31
0.0
  0
LINE
  5
804
330
1F
100
AcDbEntity
  8
WHITE
100
AcDbLine
 10
-48.74075059312899
 20
639.842562374118
 30
0.0
 11
-48.03495192646413
 21
639.0286250407868
 31
0.0
  0
LINE
  5
805
330
1F
100
AcDbEntity
  8
WHITE
100
AcDbLine
 10
-10.59108592655775
 20
671.7334623740383
 30
0.0
 11
-9.179489926561302
 21
670.2141123740423
 31
0.0
  0
LINE
  5
806
330
1F
100
AcDbEntity
  8
WHITE
100
AcDbLine
 10
-9.722411926559942
 20
667.8811677073813
 30
0.0
 11
-11.94839059322098
 21
666.090505040719
 31
0.0
  0
LINE
  5
807
330
1F
100
AcDbEntity
  8
WHITE
100
AcDbLine
 10
-11.94839059322098
 20
666.090505040719
 30
0.0
 11
-13.30569459321762
 21
664.6796797073894
 31
0.0
  0
LINE
  5
808
330
1F
100
AcDbEntity
  8
WHITE
100
AcDbLine
 10
-13.30569459321762
 20
664.6796797073894
 30
0.0
 11
-15.36935059321243
 21
664.1913177073905
 31
0.0
  0
LINE
  5
809
330
1F
100
AcDbEntity
  8
WHITE
100
AcDbLine
 10
-25.73970859318655
 20
667.2842803740493
 30
0.0
 11
-26.11975325985227
 21
668.9664183740452
 31
0.0
  0
LINE
  5
80A
330
1F
100
AcDbEntity
  8
WHITE
100
AcDbLine
 10
-77.49953192639046
 20
637.8046277074566
 30
0.0
 11
-74.78492325973059
 21
638.021677707456
 31
0.0
  0
LINE
  5
80B
330
1F
100
AcDbEntity
  8
WHITE
100
AcDbLine
 10
-74.78492325973059
 20
638.021677707456
 30
0.0
 11
-71.25537859307276
 21
636.2313583741271
 31
0.0
  0
LINE
  5
80C
330
1F
100
AcDbEntity
  8
WHITE
100
AcDbLine
 10
-80.81190792638219
 20
626.0303503741526
 30
0.0
 11
-82.44067259304477
 21
626.518713040818
 31
0.0
  0
LINE
  5
80D
330
1F
100
AcDbEntity
  8
WHITE
100
AcDbLine
 10
-84.23231459304027
 20
632.9756077074685
 30
0.0
 11
-83.36363992637579
 21
634.7120083741307
 31
0.0
  0
LINE
  5
80E
330
1F
100
AcDbEntity
  8
WHITE
100
AcDbLine
 10
-102.6384665929942
 20
623.8598497074914
 30
0.0
 11
-90.63934392635756
 21
630.5880577074746
 31
0.0
  0
LINE
  5
80F
330
1F
100
AcDbEntity
  8
WHITE
100
AcDbLine
 10
-87.92418125969774
 20
630.7508450408074
 30
0.0
 11
-87.32696792636593
 21
629.5570697074772
 31
0.0
  0
LINE
  5
810
330
1F
100
AcDbEntity
  8
WHITE
100
AcDbLine
 10
-87.32696792636593
 20
629.5570697074772
 30
0.0
 11
-86.34970859303498
 21
625.9218250408196
 31
0.0
  0
LINE
  5
811
330
1F
100
AcDbEntity
  8
WHITE
100
AcDbLine
 10
-97.3721259263408
 20
619.8447677075013
 30
0.0
 11
-99.86956592633458
 21
619.8447677075013
 31
0.0
  0
LINE
  5
812
330
1F
100
AcDbEntity
  8
WHITE
100
AcDbLine
 10
-99.86956592633458
 20
619.8447677075013
 30
0.0
 11
-103.3985565929923
 21
621.8521370408297
 31
0.0
  0
LINE
  5
813
330
1F
100
AcDbEntity
  8
WHITE
100
AcDbLine
 10
-103.3985565929923
 20
621.8521370408297
 30
0.0
 11
-103.6157252596585
 21
623.0459123741601
 31
0.0
  0
LINE
  5
814
330
1F
100
AcDbEntity
  8
WHITE
100
AcDbLine
 10
-5.745787259903181
 20
706.8845777072838
 30
0.0
 11
-4.388483259906593
 21
706.2334277072855
 31
0.0
  0
LINE
  5
815
330
1F
100
AcDbEntity
  8
WHITE
100
AcDbLine
 10
-23.44614125985891
 20
695.3273503739794
 30
0.0
 11
-25.29207525985431
 21
695.6529257073117
 31
0.0
  0
LINE
  5
816
330
1F
100
AcDbEntity
  8
WHITE
100
AcDbLine
 10
-25.29207525985431
 20
695.6529257073117
 30
0.0
 11
-25.5635359265203
 21
696.5750443739763
 31
0.0
  0
LINE
  5
817
330
1F
100
AcDbEntity
  8
WHITE
100
AcDbLine
 10
-87.68706859303165
 20
649.8739143740927
 30
0.0
 11
-88.75185992636238
 21
650.2791657074252
 31
0.0
  0
LINE
  5
818
330
1F
100
AcDbEntity
  8
WHITE
100
AcDbLine
 10
-87.43388992636559
 20
648.8611283740955
 30
0.0
 11
-87.68706859303165
 21
649.8739143740927
 31
0.0
  0
LINE
  5
819
330
1F
100
AcDbEntity
  8
WHITE
100
AcDbLine
 10
-88.54909525969617
 20
647.2909503740996
 30
0.0
 11
-87.43388992636559
 21
648.8611283740955
 31
0.0
  0
LINE
  5
81A
330
1F
100
AcDbEntity
  8
WHITE
100
AcDbLine
 10
-112.4919399263029
 20
619.4992737075022
 30
0.0
 11
-125.8489205929362
 21
613.3679537075177
 31
0.0
  0
LINE
  5
81B
330
1F
100
AcDbEntity
  8
WHITE
100
AcDbLine
 10
-125.8489205929362
 20
613.3679537075177
 30
0.0
 11
-126.337550592935
 21
613.0966410408516
 31
0.0
  0
LINE
  5
81C
330
1F
100
AcDbEntity
  8
WHITE
100
AcDbLine
 10
-126.337550592935
 20
613.0966410408516
 30
0.0
 11
-126.3918425929348
 21
612.0113910408544
 31
0.0
  0
LINE
  5
81D
330
1F
100
AcDbEntity
  8
WHITE
100
AcDbLine
 10
-126.3918425929348
 20
612.0113910408544
 30
0.0
 11
-126.2289659262686
 21
611.0346657075234
 31
0.0
  0
LINE
  5
81E
330
1F
100
AcDbEntity
  8
WHITE
100
AcDbLine
 10
-126.2289659262686
 20
611.0346657075234
 30
0.0
 11
-125.5774599262702
 21
610.3292530408586
 31
0.0
  0
LINE
  5
81F
330
1F
100
AcDbEntity
  8
WHITE
100
AcDbLine
 10
-125.5774599262702
 20
610.3292530408586
 30
0.0
 11
-124.3287399262733
 21
610.0036783741927
 31
0.0
  0
LINE
  5
820
330
1F
100
AcDbEntity
  8
WHITE
100
AcDbLine
 10
-129.3657232595941
 20
624.6315450408227
 30
0.0
 11
-127.5408419262653
 21
627.2148530408162
 31
0.0
  0
LINE
  5
821
330
1F
100
AcDbEntity
  8
WHITE
100
AcDbLine
 10
-123.8412185929412
 20
624.8341710408221
 30
0.0
 11
-127.2876632595993
 21
623.2639923741594
 31
0.0
  0
LINE
  5
822
330
1F
100
AcDbEntity
  8
WHITE
100
AcDbLine
 10
-127.2876632595993
 20
623.2639923741594
 30
0.0
 11
-128.7070152595957
 21
623.0108823741602
 31
0.0
  0
LINE
  5
823
330
1F
100
AcDbEntity
  8
WHITE
100
AcDbLine
 10
-128.7070152595957
 20
623.0108823741602
 30
0.0
 11
-129.3657232595941
 21
623.4666183741591
 31
0.0
  0
LINE
  5
824
330
1F
100
AcDbEntity
  8
WHITE
100
AcDbLine
 10
-129.3657232595941
 20
623.4666183741591
 30
0.0
 11
-129.3657232595941
 21
624.6315450408227
 31
0.0
  0
LINE
  5
825
330
1F
100
AcDbEntity
  8
WHITE
100
AcDbLine
 10
-69.06707192641156
 20
612.7367230408525
 30
0.0
 11
-61.17983875309795
 21
615.602871137912
 31
0.0
  0
LINE
  5
826
330
1F
100
AcDbEntity
  8
WHITE
100
AcDbLine
 10
-61.17983875309795
 20
615.602871137912
 30
0.0
 11
-57.33664059310757
 21
615.5195650408455
 31
0.0
  0
LINE
  5
827
330
1F
100
AcDbEntity
  8
WHITE
100
AcDbLine
 10
-80.70276925971578
 20
582.0365070409292
 30
0.0
 11
-76.95383992639183
 21
583.5352510409253
 31
0.0
  0
LINE
  5
828
330
1F
100
AcDbEntity
  8
WHITE
100
AcDbLine
 10
-83.70213459304162
 20
595.9929610408941
 30
0.0
 11
-73.48578925973381
 21
603.7672677075414
 31
0.0
  0
LINE
  5
829
330
1F
100
AcDbEntity
  8
WHITE
100
AcDbLine
 10
3.306600073407508
 20
582.9074543742604
 30
0.0
 11
-7.950159926564309
 21
582.5523443742611
 31
0.0
  0
LINE
  5
82A
330
1F
100
AcDbEntity
  8
WHITE
100
AcDbLine
 10
-7.950159926564309
 20
582.5523443742611
 30
0.0
 11
-15.60102160334523
 21
584.2145052429238
 31
0.0
  0
LINE
  5
82B
330
1F
100
AcDbEntity
  8
WHITE
100
AcDbLine
 10
-34.11288992649892
 20
589.7823083742432
 30
0.0
 11
-37.66791859315671
 21
589.9007930409095
 31
0.0
  0
LINE
  5
82C
330
1F
100
AcDbEntity
  8
WHITE
100
AcDbLine
 10
-39.80082525981807
 20
581.1380850409314
 30
0.0
 11
-24.93031192652188
 21
581.1380850409314
 31
0.0
  0
LINE
  5
82D
330
1F
100
AcDbEntity
  8
WHITE
100
AcDbLine
 10
-41.6966185931466
 20
581.5526090409305
 30
0.0
 11
-39.80082525981807
 21
581.1380850409314
 31
0.0
  0
LINE
  5
82E
330
1F
100
AcDbEntity
  8
WHITE
100
AcDbLine
 10
-41.34094992648083
 20
587.5915457075819
 30
0.0
 11
-42.40740325981152
 21
584.6905617075893
 31
0.0
  0
LINE
  5
82F
330
1F
100
AcDbEntity
  8
WHITE
100
AcDbLine
 10
-26.75685525985068
 20
618.0650950408391
 30
0.0
 11
-32.68134925983587
 21
613.2693883741843
 31
0.0
  0
LINE
  5
830
330
1F
100
AcDbEntity
  8
WHITE
100
AcDbLine
 10
-23.08326992652647
 20
607.1710377075333
 30
0.0
 11
-19.11384792653644
 21
615.0456270408467
 31
0.0
  0
LINE
  5
831
330
1F
100
AcDbEntity
  8
WHITE
100
AcDbLine
 10
-32.20712392650368
 20
609.9538803741928
 30
0.0
 11
-24.97906392652176
 21
606.283262374202
 31
0.0
  0
LINE
  5
832
330
1F
100
AcDbEntity
  8
WHITE
100
AcDbLine
 10
-77.51615192639047
 20
608.5444290408631
 30
0.0
 11
-79.20308725971954
 21
608.4506717075297
 31
0.0
  0
LINE
  5
833
330
1F
100
AcDbEntity
  8
WHITE
100
AcDbLine
 10
-78.35989659305493
 20
605.6406977075369
 30
0.0
 11
-77.14109259305806
 21
606.5772410408677
 31
0.0
  0
LINE
  5
834
330
1F
100
AcDbEntity
  8
WHITE
100
AcDbLine
 10
-89.32580592636091
 20
598.1473203742222
 30
0.0
 11
-86.88875259303367
 21
599.2713783742194
 31
0.0
  0
LINE
  5
835
330
1F
100
AcDbEntity
  8
WHITE
100
AcDbLine
 10
-37.83578125982296
 20
614.5129610408481
 30
0.0
 11
-32.50351459316966
 21
618.2429937075055
 31
0.0
  0
LINE
  5
836
330
1F
100
AcDbEntity
  8
WHITE
100
AcDbLine
 10
-47.1961939264662
 20
616.8218650408423
 30
0.0
 11
-40.79802792648218
 21
614.3944770408482
 31
0.0
  0
LINE
  5
837
330
1F
100
AcDbEntity
  8
WHITE
100
AcDbLine
 10
-132.2310205929203
 20
590.8270330409074
 30
0.0
 11
-132.2310205929203
 21
589.6092177075769
 31
0.0
  0
LINE
  5
838
330
1F
100
AcDbEntity
  8
WHITE
100
AcDbLine
 10
-132.2310205929203
 20
589.6092177075769
 30
0.0
 11
-132.6997059262524
 21
588.9536030409118
 31
0.0
  0
LINE
  5
839
330
1F
100
AcDbEntity
  8
WHITE
100
AcDbLine
 10
-132.6997059262524
 20
588.9536030409118
 30
0.0
 11
-134.6680739262475
 21
588.6726743742459
 31
0.0
  0
LINE
  5
83A
330
1F
100
AcDbEntity
  8
WHITE
100
AcDbLine
 10
-134.6680739262475
 20
588.6726743742459
 30
0.0
 11
-142.3537392595616
 21
588.4851597075797
 31
0.0
  0
ARC
  5
83B
330
1F
100
AcDbEntity
  8
CYAN
100
AcDbCircle
 10
-79.57990339118521
 20
560.2781478753836
 30
0.0
 40
82.34545599832747
100
AcDbArc
 50
113.7089640905994
 51
125.6220442635005
  0
ARC
  5
83C
330
1F
100
AcDbEntity
  8
CYAN
100
AcDbCircle
 10
-112.8142436095021
 20
633.2129145697347
 30
0.0
 40
2.463828669327173
100
AcDbArc
 50
328.4950927950006
 51
87.11586413919979
  0
LINE
  5
83D
330
1F
100
AcDbEntity
  8
CYAN
100
AcDbLine
 10
-110.7135945929741
 20
631.9253877074713
 30
0.0
 11
-123.8412185929412
 21
624.8341710408221
 31
0.0
  0
LINE
  5
83E
330
1F
100
AcDbEntity
  8
CYAN
100
AcDbLine
 10
-88.75185992636238
 20
650.2791657074252
 30
0.0
 11
-108.1131105929805
 21
638.6800397074542
 31
0.0
  0
ARC
  5
83F
330
1F
100
AcDbEntity
  8
CYAN
100
AcDbCircle
 10
-105.2719741865876
 20
638.2323874969221
 30
0.0
 40
2.876186464926142
100
AcDbArc
 50
171.0460325620005
 51
290.5760546671988
  0
ARC
  5
840
330
1F
100
AcDbEntity
  8
CYAN
100
AcDbCircle
 10
-137.9534616150393
 20
696.9675672637086
 30
0.0
 40
70.06109962435818
100
AcDbArc
 50
298.744144419598
 51
314.8425654771011
  0
ARC
  5
841
330
1F
100
AcDbEntity
  8
CYAN
100
AcDbCircle
 10
-170.189266951892
 20
733.820841083883
 30
0.0
 40
122.390076870494
100
AcDbArc
 50
289.446318541099
 51
321.8020728347011
  0
ARC
  5
842
330
1F
100
AcDbEntity
  8
CYAN
100
AcDbCircle
 10
-170.3038310442918
 20
743.917638786258
 30
0.0
 40
134.5506093796636
100
AcDbArc
 50
287.8004795396013
 51
321.9930230556995
  0
ARC
  5
843
330
1F
100
AcDbEntity
  8
CYAN
100
AcDbCircle
 10
-106.4129078567181
 20
617.74563876084
 30
0.0
 40
1.249772062530208
100
AcDbArc
 50
280.0855722199992
 51
38.43607169280002
  0
ARC
  5
844
330
1F
100
AcDbEntity
  8
CYAN
100
AcDbCircle
 10
-109.4234670063106
 20
615.6831324433786
 30
0.0
 40
4.896780596254425
100
AcDbArc
 50
35.44024735949792
 51
128.8019748458998
  0
ARC
  5
845
330
1F
100
AcDbEntity
  8
CYAN
100
AcDbCircle
 10
12.34971165391829
 20
257.8593364884063
 30
0.0
 40
377.7388471530557
100
AcDbArc
 50
108.2898734741983
 51
111.2128211765989
  0
ARC
  5
846
330
1F
100
AcDbEntity
  8
CYAN
100
AcDbCircle
 10
-89.13672739502803
 20
628.2503801433469
 30
0.0
 40
2.778955349326384
100
AcDbArc
 50
64.12994171289859
 51
122.7321705998011
  0
LINE
  5
847
330
1F
100
AcDbEntity
  8
CYAN
100
AcDbLine
 10
-103.6157252596585
 20
623.0459123741601
 30
0.0
 11
-102.6384665929942
 21
623.8598497074914
 31
0.0
  0
LINE
  5
848
330
1F
100
AcDbEntity
  8
CYAN
100
AcDbLine
 10
-87.76130525969811
 20
623.3714877074926
 30
0.0
 11
-97.3721259263408
 21
619.8447677075013
 31
0.0
  0
ARC
  5
849
330
1F
100
AcDbEntity
  8
CYAN
100
AcDbCircle
 10
-89.50364099662706
 20
626.0016841377527
 30
0.0
 40
3.154943277058778
100
AcDbArc
 50
303.5219086265012
 51
358.5495530169002
  0
LINE
  5
84A
330
1F
100
AcDbEntity
  8
CYAN
100
AcDbLine
 10
-83.36363992637579
 20
634.7120083741307
 30
0.0
 11
-77.49953192639046
 21
637.8046277074566
 31
0.0
  0
LINE
  5
84B
330
1F
100
AcDbEntity
  8
CYAN
100
AcDbLine
 10
-82.44067259304477
 20
626.518713040818
 30
0.0
 11
-84.23231459304027
 21
632.9756077074685
 31
0.0
  0
LINE
  5
84C
330
1F
100
AcDbEntity
  8
CYAN
100
AcDbLine
 10
-68.43218592641317
 20
629.8283823741432
 30
0.0
 11
-80.81190792638219
 21
626.0303503741526
 31
0.0
  0
ARC
  5
84D
330
1F
100
AcDbEntity
  8
CYAN
100
AcDbCircle
 10
-69.10218284081141
 20
631.7657007214716
 30
0.0
 40
2.049902008528208
100
AcDbArc
 50
289.0772934689006
 51
20.60906024060049
  0
ARC
  5
84E
330
1F
100
AcDbEntity
  8
CYAN
100
AcDbCircle
 10
-94.18119001914872
 20
607.2121212472664
 30
0.0
 40
36.98254930337422
100
AcDbArc
 50
43.11255767029964
 51
51.69051788830135
  0
ARC
  5
84F
330
1F
100
AcDbEntity
  8
CYAN
100
AcDbCircle
 10
-55.66131117897834
 20
645.4366616415707
 30
0.0
 40
1.802204194262159
100
AcDbArc
 50
12.00251605670016
 51
97.86327052169895
  0
ARC
  5
850
330
1F
100
AcDbEntity
  8
CYAN
100
AcDbCircle
 10
-44.60327433233935
 20
603.3085700862094
 30
0.0
 40
45.34507928148665
100
AcDbArc
 50
104.4361815166
 51
122.0515328383993
  0
ARC
  5
851
330
1F
100
AcDbEntity
  8
CYAN
100
AcDbCircle
 10
-67.23655580468278
 20
640.0053500407842
 30
0.0
 40
2.249776213327708
100
AcDbArc
 50
129.4832731475008
 51
198.2731667387984
  0
LINE
  5
852
330
1F
100
AcDbEntity
  8
CYAN
100
AcDbLine
 10
-69.37288125974411
 20
639.2999377074527
 30
0.0
 11
-61.82571592642965
 21
633.9825550407993
 31
0.0
  0
LINE
  5
853
330
1F
100
AcDbEntity
  8
CYAN
100
AcDbLine
 10
-52.59549392645276
 20
638.1607683741222
 30
0.0
 11
-53.8985059264495
 21
644.2378257074404
 31
0.0
  0
LINE
  5
854
330
1F
100
AcDbEntity
  8
CYAN
100
AcDbLine
 10
-59.92549059310103
 20
633.6027177074669
 30
0.0
 11
-54.71288859311407
 21
635.0135430407967
 31
0.0
  0
ARC
  5
855
330
1F
100
AcDbEntity
  8
CYAN
100
AcDbCircle
 10
-37.02659049022493
 20
615.900777905378
 30
0.0
 40
36.28392336324262
100
AcDbArc
 50
85.08502559449933
 51
104.8917714812005
  0
LINE
  5
856
330
1F
100
AcDbEntity
  8
CYAN
100
AcDbLine
 10
-49.93517792645936
 20
647.8730703740981
 30
0.0
 11
-48.74075059312899
 21
639.842562374118
 31
0.0
  0
LINE
  5
857
330
1F
100
AcDbEntity
  8
CYAN
100
AcDbLine
 10
-46.56906392646777
 20
639.2999377074527
 30
0.0
 11
-31.52902592650536
 21
649.2838957074277
 31
0.0
  0
ARC
  5
858
330
1F
100
AcDbEntity
  8
CYAN
100
AcDbCircle
 10
-36.58909858742607
 20
597.9667838976893
 30
0.0
 40
57.91395245172187
100
AcDbArc
 50
79.70382131649954
 51
125.3971191986015
  0
ARC
  5
859
330
1F
100
AcDbEntity
  8
CYAN
100
AcDbCircle
 10
-70.7313911660074
 20
646.3194390361017
 30
0.0
 40
1.289767276530107
100
AcDbArc
 50
157.9509608545001
 51
297.5328414682989
  0
ARC
  5
85A
330
1F
100
AcDbEntity
  8
CYAN
100
AcDbCircle
 10
-28.50999518411291
 20
595.7867616139616
 30
0.0
 40
67.20236460716532
100
AcDbArc
 50
88.98844317259976
 51
127.4515426726011
  0
LINE
  5
85B
330
1F
100
AcDbEntity
  8
CYAN
100
AcDbLine
 10
-20.10218725986732
 20
661.67635304073
 30
0.0
 11
-27.32359925984922
 21
662.9786530407268
 31
0.0
  0
ARC
  5
85C
330
1F
100
AcDbEntity
  8
CYAN
100
AcDbCircle
 10
-20.93860149439857
 20
659.6705414674019
 30
0.0
 40
2.173216243194565
100
AcDbArc
 50
298.9996008849012
 51
67.36408728300047
  0
LINE
  5
85D
330
1F
100
AcDbEntity
  8
CYAN
100
AcDbLine
 10
-24.01177725985752
 20
655.1651957074129
 30
0.0
 11
-19.88501859320115
 21
657.7697963740733
 31
0.0
  0
ARC
  5
85E
330
1F
100
AcDbEntity
  8
CYAN
100
AcDbCircle
 10
7.130925260598018
 20
607.1315413083332
 30
0.0
 40
89.87815061204194
100
AcDbArc
 50
88.96625815919874
 51
138.7793538895018
  0
ARC
  5
85F
330
1F
100
AcDbEntity
  8
CYAN
100
AcDbCircle
 10
1.049709960613198
 20
609.8958322479262
 30
0.0
 40
80.69414304046492
100
AcDbArc
 50
84.8708802496009
 51
136.5597235086002
  0
LINE
  5
860
330
1F
100
AcDbEntity
  8
CYAN
100
AcDbLine
 10
8.263807406728489
 20
690.266856373992
 30
0.0
 11
12.00996674005248
 21
693.9024443739827
 31
0.0
  0
ARC
  5
861
330
1F
100
AcDbEntity
  8
CYAN
100
AcDbCircle
 10
10.81794289632208
 20
695.1352544435796
 30
0.0
 40
1.714859035595711
100
AcDbArc
 50
314.0363635863999
 51
59.6583232276994
  0
ARC
  5
862
330
1F
100
AcDbEntity
  8
CYAN
100
AcDbCircle
 10
-60.00433359870083
 20
664.7666031831222
 30
0.0
 40
0.9750564497308955
100
AcDbArc
 50
169.3458983897999
 51
305.2311403009003
  0
ARC
  5
863
330
1F
100
AcDbEntity
  8
CYAN
100
AcDbCircle
 10
8.708128797394039
 20
595.4698445808958
 30
0.0
 40
92.37717890630236
100
AcDbArc
 50
113.3986810156987
 51
131.0206099554007
  0
ARC
  5
864
330
1F
100
AcDbEntity
  8
CYAN
100
AcDbCircle
 10
-27.14374927878302
 20
678.4617742666882
 30
0.0
 40
1.973212539861733
100
AcDbArc
 50
348.8373859745996
 51
114.9889897167994
  0
ARC
  5
865
330
1F
100
AcDbEntity
  8
CYAN
100
AcDbCircle
 10
-34.92789080436359
 20
672.3418842180367
 30
0.0
 40
5.529157737452843
100
AcDbArc
 50
285.3866639916001
 51
329.8035263668003
  0
ARC
  5
866
330
1F
100
AcDbEntity
  8
CYAN
100
AcDbCircle
 10
-19.36145831186914
 20
562.1940833272454
 30
0.0
 40
105.7608567160022
100
AcDbArc
 50
97.66112088880152
 51
106.5139395051998
  0
LINE
  5
867
330
1F
100
AcDbEntity
  8
CYAN
100
AcDbLine
 10
-26.29426392651847
 20
675.8553523740281
 30
0.0
 11
-30.14900792650883
 21
669.560901707377
 31
0.0
  0
ARC
  5
868
330
1F
100
AcDbEntity
  8
CYAN
100
AcDbCircle
 10
-19.33234069053589
 20
673.4614691440339
 30
0.0
 40
3.21034675545864
100
AcDbArc
 50
51.27194946370035
 51
151.5832549371983
  0
LINE
  5
869
330
1F
100
AcDbEntity
  8
CYAN
100
AcDbLine
 10
-17.32386859320755
 20
675.9659383740276
 30
0.0
 11
-10.59108592655775
 21
671.7334623740383
 31
0.0
  0
LINE
  5
86A
330
1F
100
AcDbEntity
  8
CYAN
100
AcDbLine
 10
-26.11975325985227
 20
668.9664183740452
 30
0.0
 11
-22.15587125986217
 21
674.9892130406967
 31
0.0
  0
LINE
  5
86B
330
1F
100
AcDbEntity
  8
CYAN
100
AcDbLine
 10
-15.36935059321243
 20
664.1913177073905
 30
0.0
 11
-25.73970859318655
 21
667.2842803740493
 31
0.0
  0
ARC
  5
86C
330
1F
100
AcDbEntity
  8
CYAN
100
AcDbCircle
 10
-10.73879515642397
 20
669.3473466625776
 30
0.0
 40
1.784016703595538
100
AcDbArc
 50
304.7304383881002
 51
29.06822106369909
  0
ARC
  5
86D
330
1F
100
AcDbEntity
  8
CYAN
100
AcDbCircle
 10
-1.923777755779383
 20
627.6894003865484
 30
0.0
 40
58.58435782278686
100
AcDbArc
 50
85.44824486459987
 51
104.0733020205999
  0
ARC
  5
86E
330
1F
100
AcDbEntity
  8
CYAN
100
AcDbCircle
 10
1.546545883411964
 20
683.8217110296081
 30
0.0
 40
2.55545637639361
100
AcDbArc
 50
346.2213438458003
 51
62.52709985939926
  0
LINE
  5
86F
330
1F
100
AcDbEntity
  8
CYAN
100
AcDbLine
 10
-4.333083259906714
 20
674.5856783740312
 30
0.0
 11
4.028464073405728
 21
683.213073707343
 31
0.0
  0
ARC
  5
870
330
1F
100
AcDbEntity
  8
CYAN
100
AcDbCircle
 10
17.76234537337137
 20
637.4931648371904
 30
0.0
 40
73.26527472141683
100
AcDbArc
 50
108.7151373528015
 51
126.2533140836
  0
ARC
  5
871
330
1F
100
AcDbEntity
  8
CYAN
100
AcDbCircle
 10
1.832357687277863
 20
633.8050222574667
 30
0.0
 40
66.51315182650036
100
AcDbArc
 50
96.54217441730136
 51
112.3369433385986
  0
ARC
  5
872
330
1F
100
AcDbEntity
  8
CYAN
100
AcDbCircle
 10
-7.573063162031957
 20
702.8479912503605
 30
0.0
 40
3.48107920092463
100
AcDbArc
 50
301.6626220872002
 51
344.0735205972004
  0
LINE
  5
873
330
1F
100
AcDbEntity
  8
CYAN
100
AcDbLine
 10
-4.388483259906593
 20
706.2334277072855
 30
0.0
 11
-4.225606593240313
 21
701.8927703739627
 31
0.0
  0
ARC
  5
874
330
1F
100
AcDbEntity
  8
CYAN
100
AcDbCircle
 10
9.779405617657999
 20
705.875969853153
 30
0.0
 40
7.122872610382191
100
AcDbArc
 50
334.8292224491002
 51
65.90335495509892
  0
LINE
  5
875
330
1F
100
AcDbEntity
  8
CYAN
100
AcDbLine
 10
8.995643406726685
 20
712.2242830406038
 30
0.0
 11
0.9958587400799103
 21
709.7646117072764
 31
0.0
  0
LINE
  5
876
330
1F
100
AcDbEntity
  8
CYAN
100
AcDbLine
 10
2.688334073409038
 20
701.0015603739653
 30
0.0
 11
14.37998540671319
 21
701.7701643739633
 31
0.0
  0
LINE
  5
877
330
1F
100
AcDbEntity
  8
CYAN
100
AcDbLine
 10
-142.3537392595616
 20
588.4851597075797
 30
0.0
 11
-142.2601125928952
 21
592.887635040902
 31
0.0
  0
ARC
  5
878
330
1F
100
AcDbEntity
  8
CYAN
100
AcDbCircle
 10
-136.8951757503753
 20
583.450969248659
 30
0.0
 40
10.85510057983953
100
AcDbArc
 50
87.14769243760004
 51
119.6191128395
  0
ARC
  5
879
330
1F
100
AcDbEntity
  8
CYAN
100
AcDbCircle
 10
-142.2825457780952
 20
583.0524293814601
 30
0.0
 40
12.7073844914349
100
AcDbArc
 50
37.72105604269917
 51
62.19499026240161
  0
ARC
  5
87A
330
1F
100
AcDbEntity
  8
CYAN
100
AcDbCircle
 10
-93.87792709994949
 20
599.7670827566182
 30
0.0
 40
3.126747034792182
100
AcDbArc
 50
108.2256802079
 51
151.9331357980001
  0
LINE
  5
87B
330
1F
100
AcDbEntity
  8
CYAN
100
AcDbLine
 10
-96.63696592634259
 20
601.2382223742147
 30
0.0
 11
-92.98166259301844
 21
597.6788770408901
 31
0.0
  0
ARC
  5
87C
330
1F
100
AcDbEntity
  8
CYAN
100
AcDbCircle
 10
-91.68613518088831
 20
602.0680974427457
 30
0.0
 40
4.576422949321891
100
AcDbArc
 50
253.5554462764
 51
301.0481708671993
  0
ARC
  5
87D
330
1F
100
AcDbEntity
  8
CYAN
100
AcDbCircle
 10
-129.7959428969263
 20
665.6213338512535
 30
0.0
 40
79.01483133926912
100
AcDbArc
 50
302.8899415762015
 51
310.6145479192993
  0
ARC
  5
87E
330
1F
100
AcDbEntity
  8
CYAN
100
AcDbCircle
 10
-77.89502267945613
 20
607.4528464989988
 30
0.0
 40
1.155463324130444
100
AcDbArc
 50
310.7297205706986
 51
70.85893415429945
  0
ARC
  5
87F
330
1F
100
AcDbEntity
  8
CYAN
100
AcDbCircle
 10
-82.45522511077801
 20
594.5725764580978
 30
0.0
 40
1.890046459728606
100
AcDbArc
 50
131.2788458858996
 51
280.5606060842985
  0
ARC
  5
880
330
1F
100
AcDbEntity
  8
CYAN
100
AcDbCircle
 10
-41.74466604207982
 20
490.7425781160908
 30
0.0
 40
109.6701750966591
100
AcDbArc
 50
92.57891224930105
 51
111.5954350837009
  0
ARC
  5
881
330
1F
100
AcDbEntity
  8
CYAN
100
AcDbCircle
 10
-47.22423615379947
 20
601.4525272103472
 30
0.0
 40
1.27334052893015
100
AcDbArc
 50
295.3375395463
 51
69.24199191699949
  0
ARC
  5
882
330
1F
100
AcDbEntity
  8
CYAN
100
AcDbCircle
 10
-67.88325999614784
 20
525.1400329672048
 30
0.0
 40
80.32675867366583
100
AcDbArc
 50
74.76339709789944
 51
91.05467916209985
  0
ARC
  5
883
330
1F
100
AcDbEntity
  8
CYAN
100
AcDbCircle
 10
-68.94497314134516
 20
598.5466749290212
 30
0.0
 40
6.919075081182701
100
AcDbArc
 50
93.45377977280032
 51
131.0163993621996
  0
ARC
  5
884
330
1F
100
AcDbEntity
  8
CYAN
100
AcDbCircle
 10
-107.7775525901814
 20
662.4334465788616
 30
0.0
 40
61.07896570624729
100
AcDbArc
 50
282.2136305159016
 51
297.8934153186997
  0
ARC
  5
885
330
1F
100
AcDbEntity
  8
CYAN
100
AcDbCircle
 10
-41.3573973266141
 20
595.3787487686291
 30
0.0
 40
2.057546143994855
100
AcDbArc
 50
297.739701989099
 51
78.92094459480005
  0
ARC
  5
886
330
1F
100
AcDbEntity
  8
CYAN
100
AcDbCircle
 10
-28.03889442464738
 20
449.8017948369931
 30
0.0
 40
148.1608299186962
100
AcDbArc
 50
95.00390171170069
 51
116.0777251476005
  0
ARC
  5
887
330
1F
100
AcDbEntity
  8
CYAN
100
AcDbCircle
 10
-91.77437427382143
 20
582.1880765117289
 30
0.0
 40
1.556598729462774
100
AcDbArc
 50
153.6229565854992
 51
270.4238521595989
  0
ARC
  5
888
330
1F
100
AcDbEntity
  8
CYAN
100
AcDbCircle
 10
-89.50982101996038
 20
607.1306924660665
 30
0.0
 40
26.59477961673351
100
AcDbArc
 50
265.1402305990985
 51
289.3390256045015
  0
ARC
  5
889
330
1F
100
AcDbEntity
  8
CYAN
100
AcDbCircle
 10
-33.67089545516666
 20
497.3441395755408
 30
0.0
 40
96.44854056815887
100
AcDbArc
 50
94.00053340490115
 51
116.6646182342988
  0
ARC
  5
88A
330
1F
100
AcDbEntity
  8
CYAN
100
AcDbCircle
 10
-355.6151322296952
 20
-47.73615529736297
 30
0.0
 40
713.9982376226148
100
AcDbArc
 50
62.22184153839993
 51
63.23807008999883
  0
ARC
  5
88B
330
1F
100
AcDbEntity
  8
CYAN
100
AcDbCircle
 10
-24.10686269639058
 20
582.7147252555942
 30
0.0
 40
1.778725105595553
100
AcDbArc
 50
242.4227899551002
 51
45.34377747769974
  0
ARC
  5
88C
330
1F
100
AcDbEntity
  8
CYAN
100
AcDbCircle
 10
-40.58072072874944
 20
583.4548506027922
 30
0.0
 40
2.205391349327818
100
AcDbArc
 50
145.9225013403991
 51
239.6031512633998
  0
ARC
  5
88D
330
1F
100
AcDbEntity
  8
CYAN
100
AcDbCircle
 10
-37.98338982982262
 20
586.3268339614518
 30
0.0
 40
3.587855292924363
100
AcDbArc
 50
84.95560970039866
 51
159.3598208931004
  0
ARC
  5
88E
330
1F
100
AcDbEntity
  8
CYAN
100
AcDbCircle
 10
-33.6725102133
 20
595.5740186619619
 30
0.0
 40
1.198339866263669
100
AcDbArc
 50
85.5695573889988
 51
248.4390055569995
  0
ARC
  5
88F
330
1F
100
AcDbEntity
  8
CYAN
100
AcDbCircle
 10
10.40911298272311
 20
673.8007362778999
 30
0.0
 40
88.70715538804487
100
AcDbArc
 50
240.2714990834995
 51
255.144395599101
  0
ARC
  5
890
330
1F
100
AcDbEntity
  8
CYAN
100
AcDbCircle
 10
4.298686808605053
 20
645.1944156861046
 30
0.0
 40
59.50752190145123
100
AcDbArc
 50
253.7693240146989
 51
269.3872249236013
  0
ARC
  5
891
330
1F
100
AcDbEntity
  8
CYAN
100
AcDbCircle
 10
2.579630046076061
 20
584.4145169137232
 30
0.0
 40
1.673237257062483
100
AcDbArc
 50
295.7515221077005
 51
49.68174171759982
  0
LINE
  5
892
330
1F
100
AcDbEntity
  8
CYAN
100
AcDbLine
 10
-15.60102160334523
 20
584.2145052429238
 30
0.0
 11
-34.11288992649892
 21
594.4595303742313
 31
0.0
  0
ARC
  5
893
330
1F
100
AcDbEntity
  8
CYAN
100
AcDbCircle
 10
-21.97753792439596
 20
596.8207112644924
 30
0.0
 40
1.509745961862891
100
AcDbArc
 50
211.1231435277987
 51
58.83956132370132
  0
ARC
  5
894
330
1F
100
AcDbEntity
  8
CYAN
100
AcDbCircle
 10
-74.43998396266471
 20
509.4459784425772
 30
0.0
 40
100.5830827296152
100
AcDbArc
 50
59.42047347609879
 51
87.03937779070095
  0
ARC
  5
895
330
1F
100
AcDbEntity
  8
CYAN
100
AcDbCircle
 10
-68.37034935494664
 20
611.2666044208562
 30
0.0
 40
1.626859274262599
100
AcDbArc
 50
115.3573347811994
 51
237.4813576701009
  0
ARC
  5
896
330
1F
100
AcDbEntity
  8
CYAN
100
AcDbCircle
 10
-82.28037798384512
 20
517.5105943028238
 30
0.0
 40
101.1333198314805
100
AcDbArc
 50
52.84342982450103
 51
75.72110071990096
  0
ARC
  5
897
330
1F
100
AcDbEntity
  8
CYAN
100
AcDbCircle
 10
-47.04030946339992
 20
618.1119015461725
 30
0.0
 40
1.299420698263418
100
AcDbArc
 50
104.8815120465005
 51
263.1099413948001
  0
ARC
  5
898
330
1F
100
AcDbEntity
  8
CYAN
100
AcDbCircle
 10
-33.83512556543295
 20
619.13118791137
 30
0.0
 40
1.600648845062664
100
AcDbArc
 50
326.296423984401
 51
86.87269140839843
  0
ARC
  5
899
330
1F
100
AcDbEntity
  8
CYAN
100
AcDbCircle
 10
-36.20069966569366
 20
576.4173698414768
 30
0.0
 40
44.37992137802239
100
AcDbArc
 50
86.83162343669939
 51
104.582003554999
  0
ARC
  5
89A
330
1F
100
AcDbEntity
  8
CYAN
100
AcDbCircle
 10
-39.43250811435227
 20
617.3439501719076
 30
0.0
 40
3.250236315725207
100
AcDbArc
 50
245.1572430879994
 51
299.4237504136009
  0
ARC
  5
89B
330
1F
100
AcDbEntity
  8
CYAN
100
AcDbCircle
 10
-24.36167909065661
 20
609.6531157768603
 30
0.0
 40
8.77892638957805
100
AcDbArc
 50
57.52001354560214
 51
87.06786882830142
  0
ARC
  5
89C
330
1F
100
AcDbEntity
  8
CYAN
100
AcDbCircle
 10
-24.91994118238854
 20
614.9237731459137
 30
0.0
 40
3.638977407990902
100
AcDbArc
 50
73.92967879309989
 51
120.3173159031015
  0
ARC
  5
89D
330
1F
100
AcDbEntity
  8
CYAN
100
AcDbCircle
 10
-20.56616198999941
 20
615.7380543717784
 30
0.0
 40
1.608934973062644
100
AcDbArc
 50
334.5093514862008
 51
55.17531838320032
  0
ARC
  5
89E
330
1F
100
AcDbEntity
  8
CYAN
100
AcDbCircle
 10
-24.60765211158936
 20
607.9582015400646
 30
0.0
 40
1.715624651729044
100
AcDbArc
 50
257.4971718080008
 51
332.6889746124995
  0
ARC
  5
89F
330
1F
100
AcDbEntity
  8
CYAN
100
AcDbCircle
 10
-31.38955211183907
 20
611.762488511655
 30
0.0
 40
1.984814113995036
100
AcDbArc
 50
130.6049920061996
 51
245.6749025873991
  0
ARC
  5
8A0
330
1F
100
AcDbEntity
  8
CYAN
100
AcDbCircle
 10
-13.24985535628445
 20
610.8920755195238
 30
0.0
 40
2.813436479192965
100
AcDbArc
 50
47.08087479260122
 51
151.3306142699013
  0
LINE
  5
8A1
330
1F
100
AcDbEntity
  8
CYAN
100
AcDbLine
 10
-5.705899259903246
 20
606.1434843742022
 30
0.0
 11
-11.33400259322255
 21
612.9523990408519
 31
0.0
  0
ARC
  5
8A2
330
1F
100
AcDbEntity
  8
CYAN
100
AcDbCircle
 10
-7.050949334299872
 20
604.8785864154056
 30
0.0
 40
1.846382015862049
100
AcDbArc
 50
288.1444065454995
 51
43.24098603369857
  0
ARC
  5
8A3
330
1F
100
AcDbEntity
  8
CYAN
100
AcDbCircle
 10
-18.06231855973902
 20
603.8673349068748
 30
0.0
 40
1.999999999994999
100
AcDbArc
 50
151.0675486813005
 51
229.048932253499
  0
LINE
  5
8A4
330
1F
100
AcDbEntity
  8
WHITE
100
AcDbLine
 10
-15.71837192654493
 20
612.2418350408537
 30
0.0
 11
-19.81269988773471
 21
604.8348912136722
 31
0.0
  0
ARC
  5
8A5
330
1F
100
AcDbEntity
  8
CYAN
100
AcDbCircle
 10
-15.85136019481126
 20
602.8313777535438
 30
0.0
 40
2.666666666659998
100
AcDbArc
 50
229.048932253499
 51
288.3044655349014
  0
LINE
  5
8A6
330
1F
100
AcDbEntity
  8
WHITE
100
AcDbLine
 10
-19.37314705173574
 20
602.3567957102117
 30
0.0
 11
-17.59913151747355
 21
600.8173254914156
 31
0.0
  0
LINE
  5
8A7
330
1F
100
AcDbEntity
  8
WHITE
100
AcDbLine
 10
-15.01384965708001
 20
600.2996417463503
 30
0.0
 11
-6.475961926568032
 21
603.12401637421
 31
0.0
  0
ARC
  5
8A8
330
1F
100
AcDbEntity
  8
CYAN
100
AcDbCircle
 10
-13.24501444935106
 20
594.6891288567642
 30
0.0
 40
2.063887578128173
100
AcDbArc
 50
106.2508053529993
 51
262.1699855913984
  0
LINE
  5
8A9
330
1F
100
AcDbEntity
  8
CYAN
100
AcDbLine
 10
-13.82257792654963
 20
596.6705557075592
 30
0.0
 11
-4.758002593238983
 21
598.9794597075538
 31
0.0
  0
ARC
  5
8AA
330
1F
100
AcDbEntity
  8
CYAN
100
AcDbCircle
 10
-4.321809968573376
 20
596.6891236750258
 30
0.0
 40
2.331502337060836
100
AcDbArc
 50
28.32343624750061
 51
100.7828045850007
  0
ARC
  5
8AB
330
1F
100
AcDbEntity
  8
CYAN
100
AcDbCircle
 10
-4.929888365905212
 20
593.9012163014329
 30
0.0
 40
3.333333333324998
100
AcDbArc
 50
2.123512456399231
 51
10.63347717210016
  0
LINE
  5
8AC
330
1F
100
AcDbEntity
  8
WHITE
100
AcDbLine
 10
-2.269427259911906
 20
597.7953010408897
 30
0.0
 11
-1.653796029113436
 21
594.5163017527647
 31
0.0
  0
ARC
  5
8AD
330
1F
100
AcDbEntity
  8
CYAN
100
AcDbCircle
 10
-2.861190084043669
 20
592.085541538104
 30
0.0
 40
1.333333333329999
100
AcDbArc
 50
283.1250366762994
 51
2.123512456399231
  0
LINE
  5
8AE
330
1F
100
AcDbEntity
  8
WHITE
100
AcDbLine
 10
-1.598844125380195
 20
594.0247289672993
 30
0.0
 11
-1.528772387780378
 21
592.134946604504
 31
0.0
  0
ARC
  5
8AF
330
1F
100
AcDbEntity
  8
CYAN
100
AcDbCircle
 10
-5.024192521771624
 20
591.5811986461052
 30
0.0
 40
1.333333333329999
100
AcDbArc
 50
253.9190380673991
 51
283.1250366762994
  0
LINE
  5
8B0
330
1F
100
AcDbEntity
  8
WHITE
100
AcDbLine
 10
-2.558420902177799
 20
590.7870390929072
 30
0.0
 11
-4.721423339905753
 21
590.2826962009087
 31
0.0
  0
LINE
  5
8B1
330
1F
100
AcDbEntity
  8
WHITE
100
AcDbLine
 10
-5.393519712837387
 20
590.3000369842418
 30
0.0
 11
-13.52618725988375
 21
592.6444837075694
 31
0.0
  0
LINE
  5
8B2
330
1F
100
AcDbEntity
  8
WHITE
100
AcDbLine
 10
-173.7327597158831
 20
671.7314017073715
 30
0.0
 11
-173.9222283825494
 21
674.9524657073635
 31
0.0
  0
LINE
  5
8B3
330
1F
100
AcDbEntity
  8
WHITE
100
AcDbLine
 10
-173.5432917158836
 20
652.3414850407533
 30
0.0
 11
-173.6064477158835
 21
655.4361650407457
 31
0.0
  0
ARC
  5
8B4
330
1F
100
AcDbEntity
  8
CYAN
100
AcDbCircle
 10
-155.3513849413958
 20
666.5520537017847
 30
0.0
 40
19.09713550155225
100
AcDbArc
 50
164.2636751293993
 51
177.3457442137004
  0
ARC
  5
8B5
330
1F
100
AcDbEntity
  8
CYAN
100
AcDbCircle
 10
-112.595116581236
 20
665.6414929991202
 30
0.0
 40
61.85896253224535
100
AcDbArc
 50
178.3372453699994
 51
189.4959189179995
  0
ARC
  5
8B6
330
1F
100
AcDbEntity
  8
CYAN
100
AcDbCircle
 10
-179.0099030492033
 20
653.7433848942166
 30
0.0
 40
5.643506238919224
100
AcDbArc
 50
257.3866429331994
 51
345.6165929048998
  0
ARC
  5
8B7
330
1F
100
AcDbEntity
  8
CYAN
100
AcDbCircle
 10
-174.5003821496146
 20
662.4018088751284
 30
0.0
 40
15.28519775836179
100
AcDbArc
 50
179.8305342658989
 51
247.9354548067997
  0
ARC
  5
8B8
330
1F
100
AcDbEntity
  8
CYAN
100
AcDbCircle
 10
-173.6094708354835
 20
663.6401243636586
 30
0.0
 40
16.21998284835945
100
AcDbArc
 50
116.858803715099
 51
184.2183604838996
  0
ARC
  5
8B9
330
1F
100
AcDbEntity
  8
CYAN
100
AcDbCircle
 10
-178.8384655706704
 20
673.4022018149675
 30
0.0
 40
5.154872086253778
100
AcDbArc
 50
17.50191084869947
 51
114.0293346692009
  0
LINE
  5
8BA
330
1F
100
AcDbEntity
  8
WHITE
100
AcDbLine
 10
11.68421340671992
 20
448.0236343745976
 30
0.0
 11
8.752436740060602
 21
447.6437970412652
 31
0.0
  0
LINE
  5
8BB
330
1F
100
AcDbEntity
  8
WHITE
100
AcDbLine
 10
-59.44184659310224
 20
480.6687143745158
 30
0.0
 11
-57.54162125977368
 21
479.2578897078527
 31
0.0
  0
LINE
  5
8BC
330
1F
100
AcDbEntity
  8
WHITE
100
AcDbLine
 10
-60.47339792643301
 20
478.2811643745218
 30
0.0
 11
-60.96258125976513
 21
479.6919897078518
 31
0.0
  0
LINE
  5
8BD
330
1F
100
AcDbEntity
  8
WHITE
100
AcDbLine
 10
-70.69306725974081
 20
484.3856963745066
 30
0.0
 11
-74.00544325973256
 21
486.5015910411681
 31
0.0
  0
LINE
  5
8BE
330
1F
100
AcDbEntity
  8
WHITE
100
AcDbLine
 10
-68.19562725974704
 20
483.0833963745098
 30
0.0
 11
-70.69306725974081
 21
484.3856963745066
 31
0.0
  0
LINE
  5
8BF
330
1F
100
AcDbEntity
  8
WHITE
100
AcDbLine
 10
-65.9153565930861
 20
481.9981457078458
 30
0.0
 11
-68.19562725974704
 21
483.0833963745098
 31
0.0
  0
LINE
  5
8C0
330
1F
100
AcDbEntity
  8
WHITE
100
AcDbLine
 10
-64.66663659308925
 20
481.8896210411796
 30
0.0
 11
-65.9153565930861
 21
481.9981457078458
 31
0.0
  0
LINE
  5
8C1
330
1F
100
AcDbEntity
  8
WHITE
100
AcDbLine
 10
-64.34088392642336
 20
482.6492963745111
 30
0.0
 11
-64.66663659308925
 21
481.8896210411796
 31
0.0
  0
LINE
  5
8C2
330
1F
100
AcDbEntity
  8
WHITE
100
AcDbLine
 10
-64.28659192642354
 20
483.5717590411753
 30
0.0
 11
-64.34088392642336
 21
482.6492963745111
 31
0.0
  0
LINE
  5
8C3
330
1F
100
AcDbEntity
  8
WHITE
100
AcDbLine
 10
-131.0172025929233
 20
529.3730930410609
 30
0.0
 11
-129.1712692595946
 21
528.830467707729
 31
0.0
  0
LINE
  5
8C4
330
1F
100
AcDbEntity
  8
WHITE
100
AcDbLine
 10
-131.6687085929216
 20
529.0475177077284
 30
0.0
 11
-131.0172025929233
 21
529.3730930410609
 31
0.0
  0
LINE
  5
8C5
330
1F
100
AcDbEntity
  8
WHITE
100
AcDbLine
 10
-131.8315852595879
 20
528.2335803743968
 30
0.0
 11
-131.6687085929216
 21
529.0475177077284
 31
0.0
  0
LINE
  5
8C6
330
1F
100
AcDbEntity
  8
WHITE
100
AcDbLine
 10
-131.7230005929215
 20
527.3114610410661
 30
0.0
 11
-131.8315852595879
 21
528.2335803743968
 31
0.0
  0
LINE
  5
8C7
330
1F
100
AcDbEntity
  8
WHITE
100
AcDbLine
 10
-129.4427299262605
 20
526.2262110410688
 30
0.0
 11
-131.7230005929215
 21
527.3114610410661
 31
0.0
  0
LINE
  5
8C8
330
1F
100
AcDbEntity
  8
WHITE
100
AcDbLine
 10
-26.23775592651865
 20
489.6907150411601
 30
0.0
 11
-24.01177725985752
 21
489.4736650411606
 31
0.0
  0
LINE
  5
8C9
330
1F
100
AcDbEntity
  8
WHITE
100
AcDbLine
 10
-69.37509725974412
 20
495.502298374479
 30
0.0
 11
-71.92682859307106
 21
497.8352430411398
 31
0.0
  0
LINE
  5
8CA
330
1F
100
AcDbEntity
  8
WHITE
100
AcDbLine
 10
-26.29426392651847
 20
468.7835083745456
 30
0.0
 11
-25.20786659318786
 21
466.559089041218
 31
0.0
  0
LINE
  5
8CB
330
1F
100
AcDbEntity
  8
WHITE
100
AcDbLine
 10
-51.10744525978979
 20
481.4263290411807
 30
0.0
 11
-49.42383459312729
 21
481.0464917078483
 31
0.0
  0
LINE
  5
8CC
330
1F
100
AcDbEntity
  8
WHITE
100
AcDbLine
 10
-51.97611992645427
 20
480.7751790411824
 30
0.0
 11
-51.10744525978979
 21
481.4263290411807
 31
0.0
  0
LINE
  5
8CD
330
1F
100
AcDbEntity
  8
WHITE
100
AcDbLine
 10
-51.92182792645436
 20
479.4728790411856
 30
0.0
 11
-51.97611992645427
 21
480.7751790411824
 31
0.0
  0
LINE
  5
8CE
330
1F
100
AcDbEntity
  8
WHITE
100
AcDbLine
 10
-7.373444593232477
 20
469.9989197078759
 30
0.0
 11
-4.333083259906714
 21
470.0531823745426
 31
0.0
  0
LINE
  5
8CF
330
1F
100
AcDbEntity
  8
WHITE
100
AcDbLine
 10
-16.82083525987548
 20
464.0846497078907
 30
0.0
 11
-7.373444593232477
 21
469.9989197078759
 31
0.0
  0
LINE
  5
8D0
330
1F
100
AcDbEntity
  8
WHITE
100
AcDbLine
 10
-17.47234125987384
 20
461.4257870412308
 30
0.0
 11
-16.82083525987548
 21
464.0846497078907
 31
0.0
  0
LINE
  5
8D1
330
1F
100
AcDbEntity
  8
WHITE
100
AcDbLine
 10
-16.16932925987711
 20
460.123487041234
 30
0.0
 11
-17.47234125987384
 21
461.4257870412308
 31
0.0
  0
LINE
  5
8D2
330
1F
100
AcDbEntity
  8
WHITE
100
AcDbLine
 10
12.68751074005075
 20
432.2607190413036
 30
0.0
 11
8.995643406726685
 21
432.4145777079698
 31
0.0
  0
LINE
  5
8D3
330
1F
100
AcDbEntity
  8
WHITE
100
AcDbLine
 10
14.37998540671319
 20
442.8686963746105
 30
0.0
 11
16.22591940670861
 21
441.7923750412799
 31
0.0
  0
LINE
  5
8D4
330
1F
100
AcDbEntity
  8
WHITE
100
AcDbLine
 10
0.5343754067478132
 20
443.0222110412767
 30
0.0
 11
2.688334073409038
 21
443.6373003746086
 31
0.0
  0
LINE
  5
8D5
330
1F
100
AcDbEntity
  8
WHITE
100
AcDbLine
 10
-0.3885912599165522
 20
441.7923750412799
 30
0.0
 11
0.5343754067478132
 21
443.0222110412767
 31
0.0
  0
LINE
  5
8D6
330
1F
100
AcDbEntity
  8
WHITE
100
AcDbLine
 10
0.0728920734156304
 20
436.7191743746259
 30
0.0
 11
-0.3885912599165522
 21
441.7923750412799
 31
0.0
  0
LINE
  5
8D7
330
1F
100
AcDbEntity
  8
WHITE
100
AcDbLine
 10
0.9958587400799103
 20
434.8742490412972
 30
0.0
 11
0.0728920734156304
 21
436.7191743746259
 31
0.0
  0
LINE
  5
8D8
330
1F
100
AcDbEntity
  8
WHITE
100
AcDbLine
 10
-53.8985059264495
 20
500.4010350411333
 30
0.0
 11
-53.8985059264495
 21
498.8274223744705
 31
0.0
  0
LINE
  5
8D9
330
1F
100
AcDbEntity
  8
WHITE
100
AcDbLine
 10
-52.75837059311895
 20
508.5943303744461
 30
0.0
 11
-52.59549392645276
 21
506.4780923744513
 31
0.0
  0
LINE
  5
8DA
330
1F
100
AcDbEntity
  8
WHITE
100
AcDbLine
 10
-54.71288859311407
 20
509.6253177077768
 30
0.0
 11
-52.75837059311895
 21
508.5943303744461
 31
0.0
  0
LINE
  5
8DB
330
1F
100
AcDbEntity
  8
WHITE
100
AcDbLine
 10
-61.82571592642965
 20
510.6563057077743
 30
0.0
 11
-59.92549059310103
 21
511.0361430411066
 31
0.0
  0
LINE
  5
8DC
330
1F
100
AcDbEntity
  8
WHITE
100
AcDbLine
 10
-49.012211259795
 20
495.1379150411463
 30
0.0
 11
-46.35134125980164
 21
493.6728277078168
 31
0.0
  0
LINE
  5
8DD
330
1F
100
AcDbEntity
  8
WHITE
100
AcDbLine
 10
-33.91788125983275
 20
492.5875777078196
 30
0.0
 11
-32.01765525983752
 21
493.2929897078178
 31
0.0
  0
LINE
  5
8DE
330
1F
100
AcDbEntity
  8
WHITE
100
AcDbLine
 10
-32.01765525983752
 20
493.2929897078178
 30
0.0
 11
-31.42044192650565
 21
494.3239777078152
 31
0.0
  0
LINE
  5
8DF
330
1F
100
AcDbEntity
  8
WHITE
100
AcDbLine
 10
-31.42044192650565
 20
494.3239777078152
 30
0.0
 11
-31.52902592650536
 21
495.3549650411458
 31
0.0
  0
LINE
  5
8E0
330
1F
100
AcDbEntity
  8
WHITE
100
AcDbLine
 10
-46.56906392646777
 20
505.338923041121
 30
0.0
 11
-48.03495192646413
 21
505.610235707787
 31
0.0
  0
LINE
  5
8E1
330
1F
100
AcDbEntity
  8
WHITE
100
AcDbLine
 10
-48.03495192646413
 20
505.610235707787
 30
0.0
 11
-48.74075059312899
 21
504.7962983744556
 31
0.0
  0
LINE
  5
8E2
330
1F
100
AcDbEntity
  8
WHITE
100
AcDbLine
 10
-49.93517792645936
 20
496.7657903744757
 30
0.0
 11
-49.60942525979354
 21
495.4092277078125
 31
0.0
  0
LINE
  5
8E3
330
1F
100
AcDbEntity
  8
WHITE
100
AcDbLine
 10
-49.60942525979354
 20
495.4092277078125
 30
0.0
 11
-49.012211259795
 21
495.1379150411463
 31
0.0
  0
LINE
  5
8E4
330
1F
100
AcDbEntity
  8
WHITE
100
AcDbLine
 10
-9.179489926561302
 20
474.4247483745316
 30
0.0
 11
-10.59108592655775
 21
472.9053983745354
 31
0.0
  0
LINE
  5
8E5
330
1F
100
AcDbEntity
  8
WHITE
100
AcDbLine
 10
-11.94839059322098
 20
478.5483557078547
 30
0.0
 11
-9.722411926559942
 21
476.7576930411924
 31
0.0
  0
LINE
  5
8E6
330
1F
100
AcDbEntity
  8
WHITE
100
AcDbLine
 10
-13.30569459321762
 20
479.9591810411843
 30
0.0
 11
-11.94839059322098
 21
478.5483557078547
 31
0.0
  0
LINE
  5
8E7
330
1F
100
AcDbEntity
  8
WHITE
100
AcDbLine
 10
-15.36935059321243
 20
480.4475430411833
 30
0.0
 11
-13.30569459321762
 21
479.9591810411843
 31
0.0
  0
LINE
  5
8E8
330
1F
100
AcDbEntity
  8
WHITE
100
AcDbLine
 10
-26.11975325985227
 20
475.6724423745285
 30
0.0
 11
-25.73970859318655
 21
477.3545803745243
 31
0.0
  0
LINE
  5
8E9
330
1F
100
AcDbEntity
  8
WHITE
100
AcDbLine
 10
-74.78492325973059
 20
506.6171830411177
 30
0.0
 11
-77.49953192639046
 21
506.8342330411171
 31
0.0
  0
LINE
  5
8EA
330
1F
100
AcDbEntity
  8
WHITE
100
AcDbLine
 10
-71.25537859307276
 20
508.4075023744467
 30
0.0
 11
-74.78492325973059
 21
506.6171830411177
 31
0.0
  0
LINE
  5
8EB
330
1F
100
AcDbEntity
  8
WHITE
100
AcDbLine
 10
-82.44067259304477
 20
518.1201477077556
 30
0.0
 11
-80.81190792638219
 21
518.6085103744211
 31
0.0
  0
LINE
  5
8EC
330
1F
100
AcDbEntity
  8
WHITE
100
AcDbLine
 10
-83.36363992637579
 20
509.9268523744428
 30
0.0
 11
-84.23231459304027
 21
511.6632530411052
 31
0.0
  0
LINE
  5
8ED
330
1F
100
AcDbEntity
  8
WHITE
100
AcDbLine
 10
-90.63934392635756
 20
514.0508030410991
 30
0.0
 11
-102.6384665929942
 21
520.7790110410824
 31
0.0
  0
LINE
  5
8EE
330
1F
100
AcDbEntity
  8
WHITE
100
AcDbLine
 10
-87.32696792636593
 20
515.0817910410966
 30
0.0
 11
-87.92418125969774
 21
513.8880157077664
 31
0.0
  0
LINE
  5
8EF
330
1F
100
AcDbEntity
  8
WHITE
100
AcDbLine
 10
-86.34970859303498
 20
518.717035707754
 30
0.0
 11
-87.32696792636593
 21
515.0817910410966
 31
0.0
  0
LINE
  5
8F0
330
1F
100
AcDbEntity
  8
WHITE
100
AcDbLine
 10
-99.86956592633458
 20
524.7940930410724
 30
0.0
 11
-97.3721259263408
 21
524.7940930410724
 31
0.0
  0
LINE
  5
8F1
330
1F
100
AcDbEntity
  8
WHITE
100
AcDbLine
 10
-103.3985565929923
 20
522.7867237077439
 30
0.0
 11
-99.86956592633458
 21
524.7940930410724
 31
0.0
  0
LINE
  5
8F2
330
1F
100
AcDbEntity
  8
WHITE
100
AcDbLine
 10
-103.6157252596585
 20
521.5929483744137
 30
0.0
 11
-103.3985565929923
 21
522.7867237077439
 31
0.0
  0
LINE
  5
8F3
330
1F
100
AcDbEntity
  8
WHITE
100
AcDbLine
 10
-4.388483259906593
 20
438.4054330412882
 30
0.0
 11
-5.745787259903181
 21
437.7542830412899
 31
0.0
  0
LINE
  5
8F4
330
1F
100
AcDbEntity
  8
WHITE
100
AcDbLine
 10
-25.29207525985431
 20
448.9859350412618
 30
0.0
 11
-23.44614125985891
 21
449.3115103745942
 31
0.0
  0
LINE
  5
8F5
330
1F
100
AcDbEntity
  8
WHITE
100
AcDbLine
 10
-25.5635359265203
 20
448.0638163745974
 30
0.0
 11
-25.29207525985431
 21
448.9859350412618
 31
0.0
  0
LINE
  5
8F6
330
1F
100
AcDbEntity
  8
WHITE
100
AcDbLine
 10
-88.75185992636238
 20
494.3596950411484
 30
0.0
 11
-87.68706859303165
 21
494.7649463744808
 31
0.0
  0
LINE
  5
8F7
330
1F
100
AcDbEntity
  8
WHITE
100
AcDbLine
 10
-87.68706859303165
 20
494.7649463744808
 30
0.0
 11
-87.43388992636559
 21
495.7777323744783
 31
0.0
  0
LINE
  5
8F8
330
1F
100
AcDbEntity
  8
WHITE
100
AcDbLine
 10
-87.43388992636559
 20
495.7777323744783
 30
0.0
 11
-88.54909525969617
 21
497.3479103744741
 31
0.0
  0
LINE
  5
8F9
330
1F
100
AcDbEntity
  8
WHITE
100
AcDbLine
 10
-125.8489205929362
 20
531.2709070410561
 30
0.0
 11
-112.4919399263029
 21
525.1395870410714
 31
0.0
  0
LINE
  5
8FA
330
1F
100
AcDbEntity
  8
WHITE
100
AcDbLine
 10
-124.3287399262733
 20
534.6351823743811
 30
0.0
 11
-125.5774599262702
 21
534.3096077077152
 31
0.0
  0
LINE
  5
8FB
330
1F
100
AcDbEntity
  8
WHITE
100
AcDbLine
 10
-125.5774599262702
 20
534.3096077077152
 30
0.0
 11
-126.2289659262686
 21
533.6041950410502
 31
0.0
  0
LINE
  5
8FC
330
1F
100
AcDbEntity
  8
WHITE
100
AcDbLine
 10
-126.2289659262686
 20
533.6041950410502
 30
0.0
 11
-126.3918425929348
 21
532.6274697077193
 31
0.0
  0
LINE
  5
8FD
330
1F
100
AcDbEntity
  8
WHITE
100
AcDbLine
 10
-126.3918425929348
 20
532.6274697077193
 30
0.0
 11
-126.337550592935
 21
531.5422197077221
 31
0.0
  0
LINE
  5
8FE
330
1F
100
AcDbEntity
  8
WHITE
100
AcDbLine
 10
-126.337550592935
 20
531.5422197077221
 30
0.0
 11
-125.8489205929362
 21
531.2709070410561
 31
0.0
  0
LINE
  5
8FF
330
1F
100
AcDbEntity
  8
WHITE
100
AcDbLine
 10
-127.5408419262653
 20
517.4240077077573
 30
0.0
 11
-129.3657232595941
 21
520.0073157077508
 31
0.0
  0
LINE
  5
900
330
1F
100
AcDbEntity
  8
WHITE
100
AcDbLine
 10
-129.3657232595941
 20
520.0073157077508
 30
0.0
 11
-129.3657232595941
 21
521.1722423744146
 31
0.0
  0
LINE
  5
901
330
1F
100
AcDbEntity
  8
WHITE
100
AcDbLine
 10
-129.3657232595941
 20
521.1722423744146
 30
0.0
 11
-128.7070152595957
 21
521.6279783744136
 31
0.0
  0
LINE
  5
902
330
1F
100
AcDbEntity
  8
WHITE
100
AcDbLine
 10
-128.7070152595957
 20
521.6279783744136
 30
0.0
 11
-127.2876632595993
 21
521.3748683744142
 31
0.0
  0
LINE
  5
903
330
1F
100
AcDbEntity
  8
WHITE
100
AcDbLine
 10
-127.2876632595993
 20
521.3748683744142
 30
0.0
 11
-123.8412185929412
 21
519.8046897077514
 31
0.0
  0
LINE
  5
904
330
1F
100
AcDbEntity
  8
WHITE
100
AcDbLine
 10
-69.06707192641156
 20
531.9021377077213
 30
0.0
 11
-61.17983875309795
 21
529.0359896106616
 31
0.0
  0
LINE
  5
905
330
1F
100
AcDbEntity
  8
WHITE
100
AcDbLine
 10
-61.17983875309795
 20
529.0359896106616
 30
0.0
 11
-57.33664059310757
 21
529.1192957077281
 31
0.0
  0
LINE
  5
906
330
1F
100
AcDbEntity
  8
WHITE
100
AcDbLine
 10
-80.70276925971578
 20
562.6023537076445
 30
0.0
 11
-76.95383992639183
 21
561.1036097076483
 31
0.0
  0
LINE
  5
907
330
1F
100
AcDbEntity
  8
WHITE
100
AcDbLine
 10
-83.70213459304162
 20
548.6458997076795
 30
0.0
 11
-73.48578925973381
 21
540.8715930410322
 31
0.0
  0
LINE
  5
908
330
1F
100
AcDbEntity
  8
WHITE
100
AcDbLine
 10
3.306600073407508
 20
561.7314063743132
 30
0.0
 11
-7.950159926564309
 21
562.0865163743125
 31
0.0
  0
LINE
  5
909
330
1F
100
AcDbEntity
  8
WHITE
100
AcDbLine
 10
-7.950159926564309
 20
562.0865163743125
 30
0.0
 11
-15.60102160334523
 21
560.42435550565
 31
0.0
  0
LINE
  5
90A
330
1F
100
AcDbEntity
  8
WHITE
100
AcDbLine
 10
-34.11288992649892
 20
554.8565523743304
 30
0.0
 11
-37.66791859315671
 21
554.7380677076642
 31
0.0
  0
LINE
  5
90B
330
1F
100
AcDbEntity
  8
WHITE
100
AcDbLine
 10
-39.80082525981807
 20
563.500775707642
 30
0.0
 11
-24.93031192652188
 21
563.500775707642
 31
0.0
  0
LINE
  5
90C
330
1F
100
AcDbEntity
  8
WHITE
100
AcDbLine
 10
-41.6966185931466
 20
563.0862517076433
 30
0.0
 11
-39.80082525981807
 21
563.500775707642
 31
0.0
  0
LINE
  5
90D
330
1F
100
AcDbEntity
  8
WHITE
100
AcDbLine
 10
-41.34094992648083
 20
557.0473150409916
 30
0.0
 11
-42.40740325981152
 21
559.9482990409843
 31
0.0
  0
LINE
  5
90E
330
1F
100
AcDbEntity
  8
WHITE
100
AcDbLine
 10
-26.75685525985068
 20
526.5737657077346
 30
0.0
 11
-32.68134925983587
 21
531.3694723743891
 31
0.0
  0
LINE
  5
90F
330
1F
100
AcDbEntity
  8
WHITE
100
AcDbLine
 10
-23.08326992652647
 20
537.4678230410406
 30
0.0
 11
-19.11384792653644
 21
529.5932337077271
 31
0.0
  0
LINE
  5
910
330
1F
100
AcDbEntity
  8
WHITE
100
AcDbLine
 10
-32.20712392650368
 20
534.6849803743809
 30
0.0
 11
-24.97906392652176
 21
538.3555983743717
 31
0.0
  0
LINE
  5
911
330
1F
100
AcDbEntity
  8
WHITE
100
AcDbLine
 10
-77.51615192639047
 20
536.0944317077106
 30
0.0
 11
-79.20308725971954
 21
536.1881890410439
 31
0.0
  0
LINE
  5
912
330
1F
100
AcDbEntity
  8
WHITE
100
AcDbLine
 10
-78.35989659305493
 20
538.9981630410368
 30
0.0
 11
-77.14109259305806
 21
538.0616197077058
 31
0.0
  0
LINE
  5
913
330
1F
100
AcDbEntity
  8
WHITE
100
AcDbLine
 10
-89.32580592636091
 20
546.4915403743512
 30
0.0
 11
-86.88875259303367
 21
545.3674823743543
 31
0.0
  0
LINE
  5
914
330
1F
100
AcDbEntity
  8
WHITE
100
AcDbLine
 10
-32.50351459316966
 20
526.3958670410683
 30
0.0
 11
-37.83578125982296
 21
530.1258997077257
 31
0.0
  0
LINE
  5
915
330
1F
100
AcDbEntity
  8
WHITE
100
AcDbLine
 10
-40.79802792648218
 20
530.2443837077253
 30
0.0
 11
-47.1961939264662
 21
527.8169957077314
 31
0.0
  0
LINE
  5
916
330
1F
100
AcDbEntity
  8
WHITE
100
AcDbLine
 10
-132.2310205929203
 20
553.8118277076664
 30
0.0
 11
-132.2310205929203
 21
555.0296430409968
 31
0.0
  0
LINE
  5
917
330
1F
100
AcDbEntity
  8
WHITE
100
AcDbLine
 10
-132.2310205929203
 20
555.0296430409968
 30
0.0
 11
-132.6997059262524
 21
555.6852577076617
 31
0.0
  0
LINE
  5
918
330
1F
100
AcDbEntity
  8
WHITE
100
AcDbLine
 10
-132.6997059262524
 20
555.6852577076617
 30
0.0
 11
-134.6680739262475
 21
555.9661863743277
 31
0.0
  0
LINE
  5
919
330
1F
100
AcDbEntity
  8
WHITE
100
AcDbLine
 10
-134.6680739262475
 20
555.9661863743277
 30
0.0
 11
-142.3537392595616
 21
556.1537010409938
 31
0.0
  0
ARC
  5
91A
330
1F
100
AcDbEntity
  8
CYAN
100
AcDbCircle
 10
-79.57990339118521
 20
584.3607128731902
 30
0.0
 40
82.34545599832747
100
AcDbArc
 50
234.3779557364995
 51
246.2910359094006
  0
ARC
  5
91B
330
1F
100
AcDbEntity
  8
CYAN
100
AcDbCircle
 10
-112.8142436095021
 20
511.4259461788391
 30
0.0
 40
2.463828669327173
100
AcDbArc
 50
272.8841358608002
 51
31.50490720499945
  0
LINE
  5
91C
330
1F
100
AcDbEntity
  8
CYAN
100
AcDbLine
 10
-123.8412185929412
 20
519.8046897077514
 30
0.0
 11
-110.7135945929741
 21
512.7134730411024
 31
0.0
  0
LINE
  5
91D
330
1F
100
AcDbEntity
  8
CYAN
100
AcDbLine
 10
-108.1131105929805
 20
505.9588210411193
 30
0.0
 11
-88.75185992636238
 21
494.3596950411484
 31
0.0
  0
ARC
  5
91E
330
1F
100
AcDbEntity
  8
CYAN
100
AcDbCircle
 10
-105.2719741865876
 20
506.4064732516516
 30
0.0
 40
2.876186464926142
100
AcDbArc
 50
69.42394533280114
 51
188.9539674379994
  0
ARC
  5
91F
330
1F
100
AcDbEntity
  8
CYAN
100
AcDbCircle
 10
-137.9534616150393
 20
447.6712934848651
 30
0.0
 40
70.06109962435818
100
AcDbArc
 50
45.15743452289894
 51
61.25585558040196
  0
ARC
  5
920
330
1F
100
AcDbEntity
  8
CYAN
100
AcDbCircle
 10
-170.189266951892
 20
410.8180196646905
 30
0.0
 40
122.390076870494
100
AcDbArc
 50
38.19792716529889
 51
70.55368145890112
  0
ARC
  5
921
330
1F
100
AcDbEntity
  8
CYAN
100
AcDbCircle
 10
-170.3038310442918
 20
400.7212219623158
 30
0.0
 40
134.5506093796636
100
AcDbArc
 50
38.00697694430045
 51
72.19952046039875
  0
ARC
  5
922
330
1F
100
AcDbEntity
  8
CYAN
100
AcDbCircle
 10
-106.4129078567181
 20
526.8932219877338
 30
0.0
 40
1.249772062530208
100
AcDbArc
 50
321.5639283071999
 51
79.91442778000081
  0
ARC
  5
923
330
1F
100
AcDbEntity
  8
CYAN
100
AcDbCircle
 10
12.34971165391829
 20
886.7795242601673
 30
0.0
 40
377.7388471530557
100
AcDbArc
 50
248.7871788234011
 51
251.7101265258017
  0
ARC
  5
924
330
1F
100
AcDbEntity
  8
CYAN
100
AcDbCircle
 10
-109.4234670063106
 20
528.9557283051951
 30
0.0
 40
4.896780596254425
100
AcDbArc
 50
231.1980251541002
 51
324.5597526405021
  0
ARC
  5
925
330
1F
100
AcDbEntity
  8
CYAN
100
AcDbCircle
 10
-89.13672739502803
 20
516.3884806052266
 30
0.0
 40
2.778955349326384
100
AcDbArc
 50
237.2678294001989
 51
295.8700582871014
  0
LINE
  5
926
330
1F
100
AcDbEntity
  8
CYAN
100
AcDbLine
 10
-102.6384665929942
 20
520.7790110410824
 30
0.0
 11
-103.6157252596585
 21
521.5929483744137
 31
0.0
  0
LINE
  5
927
330
1F
100
AcDbEntity
  8
CYAN
100
AcDbLine
 10
-97.3721259263408
 20
524.7940930410724
 30
0.0
 11
-87.76130525969811
 21
521.2673730410812
 31
0.0
  0
ARC
  5
928
330
1F
100
AcDbEntity
  8
CYAN
100
AcDbCircle
 10
-89.50364099662706
 20
518.6371766108211
 30
0.0
 40
3.154943277058778
100
AcDbArc
 50
1.450446983099813
 51
56.47809137349879
  0
LINE
  5
929
330
1F
100
AcDbEntity
  8
CYAN
100
AcDbLine
 10
-77.49953192639046
 20
506.8342330411171
 30
0.0
 11
-83.36363992637579
 21
509.9268523744428
 31
0.0
  0
LINE
  5
92A
330
1F
100
AcDbEntity
  8
CYAN
100
AcDbLine
 10
-84.23231459304027
 20
511.6632530411052
 30
0.0
 11
-82.44067259304477
 21
518.1201477077556
 31
0.0
  0
LINE
  5
92B
330
1F
100
AcDbEntity
  8
CYAN
100
AcDbLine
 10
-80.81190792638219
 20
518.6085103744211
 30
0.0
 11
-68.43218592641317
 21
514.8104783744306
 31
0.0
  0
ARC
  5
92C
330
1F
100
AcDbEntity
  8
CYAN
100
AcDbCircle
 10
-69.10218284081141
 20
512.8731600271021
 30
0.0
 40
2.049902008528208
100
AcDbArc
 50
339.3909397593995
 51
70.92270653109941
  0
ARC
  5
92D
330
1F
100
AcDbEntity
  8
CYAN
100
AcDbCircle
 10
-94.18119001914872
 20
537.4267395013073
 30
0.0
 40
36.98254930337422
100
AcDbArc
 50
308.3094821116987
 51
316.8874423297004
  0
ARC
  5
92E
330
1F
100
AcDbEntity
  8
CYAN
100
AcDbCircle
 10
-55.66131117897834
 20
499.202199107003
 30
0.0
 40
1.802204194262159
100
AcDbArc
 50
262.1367294783011
 51
347.9974839432998
  0
ARC
  5
92F
330
1F
100
AcDbEntity
  8
CYAN
100
AcDbCircle
 10
-44.60327433233935
 20
541.3302906623644
 30
0.0
 40
45.34507928148665
100
AcDbArc
 50
237.9484671616006
 51
255.5638184834
  0
ARC
  5
930
330
1F
100
AcDbEntity
  8
CYAN
100
AcDbCircle
 10
-67.23655580468278
 20
504.6335107077893
 30
0.0
 40
2.249776213327708
100
AcDbArc
 50
161.7268332612015
 51
230.5167268524991
  0
LINE
  5
931
330
1F
100
AcDbEntity
  8
CYAN
100
AcDbLine
 10
-69.37288125974411
 20
505.338923041121
 30
0.0
 11
-61.82571592642965
 21
510.6563057077743
 31
0.0
  0
LINE
  5
932
330
1F
100
AcDbEntity
  8
CYAN
100
AcDbLine
 10
-52.59549392645276
 20
506.4780923744513
 30
0.0
 11
-53.8985059264495
 21
500.4010350411333
 31
0.0
  0
LINE
  5
933
330
1F
100
AcDbEntity
  8
CYAN
100
AcDbLine
 10
-59.92549059310103
 20
511.0361430411066
 30
0.0
 11
-54.71288859311407
 21
509.6253177077768
 31
0.0
  0
ARC
  5
934
330
1F
100
AcDbEntity
  8
CYAN
100
AcDbCircle
 10
-37.02659049022493
 20
528.7380828431958
 30
0.0
 40
36.28392336324262
100
AcDbArc
 50
255.1082285187994
 51
274.9149744055007
  0
LINE
  5
935
330
1F
100
AcDbEntity
  8
CYAN
100
AcDbLine
 10
-48.74075059312899
 20
504.7962983744556
 30
0.0
 11
-49.93517792645936
 21
496.7657903744757
 31
0.0
  0
LINE
  5
936
330
1F
100
AcDbEntity
  8
CYAN
100
AcDbLine
 10
-31.52902592650536
 20
495.3549650411458
 30
0.0
 11
-46.56906392646777
 21
505.338923041121
 31
0.0
  0
ARC
  5
937
330
1F
100
AcDbEntity
  8
CYAN
100
AcDbCircle
 10
-36.58909858742607
 20
546.6720768508844
 30
0.0
 40
57.91395245172187
100
AcDbArc
 50
234.6028808013985
 51
280.2961786835004
  0
ARC
  5
938
330
1F
100
AcDbEntity
  8
CYAN
100
AcDbCircle
 10
-70.7313911660074
 20
498.3194217124718
 30
0.0
 40
1.289767276530107
100
AcDbArc
 50
62.46715853170112
 51
202.0490391454997
  0
ARC
  5
939
330
1F
100
AcDbEntity
  8
CYAN
100
AcDbCircle
 10
-28.50999518411291
 20
548.8520991346121
 30
0.0
 40
67.20236460716532
100
AcDbArc
 50
232.5484573273989
 51
271.0115568274002
  0
LINE
  5
93A
330
1F
100
AcDbEntity
  8
CYAN
100
AcDbLine
 10
-20.10218725986732
 20
482.9625077078437
 30
0.0
 11
-27.32359925984922
 21
481.6602077078469
 31
0.0
  0
ARC
  5
93B
330
1F
100
AcDbEntity
  8
CYAN
100
AcDbCircle
 10
-20.93860149439857
 20
484.9683192811719
 30
0.0
 40
2.173216243194565
100
AcDbArc
 50
292.6359127169996
 51
61.00039911509885
  0
LINE
  5
93C
330
1F
100
AcDbEntity
  8
CYAN
100
AcDbLine
 10
-24.01177725985752
 20
489.4736650411606
 30
0.0
 11
-19.88501859320115
 21
486.8690643745003
 31
0.0
  0
ARC
  5
93D
330
1F
100
AcDbEntity
  8
CYAN
100
AcDbCircle
 10
7.130925260598018
 20
537.5073194402403
 30
0.0
 40
89.87815061204194
100
AcDbArc
 50
221.2206461104982
 51
271.0337418408013
  0
ARC
  5
93E
330
1F
100
AcDbEntity
  8
CYAN
100
AcDbCircle
 10
1.049709960613198
 20
534.7430285006473
 30
0.0
 40
80.69414304046492
100
AcDbArc
 50
223.4402764913998
 51
275.1291197503991
  0
LINE
  5
93F
330
1F
100
AcDbEntity
  8
CYAN
100
AcDbLine
 10
8.263807406728489
 20
454.3720043745817
 30
0.0
 11
12.00996674005248
 21
450.7364163745909
 31
0.0
  0
ARC
  5
940
330
1F
100
AcDbEntity
  8
CYAN
100
AcDbCircle
 10
10.81794289632208
 20
449.5036063049939
 30
0.0
 40
1.714859035595711
100
AcDbArc
 50
300.3416767723006
 51
45.96363641360011
  0
ARC
  5
941
330
1F
100
AcDbEntity
  8
CYAN
100
AcDbCircle
 10
-60.00433359870083
 20
479.8722575654513
 30
0.0
 40
0.9750564497308955
100
AcDbArc
 50
54.76885969909964
 51
190.6541016102
  0
ARC
  5
942
330
1F
100
AcDbEntity
  8
CYAN
100
AcDbCircle
 10
8.708128797394039
 20
549.1690161676781
 30
0.0
 40
92.37717890630236
100
AcDbArc
 50
228.9793900445993
 51
246.6013189843013
  0
ARC
  5
943
330
1F
100
AcDbEntity
  8
CYAN
100
AcDbCircle
 10
-27.14374927878302
 20
466.1770864818855
 30
0.0
 40
1.973212539861733
100
AcDbArc
 50
245.0110102832006
 51
11.1626140254004
  0
ARC
  5
944
330
1F
100
AcDbEntity
  8
CYAN
100
AcDbCircle
 10
-34.92789080436359
 20
472.2969765305371
 30
0.0
 40
5.529157737452843
100
AcDbArc
 50
30.19647363319967
 51
74.61333600839994
  0
LINE
  5
945
330
1F
100
AcDbEntity
  8
CYAN
100
AcDbLine
 10
-30.14900792650883
 20
475.0779590411966
 30
0.0
 11
-26.29426392651847
 21
468.7835083745456
 31
0.0
  0
ARC
  5
946
330
1F
100
AcDbEntity
  8
CYAN
100
AcDbCircle
 10
-19.36145831186914
 20
582.4447774213282
 30
0.0
 40
105.7608567160022
100
AcDbArc
 50
253.4860604948002
 51
262.3388791111985
  0
ARC
  5
947
330
1F
100
AcDbEntity
  8
CYAN
100
AcDbCircle
 10
-19.33234069053589
 20
471.1773916045396
 30
0.0
 40
3.21034675545864
100
AcDbArc
 50
208.4167450628016
 51
308.7280505362997
  0
LINE
  5
948
330
1F
100
AcDbEntity
  8
CYAN
100
AcDbLine
 10
-22.15587125986217
 20
469.6496477078769
 30
0.0
 11
-26.11975325985227
 21
475.6724423745285
 31
0.0
  0
LINE
  5
949
330
1F
100
AcDbEntity
  8
CYAN
100
AcDbLine
 10
-10.59108592655775
 20
472.9053983745354
 30
0.0
 11
-17.32386859320755
 21
468.672922374546
 31
0.0
  0
LINE
  5
94A
330
1F
100
AcDbEntity
  8
CYAN
100
AcDbLine
 10
-25.73970859318655
 20
477.3545803745243
 30
0.0
 11
-15.36935059321243
 21
480.4475430411833
 31
0.0
  0
ARC
  5
94B
330
1F
100
AcDbEntity
  8
CYAN
100
AcDbCircle
 10
-10.73879515642397
 20
475.291514085996
 30
0.0
 40
1.784016703595538
100
AcDbArc
 50
330.9317789363009
 51
55.26956161189982
  0
ARC
  5
94C
330
1F
100
AcDbEntity
  8
CYAN
100
AcDbCircle
 10
-1.923777755779383
 20
516.949460362025
 30
0.0
 40
58.58435782278686
100
AcDbArc
 50
255.9266979794001
 51
274.5517551354001
  0
ARC
  5
94D
330
1F
100
AcDbEntity
  8
CYAN
100
AcDbCircle
 10
1.546545883411964
 20
460.8171497189657
 30
0.0
 40
2.55545637639361
100
AcDbArc
 50
297.4729001406007
 51
13.77865615419961
  0
LINE
  5
94E
330
1F
100
AcDbEntity
  8
CYAN
100
AcDbLine
 10
-4.333083259906714
 20
470.0531823745426
 30
0.0
 11
4.028464073405728
 21
461.4257870412308
 31
0.0
  0
ARC
  5
94F
330
1F
100
AcDbEntity
  8
CYAN
100
AcDbCircle
 10
17.76234537337137
 20
507.1456959113832
 30
0.0
 40
73.26527472141683
100
AcDbArc
 50
233.7466859163999
 51
251.2848626471985
  0
ARC
  5
950
330
1F
100
AcDbEntity
  8
CYAN
100
AcDbCircle
 10
1.832357687277863
 20
510.8338384911071
 30
0.0
 40
66.51315182650036
100
AcDbArc
 50
247.6630566614014
 51
263.4578255826987
  0
ARC
  5
951
330
1F
100
AcDbEntity
  8
CYAN
100
AcDbCircle
 10
-7.573063162031957
 20
441.7908694982132
 30
0.0
 40
3.48107920092463
100
AcDbArc
 50
15.92647940279961
 51
58.33737791279971
  0
LINE
  5
952
330
1F
100
AcDbEntity
  8
CYAN
100
AcDbLine
 10
-4.225606593240313
 20
442.7460903746108
 30
0.0
 11
-4.388483259906593
 21
438.4054330412882
 31
0.0
  0
ARC
  5
953
330
1F
100
AcDbEntity
  8
CYAN
100
AcDbCircle
 10
9.779405617657999
 20
438.7628908954208
 30
0.0
 40
7.122872610382191
100
AcDbArc
 50
294.096645044901
 51
25.17077755089977
  0
LINE
  5
954
330
1F
100
AcDbEntity
  8
CYAN
100
AcDbLine
 10
8.995643406726685
 20
432.4145777079698
 30
0.0
 11
0.9958587400799103
 21
434.8742490412972
 31
0.0
  0
LINE
  5
955
330
1F
100
AcDbEntity
  8
CYAN
100
AcDbLine
 10
2.688334073409038
 20
443.6373003746086
 30
0.0
 11
14.37998540671319
 21
442.8686963746105
 31
0.0
  0
LINE
  5
956
330
1F
100
AcDbEntity
  8
CYAN
100
AcDbLine
 10
-142.3537392595616
 20
556.1537010409938
 30
0.0
 11
-142.2601125928952
 21
551.7512257076715
 31
0.0
  0
ARC
  5
957
330
1F
100
AcDbEntity
  8
CYAN
100
AcDbCircle
 10
-136.8951757503753
 20
561.1878914999147
 30
0.0
 40
10.85510057983953
100
AcDbArc
 50
240.3808871604999
 51
272.8523075623999
  0
ARC
  5
958
330
1F
100
AcDbEntity
  8
CYAN
100
AcDbCircle
 10
-142.2825457780952
 20
561.5864313671137
 30
0.0
 40
12.7073844914349
100
AcDbArc
 50
297.8050097375984
 51
322.2789439573008
  0
ARC
  5
959
330
1F
100
AcDbEntity
  8
CYAN
100
AcDbCircle
 10
-93.87792709994949
 20
544.8717779919554
 30
0.0
 40
3.126747034792182
100
AcDbArc
 50
208.0668642019998
 51
251.7743197920999
  0
LINE
  5
95A
330
1F
100
AcDbEntity
  8
CYAN
100
AcDbLine
 10
-96.63696592634259
 20
543.4006383743591
 30
0.0
 11
-92.98166259301844
 21
546.9599837076835
 31
0.0
  0
ARC
  5
95B
330
1F
100
AcDbEntity
  8
CYAN
100
AcDbCircle
 10
-91.68613518088831
 20
542.5707633058278
 30
0.0
 40
4.576422949321891
100
AcDbArc
 50
58.95182913280068
 51
106.4445537236
  0
ARC
  5
95C
330
1F
100
AcDbEntity
  8
CYAN
100
AcDbCircle
 10
-129.7959428969263
 20
479.0175268973201
 30
0.0
 40
79.01483133926912
100
AcDbArc
 50
49.3854520807007
 51
57.11005842379846
  0
ARC
  5
95D
330
1F
100
AcDbEntity
  8
CYAN
100
AcDbCircle
 10
-77.89502267945613
 20
537.1860142495746
 30
0.0
 40
1.155463324130444
100
AcDbArc
 50
289.1410658457005
 51
49.27027942930132
  0
ARC
  5
95E
330
1F
100
AcDbEntity
  8
CYAN
100
AcDbCircle
 10
-82.45522511077801
 20
550.0662842904758
 30
0.0
 40
1.890046459728606
100
AcDbArc
 50
79.4393939157015
 51
228.7211541141004
  0
ARC
  5
95F
330
1F
100
AcDbEntity
  8
CYAN
100
AcDbCircle
 10
-41.74466604207982
 20
653.896282632483
 30
0.0
 40
109.6701750966591
100
AcDbArc
 50
248.4045649162991
 51
267.421087750699
  0
ARC
  5
960
330
1F
100
AcDbEntity
  8
CYAN
100
AcDbCircle
 10
-47.22423615379947
 20
543.1863335382263
 30
0.0
 40
1.27334052893015
100
AcDbArc
 50
290.7580080830005
 51
64.66246045369999
  0
ARC
  5
961
330
1F
100
AcDbEntity
  8
CYAN
100
AcDbCircle
 10
-67.88325999614784
 20
619.4988277813688
 30
0.0
 40
80.32675867366583
100
AcDbArc
 50
268.9453208379002
 51
285.2366029021005
  0
ARC
  5
962
330
1F
100
AcDbEntity
  8
CYAN
100
AcDbCircle
 10
-68.94497314134516
 20
546.0921858195526
 30
0.0
 40
6.919075081182701
100
AcDbArc
 50
228.9836006378004
 51
266.5462202271997
  0
ARC
  5
963
330
1F
100
AcDbEntity
  8
CYAN
100
AcDbCircle
 10
-107.7775525901814
 20
482.2054141697122
 30
0.0
 40
61.07896570624729
100
AcDbArc
 50
62.10658468130023
 51
77.78636948409843
  0
ARC
  5
964
330
1F
100
AcDbEntity
  8
CYAN
100
AcDbCircle
 10
-41.3573973266141
 20
549.2601119799445
 30
0.0
 40
2.057546143994855
100
AcDbArc
 50
281.0790554051999
 51
62.26029801090101
  0
ARC
  5
965
330
1F
100
AcDbEntity
  8
CYAN
100
AcDbCircle
 10
-28.03889442464738
 20
694.8370659115806
 30
0.0
 40
148.1608299186962
100
AcDbArc
 50
243.9222748523994
 51
264.9960982882993
  0
ARC
  5
966
330
1F
100
AcDbEntity
  8
CYAN
100
AcDbCircle
 10
-91.77437427382143
 20
562.4507842368448
 30
0.0
 40
1.556598729462774
100
AcDbArc
 50
89.57614784040108
 51
206.3770434145008
  0
ARC
  5
967
330
1F
100
AcDbEntity
  8
CYAN
100
AcDbCircle
 10
-89.50982101996038
 20
537.508168282507
 30
0.0
 40
26.59477961673351
100
AcDbArc
 50
70.66097439549856
 51
94.85976940090154
  0
ARC
  5
968
330
1F
100
AcDbEntity
  8
CYAN
100
AcDbCircle
 10
-33.67089545516666
 20
647.2947211730327
 30
0.0
 40
96.44854056815887
100
AcDbArc
 50
243.3353817656982
 51
265.9994665950988
  0
ARC
  5
969
330
1F
100
AcDbEntity
  8
CYAN
100
AcDbCircle
 10
-355.6151322296952
 20
1192.375016045936
 30
0.0
 40
713.9982376226148
100
AcDbArc
 50
296.7619299100011
 51
297.7781584616001
  0
ARC
  5
96A
330
1F
100
AcDbEntity
  8
CYAN
100
AcDbCircle
 10
-24.10686269639058
 20
561.9241354929795
 30
0.0
 40
1.778725105595553
100
AcDbArc
 50
314.6562225223003
 51
117.5772100448997
  0
ARC
  5
96B
330
1F
100
AcDbEntity
  8
CYAN
100
AcDbCircle
 10
-40.58072072874944
 20
561.1840101457813
 30
0.0
 40
2.205391349327818
100
AcDbArc
 50
120.3968487366002
 51
214.0774986596009
  0
ARC
  5
96C
330
1F
100
AcDbEntity
  8
CYAN
100
AcDbCircle
 10
-37.98338982982262
 20
558.3120267871219
 30
0.0
 40
3.587855292924363
100
AcDbArc
 50
200.6401791068996
 51
275.0443902996013
  0
ARC
  5
96D
330
1F
100
AcDbEntity
  8
CYAN
100
AcDbCircle
 10
-33.6725102133
 20
549.0648420866117
 30
0.0
 40
1.198339866263669
100
AcDbArc
 50
111.5609944430004
 51
274.4304426110012
  0
ARC
  5
96E
330
1F
100
AcDbEntity
  8
CYAN
100
AcDbCircle
 10
10.40911298272311
 20
470.8381244706739
 30
0.0
 40
88.70715538804487
100
AcDbArc
 50
104.855604400899
 51
119.7285009165005
  0
ARC
  5
96F
330
1F
100
AcDbEntity
  8
CYAN
100
AcDbCircle
 10
4.298686808605053
 20
499.4444450624691
 30
0.0
 40
59.50752190145123
100
AcDbArc
 50
90.6127750763987
 51
106.230675985301
  0
ARC
  5
970
330
1F
100
AcDbEntity
  8
CYAN
100
AcDbCircle
 10
2.579630046076061
 20
560.2243438348502
 30
0.0
 40
1.673237257062483
100
AcDbArc
 50
310.3182582824002
 51
64.2484778922995
  0
LINE
  5
971
330
1F
100
AcDbEntity
  8
CYAN
100
AcDbLine
 10
-15.60102160334523
 20
560.42435550565
 30
0.0
 11
-34.11288992649892
 21
550.1793303743421
 31
0.0
  0
ARC
  5
972
330
1F
100
AcDbEntity
  8
CYAN
100
AcDbCircle
 10
-21.97753792439596
 20
547.8181494840813
 30
0.0
 40
1.509745961862891
100
AcDbArc
 50
301.1604386762987
 51
148.8768564722013
  0
ARC
  5
973
330
1F
100
AcDbEntity
  8
CYAN
100
AcDbCircle
 10
-74.43998396266471
 20
635.1928823059964
 30
0.0
 40
100.5830827296152
100
AcDbArc
 50
272.9606222092991
 51
300.5795265239012
  0
ARC
  5
974
330
1F
100
AcDbEntity
  8
CYAN
100
AcDbCircle
 10
-68.37034935494664
 20
533.3722563277175
 30
0.0
 40
1.626859274262599
100
AcDbArc
 50
122.5186423297013
 51
244.6426652188982
  0
ARC
  5
975
330
1F
100
AcDbEntity
  8
CYAN
100
AcDbCircle
 10
-82.28037798384512
 20
627.1282664457499
 30
0.0
 40
101.1333198314805
100
AcDbArc
 50
284.278899280099
 51
307.156570175499
  0
ARC
  5
976
330
1F
100
AcDbEntity
  8
CYAN
100
AcDbCircle
 10
-47.04030946339992
 20
526.5269592024012
 30
0.0
 40
1.299420698263418
100
AcDbArc
 50
96.89005860519976
 51
255.1184879534995
  0
ARC
  5
977
330
1F
100
AcDbEntity
  8
CYAN
100
AcDbCircle
 10
-36.20069966569366
 20
568.221490907097
 30
0.0
 40
44.37992137802239
100
AcDbArc
 50
255.417996445001
 51
273.1683765633006
  0
ARC
  5
978
330
1F
100
AcDbEntity
  8
CYAN
100
AcDbCircle
 10
-33.83512556543295
 20
525.5076728372038
 30
0.0
 40
1.600648845062664
100
AcDbArc
 50
273.1273085916015
 51
33.70357601559899
  0
ARC
  5
979
330
1F
100
AcDbEntity
  8
CYAN
100
AcDbCircle
 10
-39.43250811435227
 20
527.2949105766659
 30
0.0
 40
3.250236315725207
100
AcDbArc
 50
60.57624958639909
 51
114.8427569120006
  0
ARC
  5
97A
330
1F
100
AcDbEntity
  8
CYAN
100
AcDbCircle
 10
-24.36167909065661
 20
534.9857449717135
 30
0.0
 40
8.77892638957805
100
AcDbArc
 50
272.9321311716986
 51
302.4799864543979
  0
ARC
  5
97B
330
1F
100
AcDbEntity
  8
CYAN
100
AcDbCircle
 10
-24.91994118238854
 20
529.7150876026599
 30
0.0
 40
3.638977407990902
100
AcDbArc
 50
239.6826840968985
 51
286.0703212069001
  0
ARC
  5
97C
330
1F
100
AcDbEntity
  8
CYAN
100
AcDbCircle
 10
-20.56616198999941
 20
528.9008063767953
 30
0.0
 40
1.608934973062644
100
AcDbArc
 50
304.8246816167996
 51
25.49064851379928
  0
ARC
  5
97D
330
1F
100
AcDbEntity
  8
CYAN
100
AcDbCircle
 10
-24.60765211158936
 20
536.6806592085092
 30
0.0
 40
1.715624651729044
100
AcDbArc
 50
27.31102538750049
 51
102.5028281919991
  0
ARC
  5
97E
330
1F
100
AcDbEntity
  8
CYAN
100
AcDbCircle
 10
-31.38955211183907
 20
532.8763722369187
 30
0.0
 40
1.984814113995036
100
AcDbArc
 50
114.3250974126008
 51
229.3950079938004
  0
ARC
  5
97F
330
1F
100
AcDbEntity
  8
CYAN
100
AcDbCircle
 10
-13.24985535628445
 20
533.7467852290499
 30
0.0
 40
2.813436479192965
100
AcDbArc
 50
208.6693857300986
 51
312.9191252073988
  0
LINE
  5
980
330
1F
100
AcDbEntity
  8
CYAN
100
AcDbLine
 10
-11.33400259322255
 20
531.6864617077218
 30
0.0
 11
-5.705899259903246
 21
538.4953763743713
 31
0.0
  0
ARC
  5
981
330
1F
100
AcDbEntity
  8
CYAN
100
AcDbCircle
 10
-7.050949334166546
 20
539.7602743331681
 30
0.0
 40
1.846382015862049
100
AcDbArc
 50
316.7590139662
 51
71.85559345450053
  0
ARC
  5
982
330
1F
100
AcDbEntity
  8
CYAN
100
AcDbCircle
 10
-18.06231855973902
 20
540.7715258416991
 30
0.0
 40
1.999999999994999
100
AcDbArc
 50
130.951067746501
 51
208.9324513186995
  0
LINE
  5
983
330
1F
100
AcDbEntity
  8
WHITE
100
AcDbLine
 10
-19.81269988773471
 20
539.8039695349015
 30
0.0
 11
-15.71837192654493
 21
532.3970257077201
 31
0.0
  0
ARC
  5
984
330
1F
100
AcDbEntity
  8
CYAN
100
AcDbCircle
 10
-15.85136019481126
 20
541.8074829950296
 30
0.0
 40
2.666666666659998
100
AcDbArc
 50
71.69553446509873
 51
130.951067746501
  0
LINE
  5
985
330
1F
100
AcDbEntity
  8
WHITE
100
AcDbLine
 10
-17.59913151747355
 20
543.8215352571581
 30
0.0
 11
-19.37314705173574
 21
542.2820650383619
 31
0.0
  0
LINE
  5
986
330
1F
100
AcDbEntity
  8
WHITE
100
AcDbLine
 10
-6.475961926568032
 20
541.5148443743637
 30
0.0
 11
-15.01384965708001
 21
544.3392190022235
 31
0.0
  0
ARC
  5
987
330
1F
100
AcDbEntity
  8
CYAN
100
AcDbCircle
 10
-13.24501444935106
 20
549.9497318918095
 30
0.0
 40
2.063887578128173
100
AcDbArc
 50
97.83001440860157
 51
253.7491946470007
  0
LINE
  5
988
330
1F
100
AcDbEntity
  8
CYAN
100
AcDbLine
 10
-4.758002593238983
 20
545.6594010410201
 30
0.0
 11
-13.82257792654963
 21
547.9683050410144
 31
0.0
  0
ARC
  5
989
330
1F
100
AcDbEntity
  8
CYAN
100
AcDbCircle
 10
-4.321809968573376
 20
547.9497370735478
 30
0.0
 40
2.331502337060836
100
AcDbArc
 50
259.2171954149993
 51
331.6765637524994
  0
ARC
  5
98A
330
1F
100
AcDbEntity
  8
CYAN
100
AcDbCircle
 10
-4.929888365905212
 20
550.7376444471408
 30
0.0
 40
3.333333333324998
100
AcDbArc
 50
349.3665228278999
 51
357.8764875436008
  0
LINE
  5
98B
330
1F
100
AcDbEntity
  8
WHITE
100
AcDbLine
 10
-1.653796029113436
 20
550.1225589958091
 30
0.0
 11
-2.269427259911906
 21
546.8435597076839
 31
0.0
  0
ARC
  5
98C
330
1F
100
AcDbEntity
  8
CYAN
100
AcDbCircle
 10
-2.861190084043669
 20
552.5533192104695
 30
0.0
 40
1.333333333329999
100
AcDbArc
 50
357.8764875436008
 51
76.87496332370058
  0
LINE
  5
98D
330
1F
100
AcDbEntity
  8
WHITE
100
AcDbLine
 10
-1.528772387780378
 20
552.5039141440695
 30
0.0
 11
-1.598844125380195
 21
550.6141317812745
 31
0.0
  0
ARC
  5
98E
330
1F
100
AcDbEntity
  8
CYAN
100
AcDbCircle
 10
-5.024192521771624
 20
553.0576621024684
 30
0.0
 40
1.333333333329999
100
AcDbArc
 50
76.87496332370058
 51
106.0809619326009
  0
LINE
  5
98F
330
1F
100
AcDbEntity
  8
WHITE
100
AcDbLine
 10
-4.721423339905753
 20
554.3561645476651
 30
0.0
 11
-2.558420902177799
 21
553.8518216556663
 31
0.0
  0
LINE
  5
990
330
1F
100
AcDbEntity
  8
WHITE
100
AcDbLine
 10
-13.52618725988375
 20
551.9943770410044
 30
0.0
 11
-5.393519712837387
 21
554.3388237643319
 31
0.0
  0
ARC
  5
991
330
1F
100
AcDbEntity
  8
CYAN
100
AcDbCircle
 10
-88.7380843944957
 20
667.0903979500499
 30
0.0
 40
7.2390556307819
100
AcDbArc
 50
199.5326470549003
 51
237.3488218132983
  0
LINE
  5
992
330
1F
100
AcDbEntity
  8
CYAN
100
AcDbLine
 10
-92.64372192635258
 20
660.9953243740651
 30
0.0
 11
-90.33065992635835
 21
660.7519437073992
 31
0.0
  0
LINE
  5
993
330
1F
100
AcDbEntity
  8
CYAN
100
AcDbLine
 10
-90.33065992635835
 20
660.7519437073992
 30
0.0
 11
-90.20583792635866
 21
669.1051650407115
 31
0.0
  0
LINE
  5
994
330
1F
100
AcDbEntity
  8
CYAN
100
AcDbLine
 10
-90.20583792635866
 20
669.1051650407115
 30
0.0
 11
-88.20561459303036
 21
669.1051650407115
 31
0.0
  0
LINE
  5
995
330
1F
100
AcDbEntity
  8
CYAN
100
AcDbLine
 10
-88.20561459303036
 20
669.1051650407115
 30
0.0
 11
-88.33248059303
 21
660.6151437073994
 31
0.0
  0
LINE
  5
996
330
1F
100
AcDbEntity
  8
CYAN
100
AcDbLine
 10
-88.33248059303
 20
660.6151437073994
 30
0.0
 11
-85.92368125970272
 21
660.6151437073994
 31
0.0
  0
ARC
  5
997
330
1F
100
AcDbEntity
  8
CYAN
100
AcDbCircle
 10
-86.00269800956914
 20
664.492101076323
 30
0.0
 40
3.877762510390303
100
AcDbArc
 50
271.1675907519008
 51
345.6323928827016
  0
LINE
  5
998
330
1F
100
AcDbEntity
  8
CYAN
100
AcDbLine
 10
-82.24621792637861
 20
663.5298643740587
 30
0.0
 11
-81.35870725971415
 21
668.9784383740451
 31
0.0
  0
ARC
  5
999
330
1F
100
AcDbEntity
  8
CYAN
100
AcDbCircle
 10
-86.44243443316813
 20
674.9381305825636
 30
0.0
 40
7.833403678780414
100
AcDbArc
 50
310.4647889862999
 51
26.90316106379976
  0
LINE
  5
99A
330
1F
100
AcDbEntity
  8
CYAN
100
AcDbLine
 10
-79.45681992638556
 20
678.4826197073547
 30
0.0
 11
-85.03561659303828
 21
681.9039050406794
 31
0.0
  0
ARC
  5
99B
330
1F
100
AcDbEntity
  8
CYAN
100
AcDbCircle
 10
-63.46097734615887
 20
685.8063547065365
 30
0.0
 40
21.92473881314519
100
AcDbArc
 50
151.6334648434992
 51
190.2528785216012
  0
LINE
  5
99C
330
1F
100
AcDbEntity
  8
CYAN
100
AcDbLine
 10
-82.75312992637735
 20
696.2230250406437
 30
0.0
 11
-80.09059792638401
 21
696.3497523739768
 31
0.0
  0
ARC
  5
99D
330
1F
100
AcDbEntity
  8
CYAN
100
AcDbCircle
 10
-96.0068156464775
 20
648.0302724158308
 30
0.0
 40
50.8733538302728
100
AcDbArc
 50
49.50782666199878
 51
71.76835124670006
  0
ARC
  5
99E
330
1F
100
AcDbEntity
  8
CYAN
100
AcDbCircle
 10
-59.73906892643487
 20
693.2114311959846
 30
0.0
 40
7.252882889181866
100
AcDbArc
 50
243.5246205715996
 51
296.4753794284005
  0
ARC
  5
99F
330
1F
100
AcDbEntity
  8
CYAN
100
AcDbCircle
 10
-73.65468352626672
 20
737.9215731240061
 30
0.0
 40
53.99790834479833
100
AcDbArc
 50
288.5170727702017
 51
319.7968487031012
  0
LINE
  5
9A0
330
1F
100
AcDbEntity
  8
CYAN
100
AcDbLine
 10
-32.41321259316983
 20
703.0659397072934
 30
0.0
 11
-31.01823659317333
 21
705.8535897072862
 31
0.0
  0
ARC
  5
9A1
330
1F
100
AcDbEntity
  8
CYAN
100
AcDbCircle
 10
-69.43547167334388
 20
711.6194963739387
 30
0.0
 40
38.84751769283621
100
AcDbArc
 50
351.4643898841991
 51
2.89806029780007
  0
LINE
  5
9A2
330
1F
100
AcDbEntity
  8
CYAN
100
AcDbLine
 10
-30.63763725984099
 20
713.5835930406003
 30
0.0
 11
-31.27196925983934
 21
714.8508630405972
 31
0.0
  0
LINE
  5
9A3
330
1F
100
AcDbEntity
  8
CYAN
100
AcDbLine
 10
-31.27196925983934
 20
714.8508630405972
 30
0.0
 11
-32.79325792650226
 21
715.1043170405966
 31
0.0
  0
LINE
  5
9A4
330
1F
100
AcDbEntity
  8
CYAN
100
AcDbLine
 10
-32.79325792650226
 20
715.1043170405966
 30
0.0
 11
-33.6813225931667
 21
710.5424890406079
 31
0.0
  0
LINE
  5
9A5
330
1F
100
AcDbEntity
  8
CYAN
100
AcDbLine
 10
-33.6813225931667
 20
710.5424890406079
 30
0.0
 11
-35.32947725982922
 21
705.3470257072875
 31
0.0
  0
ARC
  5
9A6
330
1F
100
AcDbEntity
  8
CYAN
100
AcDbCircle
 10
-68.40262670601321
 20
735.9960660509442
 30
0.0
 40
45.09098455655393
100
AcDbArc
 50
282.1471542314002
 51
317.1785861246998
  0
ARC
  5
9A7
330
1F
100
AcDbEntity
  8
CYAN
100
AcDbCircle
 10
-49.44357856259394
 20
714.0404708904658
 30
0.0
 40
24.06759374113983
100
AcDbArc
 50
227.3108574340003
 51
246.826869578699
  0
ARC
  5
9A8
330
1F
100
AcDbEntity
  8
CYAN
100
AcDbCircle
 10
-105.814869036853
 20
636.7590209218592
 30
0.0
 40
71.8003883678205
100
AcDbArc
 50
56.093600887398
 51
71.7986235015995
  0
ARC
  5
9A9
330
1F
100
AcDbEntity
  8
CYAN
100
AcDbCircle
 10
-84.16929760704048
 20
700.9289102776988
 30
0.0
 40
4.112928250923051
100
AcDbArc
 50
79.04183363389951
 51
152.7441570964996
  0
ARC
  5
9AA
330
1F
100
AcDbEntity
  8
CYAN
100
AcDbCircle
 10
-3.278504001375977
 20
664.2961729791236
 30
0.0
 40
92.90701044563439
100
AcDbArc
 50
155.5078590862001
 51
177.1112218671996
  0
LINE
  5
9AB
330
1F
100
AcDbEntity
  8
CYAN
100
AcDbLine
 10
-96.06745259301078
 20
668.9784383740451
 30
0.0
 11
-95.56054059301194
 21
664.6700637073892
 31
0.0
  0
ARC
  5
9AC
330
1F
100
AcDbEntity
  8
CYAN
100
AcDbCircle
 10
13.25414292604935
 20
608.7450634285959
 30
0.0
 40
7.876988520780304
100
AcDbArc
 50
253.1063425201002
 51
293.546799686401
  0
LINE
  5
9AD
330
1F
100
AcDbEntity
  8
CYAN
100
AcDbLine
 10
16.40098407337478
 20
601.5239597075471
 30
0.0
 11
17.53890340670531
 21
602.6610677075442
 31
0.0
  0
LINE
  5
9AE
330
1F
100
AcDbEntity
  8
CYAN
100
AcDbLine
 10
17.53890340670531
 20
602.6610677075442
 30
0.0
 11
11.84986007338617
 21
608.4726510408633
 31
0.0
  0
LINE
  5
9AF
330
1F
100
AcDbEntity
  8
CYAN
100
AcDbLine
 10
11.84986007338617
 20
608.4726510408633
 30
0.0
 11
13.29769407338253
 21
609.8526823741931
 31
0.0
  0
LINE
  5
9B0
330
1F
100
AcDbEntity
  8
CYAN
100
AcDbLine
 10
13.29769407338253
 20
609.8526823741931
 30
0.0
 11
18.76737474003551
 21
604.2651870408737
 31
0.0
  0
LINE
  5
9B1
330
1F
100
AcDbEntity
  8
CYAN
100
AcDbLine
 10
18.76737474003551
 20
604.2651870408737
 30
0.0
 11
20.76263940669725
 21
606.0092023742027
 31
0.0
  0
LINE
  5
9B2
330
1F
100
AcDbEntity
  8
CYAN
100
AcDbLine
 10
20.76263940669725
 20
606.0092023742027
 30
0.0
 11
21.20528674002944
 21
608.7886103741957
 31
0.0
  0
ARC
  5
9B3
330
1F
100
AcDbEntity
  8
CYAN
100
AcDbCircle
 10
9.065528282459778
 20
603.8961298311412
 30
0.0
 40
13.08854847850061
100
AcDbArc
 50
21.95007581670095
 51
52.6720056312999
  0
LINE
  5
9B4
330
1F
100
AcDbEntity
  8
CYAN
100
AcDbLine
 10
17.00212293083993
 20
614.3038465192485
 30
0.0
 11
16.37882407337485
 21
618.4514577075049
 31
0.0
  0
ARC
  5
9B5
330
1F
100
AcDbEntity
  8
CYAN
100
AcDbCircle
 10
8.894338107126969
 20
612.4255908205866
 30
0.0
 40
9.608777337309312
100
AcDbArc
 50
38.83803948620098
 51
78.18644219549998
  0
LINE
  5
9B6
330
1F
100
AcDbEntity
  8
CYAN
100
AcDbLine
 10
10.86152074005534
 20
621.8308443741632
 30
0.0
 11
5.344772073402451
 21
620.2301003741671
 31
0.0
  0
LINE
  5
9B7
330
1F
100
AcDbEntity
  8
CYAN
100
AcDbLine
 10
5.344772073402451
 20
620.2301003741671
 30
0.0
 11
3.209095406741113
 21
620.5858977074996
 31
0.0
  0
LINE
  5
9B8
330
1F
100
AcDbEntity
  8
CYAN
100
AcDbLine
 10
3.209095406741113
 20
620.5858977074996
 30
0.0
 11
-4.088214593240649
 21
628.5892737074796
 31
0.0
  0
ARC
  5
9B9
330
1F
100
AcDbEntity
  8
CYAN
100
AcDbCircle
 10
0.359183191548226
 20
630.4568657074749
 30
0.0
 40
4.82361347278794
100
AcDbArc
 50
157.221044746601
 51
202.778955253399
  0
ARC
  5
9BA
330
1F
100
AcDbEntity
  8
CYAN
100
AcDbCircle
 10
17.6873342564383
 20
601.0132832874152
 30
0.0
 40
38.13874894737132
100
AcDbArc
 50
96.5249255767015
 51
124.8169198677981
  0
LINE
  5
9BB
330
1F
100
AcDbEntity
  8
CYAN
100
AcDbLine
 10
13.3534207400491
 20
638.904989040787
 30
0.0
 11
17.26910474003929
 21
640.6836317074493
 31
0.0
  0
LINE
  5
9BC
330
1F
100
AcDbEntity
  8
CYAN
100
AcDbLine
 10
17.26910474003929
 20
640.6836317074493
 30
0.0
 11
18.51450007336953
 21
641.9285783741128
 31
0.0
  0
ARC
  5
9BD
330
1F
100
AcDbEntity
  8
CYAN
100
AcDbCircle
 10
-75736.9870454107
 20
22306.92984284555
 30
0.0
 40
78792.56496775179
100
AcDbArc
 50
344.0402201105009
 51
344.0496362525
  0
ARC
  5
9BE
330
1F
100
AcDbEntity
  8
CYAN
100
AcDbCircle
 10
-36.90440941035863
 20
663.5830075467254
 30
0.0
 40
59.69226828851741
100
AcDbArc
 50
351.1298636334993
 51
10.86258435890139
  0
LINE
  5
9BF
330
1F
100
AcDbEntity
  8
CYAN
100
AcDbLine
 10
21.71829207336148
 20
674.8322637073638
 30
0.0
 11
19.5826154067002
 21
676.9667037073586
 31
0.0
  0
ARC
  5
9C0
330
1F
100
AcDbEntity
  8
CYAN
100
AcDbCircle
 10
8.331539350195013
 20
670.7547911864407
 30
0.0
 40
12.85202589476787
100
AcDbArc
 50
28.90384381170134
 51
58.97806294810154
  0
LINE
  5
9C1
330
1F
100
AcDbEntity
  8
CYAN
100
AcDbLine
 10
14.95503940671176
 20
681.7685923740132
 30
0.0
 11
14.06531274004726
 21
681.5910370406802
 31
0.0
  0
LINE
  5
9C2
330
1F
100
AcDbEntity
  8
CYAN
100
AcDbLine
 10
14.06531274004726
 20
681.5910370406802
 30
0.0
 11
12.81936274005039
 21
680.8794423740155
 31
0.0
  0
LINE
  5
9C3
330
1F
100
AcDbEntity
  8
CYAN
100
AcDbLine
 10
12.81936274005039
 20
680.8794423740155
 30
0.0
 11
13.99329274004745
 21
679.0619917073533
 31
0.0
  0
LINE
  5
9C4
330
1F
100
AcDbEntity
  8
CYAN
100
AcDbLine
 10
13.99329274004745
 20
679.0619917073533
 30
0.0
 11
16.39544407337482
 21
675.5242823740289
 31
0.0
  0
ARC
  5
9C5
330
1F
100
AcDbEntity
  8
CYAN
100
AcDbCircle
 10
4.629294317670883
 20
667.07312801885
 30
0.0
 40
14.48669354996378
100
AcDbArc
 50
16.14829791900018
 51
35.68817417940149
  0
ARC
  5
9C6
330
1F
100
AcDbEntity
  8
CYAN
100
AcDbCircle
 10
-37.04313123449163
 20
668.3129676103136
 30
0.0
 40
55.65748296426086
100
AcDbArc
 50
336.1199881186987
 51
2.872570278700223
  0
LINE
  5
9C7
330
1F
100
AcDbEntity
  8
CYAN
100
AcDbLine
 10
13.84980607338113
 20
645.7815597074366
 30
0.0
 11
11.76399007338642
 21
644.7708343741058
 31
0.0
  0
ARC
  5
9C8
330
1F
100
AcDbEntity
  8
CYAN
100
AcDbCircle
 10
24.9059698606869
 20
574.8339348134805
 30
0.0
 40
71.1609552554221
100
AcDbArc
 50
100.642455444601
 51
121.2437464945015
  0
ARC
  5
9C9
330
1F
100
AcDbEntity
  8
CYAN
100
AcDbCircle
 10
-7.417123497498977
 20
632.3655792953367
 30
0.0
 40
5.655546620252526
100
AcDbArc
 50
144.1940748103016
 51
194.6386364183004
  0
ARC
  5
9CA
330
1F
100
AcDbEntity
  8
CYAN
100
AcDbCircle
 10
60.3970306919315
 20
665.3070718068544
 30
0.0
 40
80.9456905080643
100
AcDbArc
 50
205.1263109814988
 51
232.3613150284013
  0
ARC
  5
9CB
330
1F
100
AcDbEntity
  8
CYAN
100
AcDbCircle
 10
-128.2465127598636
 20
517.8716929821563
 30
0.0
 40
83.79079661392387
100
AcDbArc
 50
97.35849737150008
 51
103.2412361567993
  0
LINE
  5
9CC
330
1F
100
AcDbEntity
  8
CYAN
100
AcDbLine
 10
-138.9782065929034
 20
600.972405040882
 30
0.0
 11
-135.7478232595782
 21
602.0483823742126
 31
0.0
  0
LINE
  5
9CD
330
1F
100
AcDbEntity
  8
CYAN
100
AcDbLine
 10
-135.7478232595782
 20
602.0483823742126
 30
0.0
 11
-124.2096299262736
 21
606.1994643742023
 31
0.0
  0
ARC
  5
9CE
330
1F
100
AcDbEntity
  8
CYAN
100
AcDbCircle
 10
-1419.923157017834
 20
4367.490680489865
 30
0.0
 40
3978.213814856721
100
AcDbArc
 50
289.0081311406989
 51
290.1263542438982
  0
ARC
  5
9CF
330
1F
100
AcDbEntity
  8
CYAN
100
AcDbCircle
 10
-129.824284046393
 20
784.9548410021553
 30
0.0
 40
171.8669889583703
100
AcDbArc
 50
297.2791479429992
 51
314.4510420811006
  0
ARC
  5
9D0
330
1F
100
AcDbEntity
  8
CYAN
100
AcDbCircle
 10
-149.8640507555428
 20
807.3201366092991
 30
0.0
 40
201.870836004162
100
AcDbArc
 50
314.0658795444006
 51
327.655688708198
  0
ARC
  5
9D1
330
1F
100
AcDbEntity
  8
CYAN
100
AcDbCircle
 10
10.77142915978891
 20
705.7811688408865
 30
0.0
 40
11.83530039450374
100
AcDbArc
 50
326.9009301345993
 51
108.6095035559008
  0
ARC
  5
9D2
330
1F
100
AcDbEntity
  8
CYAN
100
AcDbCircle
 10
40.22064547584863
 20
603.8041118580747
 30
0.0
 40
117.969282382505
100
AcDbArc
 50
106.3587104640989
 51
122.7619611396983
  0
ARC
  5
9D3
330
1F
100
AcDbEntity
  8
CYAN
100
AcDbCircle
 10
87.41442612826398
 20
529.7908481165266
 30
0.0
 40
205.7482059329522
100
AcDbArc
 50
122.6600947599992
 51
137.2486294525998
  0
LINE
  5
9D4
330
1F
100
AcDbEntity
  8
CYAN
100
AcDbLine
 10
-63.66777192642501
 20
669.4564977073773
 30
0.0
 11
-122.8251799262771
 21
635.2553197074627
 31
0.0
  0
ARC
  5
9D5
330
1F
100
AcDbEntity
  8
CYAN
100
AcDbCircle
 10
-114.3035336424317
 20
613.8821019656496
 30
0.0
 40
23.00940877180915
100
AcDbArc
 50
111.7375038624016
 51
144.9160537431009
  0
ARC
  5
9D6
330
1F
100
AcDbEntity
  8
CYAN
100
AcDbCircle
 10
-141.3407937156975
 20
625.6775655098869
 30
0.0
 40
8.332007007845835
100
AcDbArc
 50
256.5020664057011
 51
9.880997648699263
  0
ARC
  5
9D7
330
1F
100
AcDbEntity
  8
CYAN
100
AcDbCircle
 10
-150.4060326643415
 20
606.4027015479348
 30
0.0
 40
13.24903532596688
100
AcDbArc
 50
57.49096868190019
 51
83.80973459049924
  0
ARC
  5
9D8
330
1F
100
AcDbEntity
  8
CYAN
100
AcDbCircle
 10
-148.5939326404793
 20
615.344903378846
 30
0.0
 40
4.246928425589381
100
AcDbArc
 50
95.18022917540049
 51
174.7822951620007
  0
LINE
  5
9D9
330
1F
100
AcDbEntity
  8
CYAN
100
AcDbLine
 10
-152.8232632595354
 20
615.7311203741784
 30
0.0
 11
-152.6698045928692
 21
612.1951277075205
 31
0.0
  0
LINE
  5
9DA
330
1F
100
AcDbEntity
  8
CYAN
100
AcDbLine
 10
-152.6698045928692
 20
612.1951277075205
 30
0.0
 11
-151.4388125928722
 21
607.2754417075327
 31
0.0
  0
LINE
  5
9DB
330
1F
100
AcDbEntity
  8
CYAN
100
AcDbLine
 10
-151.4388125928722
 20
607.2754417075327
 30
0.0
 11
-143.9010659262244
 21
608.3517623741968
 31
0.0
  0
LINE
  5
9DC
330
1F
100
AcDbEntity
  8
CYAN
100
AcDbLine
 10
-143.9010659262244
 20
608.3517623741968
 30
0.0
 11
-143.6362739262251
 21
606.3692863742017
 31
0.0
  0
LINE
  5
9DD
330
1F
100
AcDbEntity
  8
CYAN
100
AcDbLine
 10
-143.6362739262251
 20
606.3692863742017
 30
0.0
 11
-151.0417679262066
 21
605.3118497075375
 31
0.0
  0
LINE
  5
9DE
330
1F
100
AcDbEntity
  8
CYAN
100
AcDbLine
 10
-151.0417679262066
 20
605.3118497075375
 30
0.0
 11
-150.9773292595401
 21
603.5859343742087
 31
0.0
  0
LINE
  5
9DF
330
1F
100
AcDbEntity
  8
CYAN
100
AcDbLine
 10
-150.9773292595401
 20
603.5859343742087
 30
0.0
 11
-150.6698585928742
 21
601.7410097075464
 31
0.0
  0
LINE
  5
9E0
330
1F
100
AcDbEntity
  8
CYAN
100
AcDbLine
 10
-150.6698585928742
 20
601.7410097075464
 30
0.0
 11
-150.3907952770082
 21
601.2231803846146
 31
0.0
  0
ARC
  5
9E1
330
1F
100
AcDbEntity
  8
CYAN
100
AcDbCircle
 10
-147.4564409042156
 20
602.8045328204775
 30
0.0
 40
3.333333333324998
100
AcDbArc
 50
208.320664268701
 51
261.8696990309
  0
LINE
  5
9E2
330
1F
100
AcDbEntity
  8
CYAN
100
AcDbLine
 10
-147.9278568638143
 20
599.5047028090189
 30
0.0
 11
-147.4389205928823
 21
599.4348530408857
 31
0.0
  0
ARC
  5
9E3
330
1F
100
AcDbEntity
  8
CYAN
100
AcDbCircle
 10
-215.7028362012449
 20
697.8962992473062
 30
0.0
 40
24.59977035260517
100
AcDbArc
 50
149.948855421901
 51
212.137489609199
  0
ARC
  5
9E4
330
1F
100
AcDbEntity
  8
CYAN
100
AcDbCircle
 10
-215.1116239104464
 20
698.9908812925035
 30
0.0
 40
25.68995897260244
100
AcDbArc
 50
213.5033675450004
 51
280.4212265376015
  0
ARC
  5
9E5
330
1F
100
AcDbEntity
  8
CYAN
100
AcDbCircle
 10
-215.5492618553786
 20
701.3888701538307
 30
0.0
 40
28.12755356032968
100
AcDbArc
 50
280.4144275148989
 51
333.3727365399997
  0
ARC
  5
9E6
330
1F
100
AcDbEntity
  8
CYAN
100
AcDbCircle
 10
-203.2370634008761
 20
691.4701205898556
 30
0.0
 40
13.11060166236722
100
AcDbArc
 50
348.170898895001
 51
6.84276280449875
  0
ARC
  5
9E7
330
1F
100
AcDbEntity
  8
CYAN
100
AcDbCircle
 10
-220.9424122450985
 20
678.1461221920224
 30
0.0
 40
34.13898995058132
100
AcDbArc
 50
25.85166883469871
 51
56.77612378639943
  0
ARC
  5
9E8
330
1F
100
AcDbEntity
  8
CYAN
100
AcDbCircle
 10
-157.5018376675236
 20
742.1390804402623
 30
0.0
 40
57.06889354625732
100
AcDbArc
 50
211.0431972991003
 51
218.3823815251004
  0
ARC
  5
9E9
330
1F
100
AcDbEntity
  8
CYAN
100
AcDbCircle
 10
-212.7679385796523
 20
704.6936979143558
 30
0.0
 40
10.2391210363744
100
AcDbArc
 50
51.52371446160143
 51
87.9740045091008
  0
ARC
  5
9EA
330
1F
100
AcDbEntity
  8
CYAN
100
AcDbCircle
 10
-173.4322639469506
 20
324.3554381010401
 30
0.0
 40
392.510686837152
100
AcDbArc
 50
95.69847853679892
 51
96.58065251849876
  0
ARC
  5
9EB
330
1F
100
AcDbEntity
  8
CYAN
100
AcDbCircle
 10
-217.139185112708
 20
739.795174412935
 30
0.0
 40
25.5469579070028
100
AcDbArc
 50
252.1300283557986
 51
267.1382271137991
  0
LINE
  5
9EC
330
1F
100
AcDbEntity
  8
CYAN
100
AcDbLine
 10
-224.978469715755
 20
715.480720373929
 30
0.0
 11
-230.0625430490757
 21
715.8502550405946
 31
0.0
  0
ARC
  5
9ED
330
1F
100
AcDbEntity
  8
CYAN
100
AcDbCircle
 10
-229.8176140758763
 20
709.4120852400775
 30
0.0
 40
6.442827064383893
100
AcDbArc
 50
92.17866763730006
 51
151.9194177420005
  0
LINE
  5
9EE
330
1F
100
AcDbEntity
  8
CYAN
100
AcDbLine
 10
-235.5020330490621
 20
712.4448070406032
 30
0.0
 11
-217.5114817157738
 21
704.4680803739566
 31
0.0
  0
LINE
  5
9EF
330
1F
100
AcDbEntity
  8
CYAN
100
AcDbLine
 10
-217.5114817157738
 20
704.4680803739566
 30
0.0
 11
-218.3221397157717
 21
702.639738373961
 31
0.0
  0
LINE
  5
9F0
330
1F
100
AcDbEntity
  8
CYAN
100
AcDbLine
 10
-218.3221397157717
 20
702.639738373961
 30
0.0
 11
-236.6566997157259
 21
710.7662377072743
 31
0.0
  0
LINE
  5
9F1
330
1F
100
AcDbEntity
  8
CYAN
100
AcDbLine
 10
-236.6566997157259
 20
710.7662377072743
 30
0.0
 11
-236.9958743823917
 21
710.2151963739419
 31
0.0
  0
ARC
  5
9F2
330
1F
100
AcDbEntity
  8
CYAN
100
AcDbCircle
 10
-172.0999389641539
 20
676.2915063416269
 30
0.0
 40
9.925407699175185
100
AcDbArc
 50
22.44480314749984
 51
92.49949854549887
  0
ARC
  5
9F3
330
1F
100
AcDbEntity
  8
CYAN
100
AcDbCircle
 10
-170.3246658878916
 20
660.0703570444676
 30
0.0
 40
26.23022208566776
100
AcDbArc
 50
94.82901888640055
 51
145.2317456813991
  0
ARC
  5
9F4
330
1F
100
AcDbEntity
  8
CYAN
100
AcDbCircle
 10
-172.2297695570869
 20
663.4131941404591
 30
0.0
 40
22.81939530287628
100
AcDbArc
 50
149.4024708882001
 51
241.2182845187013
  0
ARC
  5
9F5
330
1F
100
AcDbEntity
  8
CYAN
100
AcDbCircle
 10
-170.4770422554913
 20
663.3240185912592
 30
0.0
 40
23.63793500260757
100
AcDbArc
 50
237.3877884068996
 51
269.6055664789001
  0
LINE
  5
9F6
330
1F
100
AcDbEntity
  8
CYAN
100
AcDbLine
 10
-170.6397683825575
 20
639.6866437074518
 30
0.0
 11
-169.795717715893
 21
639.7340910407849
 31
0.0
  0
LINE
  5
9F7
330
1F
100
AcDbEntity
  8
CYAN
100
AcDbLine
 10
-169.795717715893
 20
639.7340910407849
 30
0.0
 11
-170.0076523825591
 21
650.3605597074251
 31
0.0
  0
LINE
  5
9F8
330
1F
100
AcDbEntity
  8
CYAN
100
AcDbLine
 10
-170.0076523825591
 20
650.3605597074251
 30
0.0
 11
-168.0071730492308
 21
650.3563483740919
 31
0.0
  0
LINE
  5
9F9
330
1F
100
AcDbEntity
  8
CYAN
100
AcDbLine
 10
-168.0071730492308
 20
650.3563483740919
 30
0.0
 11
-167.799999715898
 21
639.9447243741177
 31
0.0
  0
ARC
  5
9FA
330
1F
100
AcDbEntity
  8
CYAN
100
AcDbCircle
 10
-169.1136132825614
 20
647.6118944907653
 30
0.0
 40
7.778886694247218
100
AcDbArc
 50
279.722072446199
 51
320.4142884584007
  0
ARC
  5
9FB
330
1F
100
AcDbEntity
  8
CYAN
100
AcDbCircle
 10
-223.3419336606925
 20
661.6777805651302
 30
0.0
 40
63.15626130170878
100
AcDbArc
 50
342.470142024201
 51
16.94126385919852
  0
ARC
  5
9FC
330
1F
100
AcDbEntity
  8
CYAN
100
AcDbCircle
 10
10.99981558952169
 20
539.5316402515688
 30
0.0
 40
12.13910440263632
100
AcDbArc
 50
119.9842757570997
 51
143.9587013442003
  0
ARC
  5
9FD
330
1F
100
AcDbEntity
  8
CYAN
100
AcDbCircle
 10
5.70978688540157
 20
585.6363578114536
 30
0.0
 40
35.59875218617767
100
AcDbArc
 50
268.7499107181005
 51
280.2698692570988
  0
LINE
  5
9FE
330
1F
100
AcDbEntity
  8
CYAN
100
AcDbLine
 10
12.05650274005234
 20
550.6079357076743
 30
0.0
 11
13.649811406715
 21
549.7648057076767
 31
0.0
  0
ARC
  5
9FF
330
1F
100
AcDbEntity
  8
CYAN
100
AcDbCircle
 10
26.61591085881594
 20
555.1657255903298
 30
0.0
 40
14.04598414423155
100
AcDbArc
 50
202.6137591811005
 51
225.338797128101
  0
ARC
  5
A00
330
1F
100
AcDbEntity
  8
CYAN
100
AcDbCircle
 10
19.07583550883476
 20
549.9072704635429
 30
0.0
 40
5.275975180520143
100
AcDbArc
 50
243.7557075903999
 51
344.0063463159011
  0
ARC
  5
A01
330
1F
100
AcDbEntity
  8
CYAN
100
AcDbCircle
 10
-19.90880527000109
 20
549.9523207076761
 30
0.0
 40
44.08188002455645
100
AcDbArc
 50
358.0516194601
 51
7.122392302000769
  0
LINE
  5
A02
330
1F
100
AcDbEntity
  8
CYAN
100
AcDbLine
 10
23.83291940668957
 20
555.4180017076625
 30
0.0
 11
23.58531540669019
 21
558.0772897076557
 31
0.0
  0
LINE
  5
A03
330
1F
100
AcDbEntity
  8
CYAN
100
AcDbLine
 10
23.58531540669019
 20
558.0772897076557
 30
0.0
 11
15.68154474004325
 21
557.3338737076576
 31
0.0
  0
LINE
  5
A04
330
1F
100
AcDbEntity
  8
CYAN
100
AcDbLine
 10
15.68154474004325
 20
557.3338737076576
 30
0.0
 11
15.4309267400439
 21
559.3191283743193
 31
0.0
  0
LINE
  5
A05
330
1F
100
AcDbEntity
  8
CYAN
100
AcDbLine
 10
15.4309267400439
 20
559.3191283743193
 30
0.0
 11
23.39802540669067
 21
560.0685003743175
 31
0.0
  0
LINE
  5
A06
330
1F
100
AcDbEntity
  8
CYAN
100
AcDbLine
 10
23.39802540669067
 20
560.0685003743175
 30
0.0
 11
23.11659207335805
 21
563.3465743743093
 31
0.0
  0
LINE
  5
A07
330
1F
100
AcDbEntity
  8
CYAN
100
AcDbLine
 10
23.11659207335805
 20
563.3465743743093
 30
0.0
 11
21.80416207336128
 21
565.3137617076375
 31
0.0
  0
LINE
  5
A08
330
1F
100
AcDbEntity
  8
CYAN
100
AcDbLine
 10
21.80416207336128
 20
565.3137617076375
 30
0.0
 11
17.58654740670519
 21
565.6884477076366
 31
0.0
  0
ARC
  5
A09
330
1F
100
AcDbEntity
  8
CYAN
100
AcDbCircle
 10
8.289753430328431
 20
663.4461606204589
 30
0.0
 40
98.19878213188784
100
AcDbArc
 50
263.0478522336996
 51
275.4325113836001
  0
ARC
  5
A0A
330
1F
100
AcDbEntity
  8
CYAN
100
AcDbCircle
 10
-40.70005719088239
 20
143.1794399026931
 30
0.0
 40
424.4149173322723
100
AcDbArc
 50
84.98460549349886
 51
89.40083525930047
  0
ARC
  5
A0B
330
1F
100
AcDbEntity
  8
CYAN
100
AcDbCircle
 10
-289.1909870251946
 20
-14183.64793896629
 30
0.0
 40
14753.38733252072
100
AcDbArc
 50
89.01768448210008
 51
89.42100263859956
  0
ARC
  5
A0C
330
1F
100
AcDbEntity
  8
CYAN
100
AcDbCircle
 10
-139.5558306234353
 20
557.9078330241896
 30
0.0
 40
11.09184217557227
100
AcDbArc
 50
92.83530998219937
 51
253.9412280429005
  0
LINE
  5
A0D
330
1F
100
AcDbEntity
  8
CYAN
100
AcDbLine
 10
-142.6240919262276
 20
547.248811707683
 30
0.0
 11
-137.7505392595731
 21
545.9375823743528
 31
0.0
  0
ARC
  5
A0E
330
1F
100
AcDbEntity
  8
CYAN
100
AcDbCircle
 10
-188.8671656551786
 20
204.7357510325392
 30
0.0
 40
345.0095639328708
100
AcDbArc
 50
72.13259057520102
 51
81.47968752820146
  0
ARC
  5
A0F
330
1F
100
AcDbEntity
  8
CYAN
100
AcDbCircle
 10
109.4184325251422
 20
972.2002352470203
 30
0.0
 40
479.4103691493347
100
AcDbArc
 50
246.3347847560991
 51
249.188100737299
  0
ARC
  5
A10
330
1F
100
AcDbEntity
  8
CYAN
100
AcDbCircle
 10
-37.15657525982464
 20
587.3053662914493
 30
0.0
 40
67.55138629489778
100
AcDbArc
 50
249.4066753234006
 51
273.141872786401
  0
ARC
  5
A11
330
1F
100
AcDbEntity
  8
CYAN
100
AcDbCircle
 10
-34.23718363156529
 20
564.4366964619066
 30
0.0
 40
44.58805435068852
100
AcDbArc
 50
271.0062111889002
 51
302.6871987980992
  0
ARC
  5
A12
330
1F
100
AcDbEntity
  8
CYAN
100
AcDbCircle
 10
-26.18728015891873
 20
549.2449124663446
 30
0.0
 40
27.49198200406461
100
AcDbArc
 50
305.6673449658002
 51
354.6339438477993
  0
ARC
  5
A13
330
1F
100
AcDbEntity
  8
CYAN
100
AcDbCircle
 10
-217.4881062469738
 20
610.7916368609907
 30
0.0
 40
91.65635579897084
100
AcDbArc
 50
216.0800152699012
 51
239.9279426269014
  0
ARC
  5
A14
330
1F
100
AcDbEntity
  8
CYAN
100
AcDbCircle
 10
-261.7279437704632
 20
536.4909193249096
 30
0.0
 40
5.294647543320096
100
AcDbArc
 50
251.407373335201
 51
294.043442973399
  0
ARC
  5
A15
330
1F
100
AcDbEntity
  8
CYAN
100
AcDbCircle
 10
-303.0345707700933
 20
567.3016014736328
 30
0.0
 40
56.21154173505947
100
AcDbArc
 50
320.6438210169997
 51
346.3849000054016
  0
ARC
  5
A16
330
1F
100
AcDbEntity
  8
CYAN
100
AcDbCircle
 10
-243.3008732585093
 20
552.7129758760692
 30
0.0
 40
5.279022979453467
100
AcDbArc
 50
122.2013990214
 51
165.1099218360986
  0
ARC
  5
A17
330
1F
100
AcDbEntity
  8
CYAN
100
AcDbCircle
 10
-229.3823195860107
 20
518.6533638733545
 30
0.0
 40
42.00298713176166
100
AcDbArc
 50
78.02079435179937
 51
113.4748299193009
  0
ARC
  5
A18
330
1F
100
AcDbEntity
  8
CYAN
100
AcDbCircle
 10
-250.0959849388923
 20
512.9183889463019
 30
0.0
 40
55.30498067612839
100
AcDbArc
 50
48.22165762099825
 51
57.84779197320091
  0
LINE
  5
A19
330
1F
100
AcDbEntity
  8
CYAN
100
AcDbLine
 10
-213.2490064392511
 20
554.1608556889988
 30
0.0
 11
-212.0590111059207
 21
554.3439056889987
 31
0.0
  0
LINE
  5
A1A
330
1F
100
AcDbEntity
  8
CYAN
100
AcDbLine
 10
-212.0590111059207
 20
554.3439056889987
 30
0.0
 11
-211.509441105922
 21
555.8076196889948
 31
0.0
  0
ARC
  5
A1B
330
1F
100
AcDbEntity
  8
CYAN
100
AcDbCircle
 10
-230.0326634141424
 20
545.405662104354
 30
0.0
 40
21.24406943768022
100
AcDbArc
 50
29.31695790760079
 51
57.89470849869971
  0
ARC
  5
A1C
330
1F
100
AcDbEntity
  8
CYAN
100
AcDbCircle
 10
-231.4957412697388
 20
510.9208790800402
 30
0.0
 40
54.00755534493165
100
AcDbArc
 50
76.34066198039909
 51
111.1315088603998
  0
ARC
  5
A1D
330
1F
100
AcDbEntity
  8
CYAN
100
AcDbCircle
 10
-247.5030896758321
 20
556.0458888805941
 30
0.0
 40
6.289907089450941
100
AcDbArc
 50
123.4047216106001
 51
169.8732615446993
  0
ARC
  5
A1E
330
1F
100
AcDbEntity
  8
CYAN
100
AcDbCircle
 10
-360.1332613802171
 20
588.3624123254468
 30
0.0
 40
110.9198042073227
100
AcDbArc
 50
339.8084906796985
 51
343.6574267214013
  0
LINE
  5
A1F
330
1F
100
AcDbEntity
  8
CYAN
100
AcDbLine
 10
-256.0301244391441
 20
550.0774303556758
 30
0.0
 11
-259.7170057724682
 21
542.8234256890273
 31
0.0
  0
LINE
  5
A20
330
1F
100
AcDbEntity
  8
CYAN
100
AcDbLine
 10
-259.7170057724682
 20
542.8234256890273
 30
0.0
 11
-261.1468808900647
 21
540.8841216643653
 31
0.0
  0
ARC
  5
A21
330
1F
100
AcDbEntity
  8
CYAN
100
AcDbCircle
 10
-262.7566300736607
 20
542.0710115352958
 30
0.0
 40
1.999999999994999
100
AcDbArc
 50
257.2052157726988
 51
323.5981457108014
  0
LINE
  5
A22
330
1F
100
AcDbEntity
  8
CYAN
100
AcDbLine
 10
-263.1995495267262
 20
540.1206724986341
 30
0.0
 11
-264.9595237724551
 21
540.5203603556997
 31
0.0
  0
LINE
  5
A23
330
1F
100
AcDbEntity
  8
CYAN
100
AcDbLine
 10
-264.9595237724551
 20
540.5203603556997
 30
0.0
 11
-271.5272137724387
 21
546.3353776890185
 31
0.0
  0
ARC
  5
A24
330
1F
100
AcDbEntity
  8
CYAN
100
AcDbCircle
 10
-267.8330475915146
 20
549.9848106483425
 30
0.0
 40
5.192805089320351
100
AcDbArc
 50
180.8841381325996
 51
224.6509895146002
  0
ARC
  5
A25
330
1F
100
AcDbEntity
  8
CYAN
100
AcDbCircle
 10
-283.3193958110759
 20
556.3254589029934
 30
0.0
 40
12.132440861703
100
AcDbArc
 50
328.046978091901
 51
354.6842606882998
  0
ARC
  5
A26
330
1F
100
AcDbEntity
  8
CYAN
100
AcDbCircle
 10
-278.1684770452221
 20
555.2706930176627
 30
0.0
 40
6.929689797182675
100
AcDbArc
 50
359.4275582824999
 51
65.81350149440118
  0
ARC
  5
A27
330
1F
100
AcDbEntity
  8
CYAN
100
AcDbCircle
 10
-274.217932543632
 20
570.2712779310919
 30
0.0
 40
8.750075363444789
100
AcDbArc
 50
235.8333190603009
 51
262.7028408927007
  0
LINE
  5
A28
330
1F
100
AcDbEntity
  8
CYAN
100
AcDbLine
 10
-279.1319951057531
 20
563.0314016889768
 30
0.0
 11
-281.2056231057478
 21
565.3918210223041
 31
0.0
  0
ARC
  5
A29
330
1F
100
AcDbEntity
  8
CYAN
100
AcDbCircle
 10
-284.6335087724059
 20
561.1606658393814
 30
0.0
 40
5.445463646519717
100
AcDbArc
 50
50.98721326159798
 51
129.8659191385002
  0
LINE
  5
A2A
330
1F
100
AcDbEntity
  8
CYAN
100
AcDbLine
 10
-288.1240138886639
 20
565.3403127573709
 30
0.0
 11
-282.7689535910772
 21
559.0285379139201
 31
0.0
  0
LINE
  5
A2B
330
1F
100
AcDbEntity
  8
CYAN
100
AcDbLine
 10
-282.7689535910772
 20
559.0285379139201
 30
0.0
 11
-284.2390980528069
 21
557.6699056621901
 31
0.0
  0
LINE
  5
A2C
330
1F
100
AcDbEntity
  8
CYAN
100
AcDbLine
 10
-284.2390980528069
 20
557.6699056621901
 30
0.0
 11
-289.7582910103931
 21
564.1751364773739
 31
0.0
  0
LINE
  5
A2D
330
1F
100
AcDbEntity
  8
CYAN
100
AcDbLine
 10
-289.7582910103931
 20
564.1751364773739
 30
0.0
 11
-290.4812737723913
 21
563.4345930223092
 31
0.0
  0
ARC
  5
A2E
330
1F
100
AcDbEntity
  8
CYAN
100
AcDbCircle
 10
-286.3553110452016
 20
559.3606873689858
 30
0.0
 40
5.798299379718837
100
AcDbArc
 50
135.363738833199
 51
206.0549821588995
  0
ARC
  5
A2F
330
1F
100
AcDbEntity
  8
CYAN
100
AcDbCircle
 10
-241.1182034897147
 20
505.3748289371208
 30
0.0
 40
20.25702286541603
100
AcDbArc
 50
70.57040393100101
 51
94.24838590459845
  0
LINE
  5
A30
330
1F
100
AcDbEntity
  8
CYAN
100
AcDbLine
 10
-234.3797391058649
 20
524.4782336890731
 30
0.0
 11
-231.5156478280054
 21
522.6503332066775
 31
0.0
  0
LINE
  5
A31
330
1F
100
AcDbEntity
  8
CYAN
100
AcDbLine
 10
-231.5156478280054
 20
522.6503332066775
 30
0.0
 11
-222.729368779894
 21
535.9655183551779
 31
0.0
  0
LINE
  5
A32
330
1F
100
AcDbEntity
  8
CYAN
100
AcDbLine
 10
-222.729368779894
 20
535.9655183551779
 30
0.0
 11
-221.0960952600315
 21
534.8093605527806
 31
0.0
  0
LINE
  5
A33
330
1F
100
AcDbEntity
  8
CYAN
100
AcDbLine
 10
-221.0960952600315
 20
534.8093605527806
 30
0.0
 11
-229.8459897482762
 21
521.5493144624137
 31
0.0
  0
LINE
  5
A34
330
1F
100
AcDbEntity
  8
CYAN
100
AcDbLine
 10
-229.8459897482762
 20
521.5493144624137
 30
0.0
 11
-228.6125811058793
 21
520.8189490224157
 31
0.0
  0
ARC
  5
A35
330
1F
100
AcDbEntity
  8
CYAN
100
AcDbCircle
 10
-235.7118846213282
 20
510.4805624335082
 30
0.0
 40
12.54122592356864
100
AcDbArc
 50
355.3994534392006
 51
55.52286442709915
  0
ARC
  5
A36
330
1F
100
AcDbEntity
  8
CYAN
100
AcDbCircle
 10
-216.8821631137753
 20
510.7495669893741
 30
0.0
 40
6.456036930517192
100
AcDbArc
 50
191.3894398398003
 51
334.9001617579013
  0
LINE
  5
A37
330
1F
100
AcDbEntity
  8
CYAN
100
AcDbLine
 10
-211.0357697725899
 20
508.010936355781
 30
0.0
 11
-202.1298867502121
 21
523.8967714889412
 31
0.0
  0
ARC
  5
A38
330
1F
100
AcDbEntity
  8
CYAN
100
AcDbCircle
 10
-203.653195948475
 20
529.3037791386612
 30
0.0
 40
5.617490777719288
100
AcDbArc
 50
285.7340512529006
 51
48.8744029685013
  0
LINE
  5
A39
330
1F
100
AcDbEntity
  8
CYAN
100
AcDbLine
 10
-199.9585057726176
 20
533.5352643557171
 30
0.0
 11
-201.922085513946
 21
534.8971139682471
 31
0.0
  0
LINE
  5
A3A
330
1F
100
AcDbEntity
  8
CYAN
100
AcDbLine
 10
-201.922085513946
 20
534.8971139682471
 30
0.0
 11
-208.2702128204635
 21
522.7694831154775
 31
0.0
  0
LINE
  5
A3B
330
1F
100
AcDbEntity
  8
CYAN
100
AcDbLine
 10
-208.2702128204635
 20
522.7694831154775
 30
0.0
 11
-210.0421425343258
 21
523.696987880275
 31
0.0
  0
LINE
  5
A3C
330
1F
100
AcDbEntity
  8
CYAN
100
AcDbLine
 10
-210.0421425343258
 20
523.696987880275
 30
0.0
 11
-203.681977285675
 21
535.8476163374445
 31
0.0
  0
LINE
  5
A3D
330
1F
100
AcDbEntity
  8
CYAN
100
AcDbLine
 10
-203.681977285675
 20
535.8476163374445
 30
0.0
 11
-205.817627772603
 21
537.1031956890416
 31
0.0
  0
ARC
  5
A3E
330
1F
100
AcDbEntity
  8
CYAN
100
AcDbCircle
 10
-200.5124018487496
 20
543.5667179475585
 30
0.0
 40
8.361969988512427
100
AcDbArc
 50
175.3551239975013
 51
230.6210259820994
  0
ARC
  5
A3F
330
1F
100
AcDbEntity
  8
CYAN
100
AcDbCircle
 10
-218.7034003057708
 20
539.8849790442347
 30
0.0
 40
10.77730593330639
100
AcDbArc
 50
23.85670423180092
 51
90.64076723460043
  0
ARC
  5
A40
330
1F
100
AcDbEntity
  8
CYAN
100
AcDbCircle
 10
-222.0853137878957
 20
561.4365732849806
 30
0.0
 40
11.25772905810519
100
AcDbArc
 50
251.2495687213008
 51
286.8401234420989
  0
LINE
  5
A41
330
1F
100
AcDbEntity
  8
CYAN
100
AcDbLine
 10
-225.7040724392199
 20
550.7763176890072
 30
0.0
 11
-228.2687929876135
 21
552.2296373738035
 31
0.0
  0
LINE
  5
A42
330
1F
100
AcDbEntity
  8
CYAN
100
AcDbLine
 10
-228.2687929876135
 20
552.2296373738035
 30
0.0
 11
-237.3355017599908
 21
541.8651015319628
 31
0.0
  0
LINE
  5
A43
330
1F
100
AcDbEntity
  8
CYAN
100
AcDbLine
 10
-237.3355017599908
 20
541.8651015319628
 30
0.0
 11
-238.8408178099871
 21
543.1819248267596
 31
0.0
  0
LINE
  5
A44
330
1F
100
AcDbEntity
  8
CYAN
100
AcDbLine
 10
-238.8408178099871
 20
543.1819248267596
 30
0.0
 11
-229.6799488968099
 21
553.6540990826003
 31
0.0
  0
LINE
  5
A45
330
1F
100
AcDbEntity
  8
CYAN
100
AcDbLine
 10
-229.6799488968099
 20
553.6540990826003
 30
0.0
 11
-231.1920131058729
 21
554.8013590223306
 31
0.0
  0
ARC
  5
A46
330
1F
100
AcDbEntity
  8
CYAN
100
AcDbCircle
 10
-234.4205420885315
 20
550.3684694142083
 30
0.0
 40
5.483968423452957
100
AcDbArc
 50
53.93368029030069
 51
184.3474089691006
  0
ARC
  5
A47
330
1F
100
AcDbEntity
  8
CYAN
100
AcDbCircle
 10
-115.9896499332275
 20
443.867931729008
 30
0.0
 40
163.1103125267921
100
AcDbArc
 50
139.4292112569994
 51
146.9966997131012
  0
ARC
  5
A48
330
1F
100
AcDbEntity
  8
CYAN
100
AcDbCircle
 10
-246.3477885861017
 20
531.0691098649233
 30
0.0
 40
6.639060714516733
100
AcDbArc
 50
165.6723623889015
 51
304.1711135235015
  0
LINE
  5
A49
330
1F
100
AcDbEntity
  8
CYAN
100
AcDbLine
 10
-194.876648439297
 20
501.4482636891307
 30
0.0
 11
-196.3774391059599
 21
501.0196583557984
 31
0.0
  0
LINE
  5
A4A
330
1F
100
AcDbEntity
  8
CYAN
100
AcDbLine
 10
-196.3774391059599
 20
501.0196583557984
 30
0.0
 11
-197.3273739707575
 21
498.7472127060708
 31
0.0
  0
LINE
  5
A4B
330
1F
100
AcDbEntity
  8
CYAN
100
AcDbLine
 10
-197.3273739707575
 20
498.7472127060708
 30
0.0
 11
-181.123508373598
 21
492.6966302759525
 31
0.0
  0
LINE
  5
A4C
330
1F
100
AcDbEntity
  8
CYAN
100
AcDbLine
 10
-181.123508373598
 20
492.6966302759525
 30
0.0
 11
-181.8231323219963
 21
490.8229904143571
 31
0.0
  0
LINE
  5
A4D
330
1F
100
AcDbEntity
  8
CYAN
100
AcDbLine
 10
-181.8231323219963
 20
490.8229904143571
 30
0.0
 11
-198.1161119342221
 21
496.9068483423421
 31
0.0
  0
LINE
  5
A4E
330
1F
100
AcDbEntity
  8
CYAN
100
AcDbLine
 10
-198.1161119342221
 20
496.9068483423421
 30
0.0
 11
-199.0571451059532
 21
494.6991070224808
 31
0.0
  0
LINE
  5
A4F
330
1F
100
AcDbEntity
  8
CYAN
100
AcDbLine
 10
-199.0571451059532
 20
494.6991070224808
 30
0.0
 11
-199.0571451059532
 21
493.3600590224842
 31
0.0
  0
ARC
  5
A50
330
1F
100
AcDbEntity
  8
CYAN
100
AcDbCircle
 10
-141.9535491386293
 20
561.9081709449796
 30
0.0
 40
89.21695085871027
100
AcDbArc
 50
230.2042124968999
 51
247.2235804533979
  0
ARC
  5
A51
330
1F
100
AcDbEntity
  8
CYAN
100
AcDbCircle
 10
-175.5361305873453
 20
435.1700570848962
 30
0.0
 40
44.48835672722211
100
AcDbArc
 50
71.87900140509917
 51
91.23198791129892
  0
ARC
  5
A52
330
1F
100
AcDbEntity
  8
CYAN
100
AcDbCircle
 10
-161.5575412472469
 20
479.0587976891867
 30
0.0
 40
1.6131534781293
100
AcDbArc
 50
264.9638842474009
 51
95.03611575259913
  0
LINE
  5
A53
330
1F
100
AcDbEntity
  8
CYAN
100
AcDbLine
 10
-161.6991497727133
 20
480.6657236891826
 30
0.0
 11
-167.273514439366
 21
482.7548296891774
 31
0.0
  0
ARC
  5
A54
330
1F
100
AcDbEntity
  8
CYAN
100
AcDbCircle
 10
-165.7630835653698
 20
484.6435019658393
 30
0.0
 40
2.418363991193952
100
AcDbArc
 50
50.29644731979935
 51
231.3495704302994
  0
LINE
  5
A55
330
1F
100
AcDbEntity
  8
CYAN
100
AcDbLine
 10
-164.2181951060403
 20
486.5040943558348
 30
0.0
 11
-159.5551631060519
 21
484.0403016891742
 31
0.0
  0
ARC
  5
A56
330
1F
100
AcDbEntity
  8
CYAN
100
AcDbCircle
 10
-158.747937631254
 20
485.5904417733036
 30
0.0
 40
1.74772630799563
100
AcDbArc
 50
242.4920433326994
 51
52.20544459610177
  0
LINE
  5
A57
330
1F
100
AcDbEntity
  8
CYAN
100
AcDbLine
 10
-157.6768750827231
 20
486.9715182610334
 30
0.0
 11
-162.9318037727102
 21
490.3069343558254
 31
0.0
  0
ARC
  5
A58
330
1F
100
AcDbEntity
  8
CYAN
100
AcDbCircle
 10
-181.6653796391967
 20
473.7601478981333
 30
0.0
 40
24.99485960793752
100
AcDbArc
 50
41.45316237290066
 51
67.75884944119951
  0
ARC
  5
A59
330
1F
100
AcDbEntity
  8
CYAN
100
AcDbCircle
 10
-201.8809094051462
 20
407.8433400956313
 30
0.0
 40
93.86661489909865
100
AcDbArc
 50
71.56955778020147
 51
85.72065157320094
  0
LINE
  5
A5A
330
1F
100
AcDbEntity
  8
CYAN
100
AcDbLine
 10
-329.8256250488263
 20
614.4879017075147
 30
0.0
 11
-319.4274470488523
 21
606.8313823742006
 31
0.0
  0
LINE
  5
A5B
330
1F
100
AcDbEntity
  8
CYAN
100
AcDbLine
 10
-319.4274470488523
 20
606.8313823742006
 30
0.0
 11
-320.6340630488492
 21
605.2378503742045
 31
0.0
  0
LINE
  5
A5C
330
1F
100
AcDbEntity
  8
CYAN
100
AcDbLine
 10
-320.6340630488492
 20
605.2378503742045
 30
0.0
 11
-331.2584737558893
 21
613.0592189251181
 31
0.0
  0
LINE
  5
A5D
330
1F
100
AcDbEntity
  8
CYAN
100
AcDbLine
 10
-331.2584737558893
 20
613.0592189251181
 30
0.0
 11
-332.8337337154855
 21
610.7437777075241
 31
0.0
  0
ARC
  5
A5E
330
1F
100
AcDbEntity
  8
CYAN
100
AcDbCircle
 10
-326.616838313101
 20
606.9433567124669
 30
0.0
 40
7.286493545181782
100
AcDbArc
 50
148.5623349726994
 51
223.9202984171995
  0
LINE
  5
A5F
330
1F
100
AcDbEntity
  8
CYAN
100
AcDbLine
 10
-331.8653390488212
 20
601.8890290408795
 30
0.0
 11
-320.5055343821829
 21
592.3271510409034
 31
0.0
  0
ARC
  5
A60
330
1F
100
AcDbEntity
  8
CYAN
100
AcDbCircle
 10
-324.575548113906
 20
589.3220300949109
 30
0.0
 40
5.059225600520684
100
AcDbArc
 50
341.6456894019002
 51
36.44054571949914
  0
LINE
  5
A61
330
1F
100
AcDbEntity
  8
CYAN
100
AcDbLine
 10
-319.7736983821848
 20
587.7289190409149
 30
0.0
 11
-322.1752957155121
 21
584.1098157075907
 31
0.0
  0
ARC
  5
A62
330
1F
100
AcDbEntity
  8
CYAN
100
AcDbCircle
 10
-317.0848977961914
 20
583.0432827075933
 30
0.0
 40
5.20092718812033
100
AcDbArc
 50
168.1666411158995
 51
237.3893162369984
  0
LINE
  5
A63
330
1F
100
AcDbEntity
  8
CYAN
100
AcDbLine
 10
-319.8878223821845
 20
578.6622717076041
 30
0.0
 11
-317.7150277155233
 21
577.4815470409406
 31
0.0
  0
LINE
  5
A64
330
1F
100
AcDbEntity
  8
CYAN
100
AcDbLine
 10
-317.7150277155233
 20
577.4815470409406
 30
0.0
 11
-312.9500597155352
 21
586.7765777075841
 31
0.0
  0
LINE
  5
A65
330
1F
100
AcDbEntity
  8
CYAN
100
AcDbLine
 10
-312.9500597155352
 20
586.7765777075841
 30
0.0
 11
-311.0838123822065
 21
586.0328990409192
 31
0.0
  0
LINE
  5
A66
330
1F
100
AcDbEntity
  8
CYAN
100
AcDbLine
 10
-311.0838123822065
 20
586.0328990409192
 30
0.0
 11
-315.8617383821945
 21
576.7125917076092
 31
0.0
  0
LINE
  5
A67
330
1F
100
AcDbEntity
  8
CYAN
100
AcDbLine
 10
-315.8617383821945
 20
576.7125917076092
 30
0.0
 11
-313.5450440463336
 21
575.6527637076118
 31
0.0
  0
LINE
  5
A68
330
1F
100
AcDbEntity
  8
CYAN
100
AcDbLine
 10
-313.5450440463336
 20
575.6527637076118
 30
0.0
 11
-310.5866883822077
 21
575.6527637076118
 31
0.0
  0
ARC
  5
A69
330
1F
100
AcDbEntity
  8
CYAN
100
AcDbCircle
 10
-311.8380703520712
 20
580.9169993541321
 30
0.0
 40
5.410927256653137
100
AcDbArc
 50
283.3718189080989
 51
2.345345155800167
  0
ARC
  5
A6A
330
1F
100
AcDbEntity
  8
CYAN
100
AcDbCircle
 10
-301.9554540806292
 20
579.8983939605346
 30
0.0
 40
4.644808443055054
100
AcDbArc
 50
73.87747583410129
 51
164.5158297879012
  0
ARC
  5
A6B
330
1F
100
AcDbEntity
  8
CYAN
100
AcDbCircle
 10
-301.2790834471643
 20
591.9291709614379
 30
0.0
 40
7.593468970647681
100
AcDbArc
 50
274.6338303411013
 51
11.66854056879959
  0
ARC
  5
A6C
330
1F
100
AcDbEntity
  8
CYAN
100
AcDbCircle
 10
-289.8583182274596
 20
595.8605244740946
 30
0.0
 40
4.648959316788377
100
AcDbArc
 50
108.413793730401
 51
211.0170593554002
  0
ARC
  5
A6D
330
1F
100
AcDbEntity
  8
CYAN
100
AcDbCircle
 10
-292.2434565998535
 20
604.6101855822062
 30
0.0
 40
4.434499806388912
100
AcDbArc
 50
281.9293739292003
 51
35.20313811920025
  0
LINE
  5
A6E
330
1F
100
AcDbEntity
  8
CYAN
100
AcDbLine
 10
-288.6199677155961
 20
607.1665730408664
 30
0.0
 11
-289.8398790489263
 21
609.1093770408615
 31
0.0
  0
LINE
  5
A6F
330
1F
100
AcDbEntity
  8
CYAN
100
AcDbLine
 10
-289.8398790489263
 20
609.1093770408615
 30
0.0
 11
-290.4299257155914
 21
609.6150403741936
 31
0.0
  0
LINE
  5
A70
330
1F
100
AcDbEntity
  8
CYAN
100
AcDbLine
 10
-290.4299257155914
 20
609.6150403741936
 30
0.0
 11
-298.3521317155716
 21
602.3832623742116
 31
0.0
  0
LINE
  5
A71
330
1F
100
AcDbEntity
  8
CYAN
100
AcDbLine
 10
-298.3521317155716
 20
602.3832623742116
 30
0.0
 11
-299.7509690489015
 21
603.8143177075413
 31
0.0
  0
LINE
  5
A72
330
1F
100
AcDbEntity
  8
CYAN
100
AcDbLine
 10
-299.7509690489015
 20
603.8143177075413
 30
0.0
 11
-291.8220970489212
 21
611.0521810408568
 31
0.0
  0
LINE
  5
A73
330
1F
100
AcDbEntity
  8
CYAN
100
AcDbLine
 10
-291.8220970489212
 20
611.0521810408568
 30
0.0
 11
-293.6901910489167
 21
613.109348374185
 31
0.0
  0
ARC
  5
A74
330
1F
100
AcDbEntity
  8
CYAN
100
AcDbCircle
 10
-296.9174578709086
 20
609.5669141697937
 30
0.0
 40
4.792086313054686
100
AcDbArc
 50
47.66551380259953
 51
134.1093741641999
  0
LINE
  5
A75
330
1F
100
AcDbEntity
  8
CYAN
100
AcDbLine
 10
-300.2528950489002
 20
613.0076917075186
 30
0.0
 11
-301.809639715563
 21
610.8615750408571
 31
0.0
  0
ARC
  5
A76
330
1F
100
AcDbEntity
  8
CYAN
100
AcDbCircle
 10
-305.0496291368883
 20
613.9653460905826
 30
0.0
 40
4.486750068788783
100
AcDbArc
 50
244.0127465760003
 51
316.2301124244004
  0
LINE
  5
A77
330
1F
100
AcDbEntity
  8
CYAN
100
AcDbLine
 10
-307.01559371555
 20
609.9322443741929
 30
0.0
 11
-319.1255163821864
 21
617.9428323741729
 31
0.0
  0
ARC
  5
A78
330
1F
100
AcDbEntity
  8
CYAN
100
AcDbCircle
 10
-322.5789589041777
 20
610.3414568417917
 30
0.0
 40
8.34908229904579
100
AcDbArc
 50
65.56684183790093
 51
150.2223908348007
  0
LINE
  5
A79
330
1F
100
AcDbEntity
  8
CYAN
100
AcDbLine
 10
-284.2777023822735
 20
634.4705743741315
 30
0.0
 11
-302.8323270488938
 21
648.3239983740967
 31
0.0
  0
ARC
  5
A7A
330
1F
100
AcDbEntity
  8
CYAN
100
AcDbCircle
 10
-298.7869719857039
 20
651.4717937942222
 30
0.0
 40
5.125769561187183
100
AcDbArc
 50
151.0108689161997
 51
217.8874082660989
  0
ARC
  5
A7B
330
1F
100
AcDbEntity
  8
CYAN
100
AcDbCircle
 10
-306.1682705260853
 20
657.7080256763401
 30
0.0
 40
4.740757577321481
100
AcDbArc
 50
307.6790259913015
 51
63.92347953830031
  0
LINE
  5
A7C
330
1F
100
AcDbEntity
  8
CYAN
100
AcDbLine
 10
-304.0843703822239
 20
661.9662110407293
 30
0.0
 11
-306.5021843822179
 21
663.2539103740596
 31
0.0
  0
LINE
  5
A7D
330
1F
100
AcDbEntity
  8
CYAN
100
AcDbLine
 10
-306.5021843822179
 20
663.2539103740596
 30
0.0
 11
-310.7109403822073
 21
653.455864374084
 31
0.0
  0
LINE
  5
A7E
330
1F
100
AcDbEntity
  8
CYAN
100
AcDbLine
 10
-310.7109403822073
 20
653.455864374084
 30
0.0
 11
-312.5384363822028
 21
654.2688343740818
 31
0.0
  0
LINE
  5
A7F
330
1F
100
AcDbEntity
  8
CYAN
100
AcDbLine
 10
-312.5384363822028
 20
654.2688343740818
 30
0.0
 11
-308.3398223822134
 21
664.0432690407242
 31
0.0
  0
LINE
  5
A80
330
1F
100
AcDbEntity
  8
CYAN
100
AcDbLine
 10
-308.3398223822134
 20
664.0432690407242
 30
0.0
 11
-309.6576277155433
 21
664.4691550407233
 31
0.0
  0
ARC
  5
A81
330
1F
100
AcDbEntity
  8
CYAN
100
AcDbCircle
 10
-311.7799875927381
 20
659.5801538504687
 30
0.0
 40
5.329797752920009
100
AcDbArc
 50
66.53389680229945
 51
180.5883138669011
  0
ARC
  5
A82
330
1F
100
AcDbEntity
  8
CYAN
100
AcDbCircle
 10
-328.4888762441628
 20
663.6009025321921
 30
0.0
 40
12.08716648290311
100
AcDbArc
 50
322.297705326001
 51
340.2952286050009
  0
ARC
  5
A83
330
1F
100
AcDbEntity
  8
CYAN
100
AcDbCircle
 10
-322.5237937953778
 20
663.7534030563248
 30
0.0
 40
8.358662188112436
100
AcDbArc
 50
269.3394344091984
 51
295.498293181001
  0
ARC
  5
A84
330
1F
100
AcDbEntity
  8
CYAN
100
AcDbCircle
 10
-322.1277270909788
 20
648.055033529031
 30
0.0
 40
7.356762050514939
100
AcDbArc
 50
93.83801785739873
 51
185.0452550807995
  0
ARC
  5
A85
330
1F
100
AcDbEntity
  8
CYAN
100
AcDbCircle
 10
-333.5628556557503
 20
644.4079210157067
 30
0.0
 40
5.085982783720616
100
AcDbArc
 50
295.9837300044999
 51
36.14877910710128
  0
LINE
  5
A86
330
1F
100
AcDbEntity
  8
CYAN
100
AcDbLine
 10
-331.3346057154892
 20
639.8360370407847
 30
0.0
 11
-333.0880210488182
 21
638.7095750407876
 31
0.0
  0
ARC
  5
A87
330
1F
100
AcDbEntity
  8
CYAN
100
AcDbCircle
 10
-329.9016888445594
 20
635.00754118893
 30
0.0
 40
4.884441375987788
100
AcDbArc
 50
130.7185043121998
 51
196.2487016032014
  0
LINE
  5
A88
330
1F
100
AcDbEntity
  8
CYAN
100
AcDbLine
 10
-334.5910270488143
 20
633.6408390408003
 30
0.0
 11
-333.65144038215
 21
631.7632870408049
 31
0.0
  0
LINE
  5
A89
330
1F
100
AcDbEntity
  8
CYAN
100
AcDbLine
 10
-333.65144038215
 20
631.7632870408049
 30
0.0
 11
-332.3367943821533
 21
630.3864617074752
 31
0.0
  0
LINE
  5
A8A
330
1F
100
AcDbEntity
  8
CYAN
100
AcDbLine
 10
-332.3367943821533
 20
630.3864617074752
 30
0.0
 11
-324.3835463821732
 21
637.5206077074571
 31
0.0
  0
LINE
  5
A8B
330
1F
100
AcDbEntity
  8
CYAN
100
AcDbLine
 10
-324.3835463821732
 20
637.5206077074571
 30
0.0
 11
-322.9655957155101
 21
636.1057957074607
 31
0.0
  0
LINE
  5
A8C
330
1F
100
AcDbEntity
  8
CYAN
100
AcDbLine
 10
-322.9655957155101
 20
636.1057957074607
 30
0.0
 11
-331.00132571549
 21
628.8976623741453
 31
0.0
  0
LINE
  5
A8D
330
1F
100
AcDbEntity
  8
CYAN
100
AcDbLine
 10
-331.00132571549
 20
628.8976623741453
 30
0.0
 11
-329.64323838216
 21
627.2488523741494
 31
0.0
  0
ARC
  5
A8E
330
1F
100
AcDbEntity
  8
CYAN
100
AcDbCircle
 10
-325.9799020488359
 20
630.7471017964075
 30
0.0
 40
5.065351134120668
100
AcDbArc
 50
223.6794672711993
 51
316.3205327288007
  0
LINE
  5
A8F
330
1F
100
AcDbEntity
  8
CYAN
100
AcDbLine
 10
-322.3165657155117
 20
627.2488523741494
 30
0.0
 11
-321.0639683821815
 21
629.2514137074779
 31
0.0
  0
ARC
  5
A90
330
1F
100
AcDbEntity
  8
CYAN
100
AcDbCircle
 10
-317.526728303257
 20
625.3988584442875
 30
0.0
 40
5.230129007186923
100
AcDbArc
 50
69.70765781859917
 51
132.5567283875001
  0
LINE
  5
A91
330
1F
100
AcDbEntity
  8
CYAN
100
AcDbLine
 10
-315.7128657155283
 20
630.3043810408085
 30
0.0
 11
-296.3632490489099
 21
618.2265090408387
 31
0.0
  0
ARC
  5
A92
330
1F
100
AcDbEntity
  8
CYAN
100
AcDbCircle
 10
-292.1504224730538
 20
625.0211915405551
 30
0.0
 40
7.994724387446678
100
AcDbArc
 50
238.2003353881
 51
311.5713989558992
  0
LINE
  5
A93
330
1F
100
AcDbEntity
  8
CYAN
100
AcDbLine
 10
-286.8455003822671
 20
619.0401030408366
 30
0.0
 11
-284.7342103822724
 21
621.2045930408312
 31
0.0
  0
LINE
  5
A94
330
1F
100
AcDbEntity
  8
CYAN
100
AcDbLine
 10
-284.7342103822724
 20
621.2045930408312
 30
0.0
 11
-302.8134903822272
 21
633.8712823741331
 31
0.0
  0
LINE
  5
A95
330
1F
100
AcDbEntity
  8
CYAN
100
AcDbLine
 10
-302.8134903822272
 20
633.8712823741331
 30
0.0
 11
-301.6325630488968
 21
635.4860717074624
 31
0.0
  0
LINE
  5
A96
330
1F
100
AcDbEntity
  8
CYAN
100
AcDbLine
 10
-301.6325630488968
 20
635.4860717074624
 30
0.0
 11
-283.5866050489419
 21
622.8425803741605
 31
0.0
  0
LINE
  5
A97
330
1F
100
AcDbEntity
  8
CYAN
100
AcDbLine
 10
-283.5866050489419
 20
622.8425803741605
 30
0.0
 11
-282.3990823822782
 21
624.672070374156
 31
0.0
  0
ARC
  5
A98
330
1F
100
AcDbEntity
  8
CYAN
100
AcDbCircle
 10
-289.3322748318608
 20
628.4221441477467
 30
0.0
 40
7.882398800646959
100
AcDbArc
 50
331.5916200043994
 51
50.115057368501
  0
LINE
  5
A99
330
1F
100
AcDbEntity
  8
CYAN
100
AcDbLine
 10
-224.3192077157567
 20
604.8707197075388
 30
0.0
 11
-224.9134390490886
 21
603.5805277075422
 31
0.0
  0
LINE
  5
A9A
330
1F
100
AcDbEntity
  8
CYAN
100
AcDbLine
 10
-224.9134390490886
 20
603.5805277075422
 30
0.0
 11
-205.5656970491369
 21
595.3813063742293
 31
0.0
  0
LINE
  5
A9B
330
1F
100
AcDbEntity
  8
CYAN
100
AcDbLine
 10
-205.5656970491369
 20
595.3813063742293
 30
0.0
 11
-206.3550903824683
 21
593.5436570409006
 31
0.0
  0
LINE
  5
A9C
330
1F
100
AcDbEntity
  8
CYAN
100
AcDbLine
 10
-206.3550903824683
 20
593.5436570409006
 30
0.0
 11
-225.3350097157542
 21
601.5870017075472
 31
0.0
  0
ARC
  5
A9D
330
1F
100
AcDbEntity
  8
CYAN
100
AcDbCircle
 10
-214.9527343735134
 20
600.0759360342175
 30
0.0
 40
10.49166148664044
100
AcDbArc
 50
171.7191540397003
 51
200.3240783692014
  0
ARC
  5
A9E
330
1F
100
AcDbEntity
  8
CYAN
100
AcDbCircle
 10
-176.1691211462771
 20
639.3152547879862
 30
0.0
 40
64.83126503423791
100
AcDbArc
 50
221.4114296925003
 51
227.9774733815994
  0
ARC
  5
A9F
330
1F
100
AcDbEntity
  8
CYAN
100
AcDbCircle
 10
-229.9748187298759
 20
573.251727514951
 30
0.0
 40
20.70639027714824
100
AcDbArc
 50
36.53435218240066
 51
59.83057790539895
  0
ARC
  5
AA0
330
1F
100
AcDbEntity
  8
CYAN
100
AcDbCircle
 10
-204.7699023034056
 20
588.6194732239795
 30
0.0
 40
9.091075289043935
100
AcDbArc
 50
199.5432785505
 51
269.492156411399
  0
ARC
  5
AA1
330
1F
100
AcDbEntity
  8
CYAN
100
AcDbCircle
 10
-198.0936931475556
 20
560.4255526197833
 30
0.0
 40
20.26293454754934
100
AcDbArc
 50
71.61382948340032
 51
109.4786458294992
  0
LINE
  5
AA2
330
1F
100
AcDbEntity
  8
CYAN
100
AcDbLine
 10
-191.7023583825049
 20
579.6541083742686
 30
0.0
 11
-186.0050050491858
 21
579.6541083742686
 31
0.0
  0
ARC
  5
AA3
330
1F
100
AcDbEntity
  8
CYAN
100
AcDbCircle
 10
-186.0575376957191
 20
591.7529345314382
 30
0.0
 40
12.09894020396975
100
AcDbArc
 50
270.2487745488992
 51
306.0197133959989
  0
ARC
  5
AA4
330
1F
100
AcDbEntity
  8
CYAN
100
AcDbCircle
 10
-188.7715513894455
 20
590.4680949802415
 30
0.0
 40
12.99518337023418
100
AcDbArc
 50
319.1438254125996
 51
356.773272146401
  0
LINE
  5
AA5
330
1F
100
AcDbEntity
  8
CYAN
100
AcDbLine
 10
-175.7969703825446
 20
589.7366317075767
 30
0.0
 11
-175.3221910492125
 21
593.8880570408996
 31
0.0
  0
LINE
  5
AA6
330
1F
100
AcDbEntity
  8
CYAN
100
AcDbLine
 10
-175.3221910492125
 20
593.8880570408996
 30
0.0
 11
-175.7376923825448
 21
597.3873017075575
 31
0.0
  0
ARC
  5
AA7
330
1F
100
AcDbEntity
  8
CYAN
100
AcDbCircle
 10
-203.4180880172756
 20
593.8644357148996
 30
0.0
 40
27.90367157393024
100
AcDbArc
 50
7.253004259700755
 51
56.25713258059952
  0
ARC
  5
AA8
330
1F
100
AcDbEntity
  8
CYAN
100
AcDbCircle
 10
-201.1788220298146
 20
595.8163947118281
 30
0.0
 40
25.04878269847071
100
AcDbArc
 50
58.0365063250996
 51
117.2971719704007
  0
ARC
  5
AA9
330
1F
100
AcDbEntity
  8
CYAN
100
AcDbCircle
 10
-199.3223388519525
 20
594.556137237298
 30
0.0
 40
27.04133991739907
100
AcDbArc
 50
119.5686856322999
 51
157.5772436720003
  0
ARC
  5
AAA
330
1F
100
AcDbEntity
  8
CYAN
100
AcDbCircle
 10
-147.4564409042156
 20
541.8343279280962
 30
0.0
 40
3.333333333324998
100
AcDbArc
 50
86.5971393072985
 51
151.6793357312989
  0
LINE
  5
AAB
330
1F
100
AcDbEntity
  8
CYAN
100
AcDbLine
 10
-150.3907952770082
 20
543.4156803639591
 30
0.0
 11
-150.6698585928742
 21
542.8978510410271
 31
0.0
  0
LINE
  5
AAC
330
1F
100
AcDbEntity
  8
CYAN
100
AcDbLine
 10
-150.6698585928742
 20
542.8978510410271
 30
0.0
 11
-150.9773292595401
 21
541.052926374365
 31
0.0
  0
LINE
  5
AAD
330
1F
100
AcDbEntity
  8
CYAN
100
AcDbLine
 10
-150.9773292595401
 20
541.052926374365
 30
0.0
 11
-151.0417679262066
 21
539.327011041036
 31
0.0
  0
LINE
  5
AAE
330
1F
100
AcDbEntity
  8
CYAN
100
AcDbLine
 10
-151.0417679262066
 20
539.327011041036
 30
0.0
 11
-143.6362739262251
 21
538.269574374372
 31
0.0
  0
LINE
  5
AAF
330
1F
100
AcDbEntity
  8
CYAN
100
AcDbLine
 10
-143.6362739262251
 20
538.269574374372
 30
0.0
 11
-143.9010659262244
 21
536.2870983743769
 31
0.0
  0
LINE
  5
AB0
330
1F
100
AcDbEntity
  8
CYAN
100
AcDbLine
 10
-143.9010659262244
 20
536.2870983743769
 30
0.0
 11
-151.4388125928722
 21
537.3634190410411
 31
0.0
  0
LINE
  5
AB1
330
1F
100
AcDbEntity
  8
CYAN
100
AcDbLine
 10
-151.4388125928722
 20
537.3634190410411
 30
0.0
 11
-152.6698045928692
 21
532.4437330410531
 31
0.0
  0
LINE
  5
AB2
330
1F
100
AcDbEntity
  8
CYAN
100
AcDbLine
 10
-152.6698045928692
 20
532.4437330410531
 30
0.0
 11
-152.8232632595354
 21
528.9077403743954
 31
0.0
  0
ARC
  5
AB3
330
1F
100
AcDbEntity
  8
CYAN
100
AcDbCircle
 10
-148.5939326404793
 20
529.2939573697277
 30
0.0
 40
4.246928425589381
100
AcDbArc
 50
185.2177048379991
 51
264.8197708245995
  0
ARC
  5
AB4
330
1F
100
AcDbEntity
  8
CYAN
100
AcDbCircle
 10
-150.4060326643415
 20
538.2361592006388
 30
0.0
 40
13.24903532596688
100
AcDbArc
 50
276.1902654095008
 51
302.5090313180998
  0
ARC
  5
AB5
330
1F
100
AcDbEntity
  8
CYAN
100
AcDbCircle
 10
-141.3407937156975
 20
518.9612952386869
 30
0.0
 40
8.332007007845835
100
AcDbArc
 50
350.1190023513008
 51
103.4979335942988
  0
ARC
  5
AB6
330
1F
100
AcDbEntity
  8
CYAN
100
AcDbCircle
 10
-114.3035336424317
 20
530.756758782924
 30
0.0
 40
23.00940877180915
100
AcDbArc
 50
215.0839462568991
 51
248.2624961375984
  0
LINE
  5
AB7
330
1F
100
AcDbEntity
  8
CYAN
100
AcDbLine
 10
-122.8251799262771
 20
509.3835410411108
 30
0.0
 11
-63.66777192642501
 21
475.1823630411963
 31
0.0
  0
ARC
  5
AB8
330
1F
100
AcDbEntity
  8
CYAN
100
AcDbCircle
 10
87.41442612826398
 20
614.8480126320472
 30
0.0
 40
205.7482059329522
100
AcDbArc
 50
222.7513705474001
 51
237.3399052400008
  0
ARC
  5
AB9
330
1F
100
AcDbEntity
  8
CYAN
100
AcDbCircle
 10
40.22064547584863
 20
540.8347488904987
 30
0.0
 40
117.969282382505
100
AcDbArc
 50
237.2380388603017
 51
253.6412895359011
  0
ARC
  5
ABA
330
1F
100
AcDbEntity
  8
CYAN
100
AcDbCircle
 10
10.77142915978891
 20
438.8576919076872
 30
0.0
 40
11.83530039450374
100
AcDbArc
 50
251.3904964440992
 51
33.09906986540065
  0
ARC
  5
ABB
330
1F
100
AcDbEntity
  8
CYAN
100
AcDbCircle
 10
-149.8640507555428
 20
337.3187241392744
 30
0.0
 40
201.870836004162
100
AcDbArc
 50
32.34431129180205
 51
45.93412045559938
  0
ARC
  5
ABC
330
1F
100
AcDbEntity
  8
CYAN
100
AcDbCircle
 10
-129.824284046393
 20
359.6840197464185
 30
0.0
 40
171.8669889583703
100
AcDbArc
 50
45.54895791889935
 51
62.72085205700079
  0
ARC
  5
ABD
330
1F
100
AcDbEntity
  8
CYAN
100
AcDbCircle
 10
-1419.923157017834
 20
-3222.851819741292
 30
0.0
 40
3978.213814856721
100
AcDbArc
 50
69.87364575600079
 51
70.99186885930111
  0
LINE
  5
ABE
330
1F
100
AcDbEntity
  8
CYAN
100
AcDbLine
 10
-124.2096299262736
 20
538.4393963743717
 30
0.0
 11
-135.7478232595782
 21
542.5904783743611
 31
0.0
  0
LINE
  5
ABF
330
1F
100
AcDbEntity
  8
CYAN
100
AcDbLine
 10
-135.7478232595782
 20
542.5904783743611
 30
0.0
 11
-138.9782065929034
 21
543.6664557076918
 31
0.0
  0
ARC
  5
AC0
330
1F
100
AcDbEntity
  8
CYAN
100
AcDbCircle
 10
-128.2465127598636
 20
626.7671677664175
 30
0.0
 40
83.79079661392387
100
AcDbArc
 50
256.8854102852004
 51
262.6415026285
  0
ARC
  5
AC1
330
1F
100
AcDbEntity
  8
CYAN
100
AcDbCircle
 10
-399.9639720167843
 20
439.6093877624852
 30
0.0
 40
114.7714306842464
100
AcDbArc
 50
40.66588443189927
 51
54.58538669189976
  0
LINE
  5
AC2
330
1F
100
AcDbEntity
  8
CYAN
100
AcDbLine
 10
-312.9072617723352
 20
514.3998316890984
 30
0.0
 11
-308.6630551056792
 21
514.1673270224323
 31
0.0
  0
ARC
  5
AC3
330
1F
100
AcDbEntity
  8
CYAN
100
AcDbCircle
 10
-352.5329754915695
 20
448.253458858597
 30
0.0
 40
79.17832993300205
100
AcDbArc
 50
38.20966202880104
 51
56.35367981749999
  0
ARC
  5
AC4
330
1F
100
AcDbEntity
  8
CYAN
100
AcDbCircle
 10
-286.6948077225341
 20
504.607457586056
 30
0.0
 40
8.22067445731278
100
AcDbArc
 50
243.8457161740005
 51
274.7402272567007
  0
ARC
  5
AC5
330
1F
100
AcDbEntity
  8
CYAN
100
AcDbCircle
 10
-345.9133765947862
 20
411.1691556749565
 30
0.0
 40
104.1853963890728
100
AcDbArc
 50
40.56707625840039
 51
54.90621019079997
  0
ARC
  5
AC6
330
1F
100
AcDbEntity
  8
CYAN
100
AcDbCircle
 10
-262.8500527377937
 20
488.7385378139624
 30
0.0
 40
10.56740066037358
100
AcDbArc
 50
248.229185086799
 51
274.5895534130994
  0
ARC
  5
AC7
330
1F
100
AcDbEntity
  8
CYAN
100
AcDbCircle
 10
-348.3715928745132
 20
369.628995276927
 30
0.0
 40
138.7372763615198
100
AcDbArc
 50
40.41634787519952
 51
51.49940444519953
  0
ARC
  5
AC8
330
1F
100
AcDbEntity
  8
CYAN
100
AcDbCircle
 10
-243.7221881011749
 20
446.4704061958014
 30
0.0
 40
13.14360840836714
100
AcDbArc
 50
65.59274880539883
 51
85.72974918160069
  0
ARC
  5
AC9
330
1F
100
AcDbEntity
  8
CYAN
100
AcDbCircle
 10
-195.9785499100942
 20
478.4765016487882
 30
0.0
 40
46.81696842641628
100
AcDbArc
 50
205.3399582521016
 51
234.6733663530991
  0
ARC
  5
ACA
330
1F
100
AcDbEntity
  8
CYAN
100
AcDbCircle
 10
-241.6392115286468
 20
390.9306613591403
 30
0.0
 40
52.73443796173482
100
AcDbArc
 50
48.93568143500086
 51
69.35914960289918
  0
ARC
  5
ACB
330
1F
100
AcDbEntity
  8
CYAN
100
AcDbCircle
 10
-205.5058764927371
 20
431.4004726574392
 30
0.0
 40
1.65189804039587
100
AcDbArc
 50
205.4357598386994
 51
50.83182662069937
  0
ARC
  5
ACC
330
1F
100
AcDbEntity
  8
CYAN
100
AcDbCircle
 10
-244.1052964275739
 20
390.6094860511412
 30
0.0
 40
57.8063640879888
100
AcDbArc
 50
46.70259951030053
 51
61.78280282690105
  0
ARC
  5
ACD
330
1F
100
AcDbEntity
  8
CYAN
100
AcDbCircle
 10
-212.7110799735191
 20
444.1918294368738
 30
0.0
 40
4.847985750654546
100
AcDbArc
 50
173.6247842104836
 51
213.0732256718003
  0
ARC
  5
AD1
330
1F
100
AcDbEntity
  8
CYAN
100
AcDbCircle
 10
-213.5011916187171
 20
443.543566856742
 30
0.0
 40
3.57696128012439
100
AcDbArc
 50
29.14343173300117
 51
132.7326020545588
  0
ARC
  5
AD2
330
1F
100
AcDbEntity
  8
CYAN
100
AcDbCircle
 10
-180.9461128662651
 20
460.2715754572336
 30
0.0
 40
33.0266871109841
100
AcDbArc
 50
206.9848820202
 51
239.6309672605991
  0
LINE
  5
AD3
330
1F
100
AcDbEntity
  8
CYAN
100
AcDbLine
 10
-197.6433331059567
 20
431.7765776893049
 30
0.0
 11
-195.5913111059618
 21
431.9572236893043
 31
0.0
  0
ARC
  5
AD4
330
1F
100
AcDbEntity
  8
CYAN
100
AcDbCircle
 10
-196.5045045254262
 20
433.0673260171683
 30
0.0
 40
1.437445442263071
100
AcDbArc
 50
309.4414296762995
 51
51.1281237288994
  0
ARC
  5
AD5
330
1F
100
AcDbEntity
  8
CYAN
100
AcDbCircle
 10
-169.777050572693
 20
464.7424864508225
 30
0.0
 40
40.00774318496665
100
AcDbArc
 50
197.0364210672986
 51
229.7961840319989
  0
ARC
  5
AD6
330
1F
100
AcDbEntity
  8
CYAN
100
AcDbCircle
 10
-250.1892232823587
 20
412.1813916592206
 30
0.0
 40
58.69705219545325
100
AcDbArc
 50
44.08860355920124
 51
70.49557873549919
  0
LINE
  5
AD7
330
1F
100
AcDbEntity
  8
CYAN
100
AcDbLine
 10
-230.5914751058744
 20
467.5101563558822
 30
0.0
 11
-231.5715044392053
 21
468.6053656892128
 31
0.0
  0
ARC
  5
AD8
330
1F
100
AcDbEntity
  8
CYAN
100
AcDbCircle
 10
-236.6882911005258
 20
468.1113110549473
 30
0.0
 40
5.140583208120481
100
AcDbArc
 50
5.515134141198835
 51
59.14389692840014
  0
ARC
  5
AD9
330
1F
100
AcDbEntity
  8
CYAN
100
AcDbCircle
 10
-187.7415893575815
 20
577.1050526542749
 30
0.0
 40
114.3755633411807
100
AcDbArc
 50
233.1283487724001
 51
246.1154050338002
  0
LINE
  5
ADA
330
1F
100
AcDbEntity
  8
CYAN
100
AcDbLine
 10
-256.3697277724766
 20
485.6067023558368
 30
0.0
 11
-256.8312111058089
 21
486.816962355834
 31
0.0
  0
ARC
  5
ADB
330
1F
100
AcDbEntity
  8
CYAN
100
AcDbCircle
 10
-260.2289918886003
 20
487.4220923558324
 30
0.0
 40
3.451245654124703
100
AcDbArc
 50
349.9017478462992
 51
35.17415767770024
  0
ARC
  5
ADC
330
1F
100
AcDbEntity
  8
CYAN
100
AcDbCircle
 10
25.59773946228515
 20
894.9684432380133
 30
0.0
 40
494.5398587440969
100
AcDbArc
 50
232.2994267109016
 51
235.0919861893995
  0
ARC
  5
ADD
330
1F
100
AcDbEntity
  8
CYAN
100
AcDbCircle
 10
-272.0721195601707
 20
508.7626157761789
 30
0.0
 40
6.962605073982592
100
AcDbArc
 50
179.5300605670013
 51
226.8866234231003
  0
ARC
  5
ADE
330
1F
100
AcDbEntity
  8
CYAN
100
AcDbCircle
 10
-213.6708393589834
 20
619.5768549501687
 30
0.0
 40
128.6061791014118
100
AcDbArc
 50
228.0500257041015
 51
239.4528940600995
  0
ARC
  5
ADF
330
1F
100
AcDbEntity
  8
CYAN
100
AcDbCircle
 10
-309.2692621875443
 20
522.7344570462775
 30
0.0
 40
9.701362583042412
100
AcDbArc
 50
7.071313646600237
 51
46.09194074470003
  0
ARC
  5
AE0
330
1F
100
AcDbEntity
  8
CYAN
100
AcDbCircle
 10
-239.4980448245187
 20
646.0691119583692
 30
0.0
 40
132.3279233846025
100
AcDbArc
 50
236.7417395966997
 51
241.5483395611999
  0
ARC
  5
AE1
330
1F
100
AcDbEntity
  8
CYAN
100
AcDbCircle
 10
-468.9544655454116
 20
357.4896954957572
 30
0.0
 40
237.2147119082069
100
AcDbArc
 50
48.59579492639862
 51
52.04119370799936
  0
ARC
  5
AE2
330
1F
100
AcDbEntity
  8
CYAN
100
AcDbCircle
 10
-324.6435776847059
 20
542.8262349682271
 30
0.0
 40
2.330792796260838
100
AcDbArc
 50
46.69531259049992
 51
115.1404479043993
  0
LINE
  5
AE3
330
1F
100
AcDbEntity
  8
CYAN
100
AcDbLine
 10
-325.6337884389701
 20
544.9362296890219
 30
0.0
 11
-329.2579947041611
 21
541.6443023936968
 31
0.0
  0
LINE
  5
AE4
330
1F
100
AcDbEntity
  8
CYAN
100
AcDbLine
 10
-329.2579947041611
 20
541.6443023936968
 30
0.0
 11
-277.9948233589558
 21
498.9133987254038
 31
0.0
  0
LINE
  5
AE5
330
1F
100
AcDbEntity
  8
CYAN
100
AcDbLine
 10
-277.9948233589558
 20
498.9133987254038
 30
0.0
 11
-279.3443328420191
 21
497.4373146643406
 31
0.0
  0
LINE
  5
AE6
330
1F
100
AcDbEntity
  8
CYAN
100
AcDbLine
 10
-279.3443328420191
 20
497.4373146643406
 30
0.0
 11
-330.4602273552247
 21
540.057374569834
 31
0.0
  0
LINE
  5
AE7
330
1F
100
AcDbEntity
  8
CYAN
100
AcDbLine
 10
-330.4602273552247
 20
540.057374569834
 30
0.0
 11
-332.4668451056197
 21
537.9686483557061
 31
0.0
  0
LINE
  5
AE8
330
1F
100
AcDbEntity
  8
CYAN
100
AcDbLine
 10
-332.4668451056197
 20
537.9686483557061
 30
0.0
 11
-333.8623757722828
 21
535.1215843557131
 31
0.0
  0
LINE
  5
AE9
330
1F
100
AcDbEntity
  8
CYAN
100
AcDbLine
 10
-333.8623757722828
 20
535.1215843557131
 30
0.0
 11
-333.4551844389506
 21
533.1458110223848
 31
0.0
  0
ARC
  5
AEA
330
1F
100
AcDbEntity
  8
CYAN
100
AcDbCircle
 10
-441.5711072805468
 20
353.7528681952333
 30
0.0
 40
228.2047829876962
100
AcDbArc
 50
54.84440200699925
 51
61.90410907820029
  0
ARC
  5
AEB
330
1F
100
AcDbEntity
  8
CYAN
100
AcDbCircle
 10
-304.6785468779558
 20
540.0642643101008
 30
0.0
 40
5.498979466252919
100
AcDbArc
 50
177.2183581118001
 51
233.3126155004006
  0
ARC
  5
AEC
330
1F
100
AcDbEntity
  8
CYAN
100
AcDbCircle
 10
-373.0368234403182
 20
401.975489065246
 30
0.0
 40
148.676116515495
100
AcDbArc
 50
53.8477813889997
 51
64.04389782980053
  0
ARC
  5
AED
330
1F
100
AcDbEntity
  8
CYAN
100
AcDbCircle
 10
-196.5687137548927
 20
559.01143024912
 30
0.0
 40
96.15738327735961
100
AcDbArc
 50
202.6220732126986
 51
205.0943265663009
  0
ARC
  5
AEE
330
1F
100
AcDbEntity
  8
CYAN
100
AcDbCircle
 10
-2254.965418623746
 20
-2746.161014207951
 30
0.0
 40
3813.441307813666
100
AcDbArc
 50
58.48777456790039
 51
58.87286874849941
  0
ARC
  5
AEF
330
1F
100
AcDbEntity
  8
CYAN
100
AcDbCircle
 10
-237.4392675450573
 20
517.4068941277575
 30
0.0
 40
27.33966657313165
100
AcDbArc
 50
207.207082032999
 51
224.886452303701
  0
ARC
  5
AF0
330
1F
100
AcDbEntity
  8
CYAN
100
AcDbCircle
 10
-313.8684656941995
 20
377.7804438186399
 30
0.0
 40
133.1753770566004
100
AcDbArc
 50
56.2604387090002
 51
64.6308283602996
  0
ARC
  5
AF1
330
1F
100
AcDbEntity
  8
CYAN
100
AcDbCircle
 10
-247.6852495812983
 20
478.2945261170552
 30
0.0
 40
12.85578177063453
100
AcDbArc
 50
18.38332873490121
 51
52.73120524139931
  0
ARC
  5
AF2
330
1F
100
AcDbEntity
  8
CYAN
100
AcDbCircle
 10
-114.6375191648309
 20
679.6037319912187
 30
0.0
 40
231.3303112106217
100
AcDbArc
 50
238.5063173526013
 51
242.5019115302007
  0
ARC
  5
AF3
330
1F
100
AcDbEntity
  8
CYAN
100
AcDbCircle
 10
-163.3102363893759
 20
503.0597849033934
 30
0.0
 40
64.81389510597129
100
AcDbArc
 50
206.2358624415003
 51
243.9924311880012
  0
ARC
  5
AF4
330
1F
100
AcDbEntity
  8
CYAN
100
AcDbCircle
 10
-199.1289018182196
 20
397.9410615231229
 30
0.0
 40
47.44848519841471
100
AcDbArc
 50
53.48265412460086
 51
81.02952392900069
  0
ARC
  5
AF5
330
1F
100
AcDbEntity
  8
CYAN
100
AcDbCircle
 10
-169.6180837689601
 20
438.1997506318222
 30
0.0
 40
2.478964200127134
100
AcDbArc
 50
239.0250449434991
 51
311.3474620115
  0
LINE
  5
AF6
330
1F
100
AcDbEntity
  8
CYAN
100
AcDbLine
 10
-167.9804211060308
 20
436.3387496892935
 30
0.0
 11
-162.9509008408434
 21
443.5990505647419
 31
0.0
  0
LINE
  5
AF7
330
1F
100
AcDbEntity
  8
CYAN
100
AcDbLine
 10
-162.9509008408434
 20
443.5990505647419
 30
0.0
 11
-198.4067637332882
 21
467.4499310810823
 31
0.0
  0
LINE
  5
AF8
330
1F
100
AcDbEntity
  8
CYAN
100
AcDbLine
 10
-198.4067637332882
 20
467.4499310810823
 30
0.0
 11
-197.2904504786243
 21
469.1094022973449
 31
0.0
  0
LINE
  5
AF9
330
1F
100
AcDbEntity
  8
CYAN
100
AcDbLine
 10
-197.2904504786243
 20
469.1094022973449
 30
0.0
 11
-161.7614999973798
 21
445.209356333938
 31
0.0
  0
LINE
  5
AFA
330
1F
100
AcDbEntity
  8
CYAN
100
AcDbLine
 10
-161.7614999973798
 20
445.209356333938
 30
0.0
 11
-157.2089657727245
 21
452.1325736892539
 31
0.0
  0
ARC
  5
AFB
330
1F
100
AcDbEntity
  8
CYAN
100
AcDbCircle
 10
-159.1685764943196
 20
453.3859891111176
 30
0.0
 40
2.326182365994184
100
AcDbArc
 50
327.396014243801
 51
52.06736363709879
  0
ARC
  5
AFC
330
1F
100
AcDbEntity
  8
CYAN
100
AcDbCircle
 10
-138.0081103519724
 20
487.580439777832
 30
0.0
 40
37.90043298430525
100
AcDbArc
 50
224.2527117440004
 51
238.6283500328008
  0
ARC
  5
AFD
330
1F
100
AcDbEntity
  8
CYAN
100
AcDbCircle
 10
-255.0565637567465
 20
398.787360577654
 30
0.0
 40
109.4039172247931
100
AcDbArc
 50
34.74066605869957
 51
44.69322435350029
  0
ARC
  5
AFE
330
1F
100
AcDbEntity
  8
CYAN
100
AcDbCircle
 10
-216.8116364383088
 20
420.4713665938665
 30
0.0
 40
67.94311342209681
100
AcDbArc
 50
54.42367172480203
 51
84.35442068549958
  0
ARC
  5
AFF
330
1F
100
AcDbEntity
  8
CYAN
100
AcDbCircle
 10
-187.1307785785163
 20
526.4560096994681
 30
0.0
 40
44.73479412162149
100
AcDbArc
 50
219.4104945714009
 51
239.0644380335005
  0
ARC
  5
B00
330
1F
100
AcDbEntity
  8
CYAN
100
AcDbCircle
 10
-226.2173156924187
 20
492.5768276294197
 30
0.0
 40
7.104605137315571
100
AcDbArc
 50
50.4521507638007
 51
104.7246644208991
  0
ARC
  5
B01
330
1F
100
AcDbEntity
  8
CYAN
100
AcDbCircle
 10
-181.5960053873301
 20
576.1070728924107
 30
0.0
 40
89.62184148977595
100
AcDbArc
 50
223.7832302487999
 51
238.7995636147001
  0
ARC
  5
B02
330
1F
100
AcDbEntity
  8
CYAN
100
AcDbCircle
 10
-251.8207540847547
 20
505.1535939491214
 30
0.0
 40
10.50851993997373
100
AcDbArc
 50
58.30521847690023
 51
96.49646303220102
  0
ARC
  5
B03
330
1F
100
AcDbEntity
  8
CYAN
100
AcDbCircle
 10
-92.99166855101841
 20
738.264544575072
 30
0.0
 40
274.2036845226479
100
AcDbArc
 50
228.9783264529994
 51
234.2977127817
  0
ARC
  5
B04
330
1F
100
AcDbEntity
  8
CYAN
100
AcDbCircle
 10
-277.7158104566899
 20
521.3358116590808
 30
0.0
 40
11.11925935823887
100
AcDbArc
 50
64.69904762890077
 51
95.34395150170148
  0
ARC
  5
B05
330
1F
100
AcDbEntity
  8
CYAN
100
AcDbCircle
 10
-170.7802895674905
 20
688.0581587861307
 30
0.0
 40
189.4336913524597
100
AcDbArc
 50
228.0631997449989
 51
235.2520189206013
  0
ARC
  5
B06
330
1F
100
AcDbEntity
  8
CYAN
100
AcDbCircle
 10
-303.0918244631598
 20
539.5233597039688
 30
0.0
 40
9.52132866344286
100
AcDbArc
 50
53.14351426490115
 51
99.77984467890051
  0
ARC
  5
B07
330
1F
100
AcDbEntity
  8
CYAN
100
AcDbCircle
 10
-214.8838453691137
 20
685.5310343508039
 30
0.0
 40
163.5080929585245
100
AcDbArc
 50
227.2796704957014
 51
236.676675833199
  0
ARC
  5
B08
330
1F
100
AcDbEntity
  8
CYAN
100
AcDbCircle
 10
-327.8396306392313
 20
562.5064454696447
 30
0.0
 40
3.538630845857819
100
AcDbArc
 50
55.02201136220023
 51
140.0183407288
  0
LINE
  5
B09
330
1F
100
AcDbEntity
  8
CYAN
100
AcDbLine
 10
-330.5511071056244
 20
564.7801656889724
 30
0.0
 11
-331.8994073510877
 21
562.7823748293772
 31
0.0
  0
LINE
  5
B0A
330
1F
100
AcDbEntity
  8
CYAN
100
AcDbLine
 10
-331.8994073510877
 20
562.7823748293772
 30
0.0
 11
-283.5937973393419
 21
529.4913476719938
 31
0.0
  0
LINE
  5
B0B
330
1F
100
AcDbEntity
  8
CYAN
100
AcDbLine
 10
-283.5937973393419
 20
529.4913476719938
 30
0.0
 11
-284.7190282942724
 21
527.8379102530647
 31
0.0
  0
LINE
  5
B0C
330
1F
100
AcDbEntity
  8
CYAN
100
AcDbLine
 10
-284.7190282942724
 20
527.8379102530647
 30
0.0
 11
-333.0343173908182
 21
561.1356079955148
 31
0.0
  0
LINE
  5
B0D
330
1F
100
AcDbEntity
  8
CYAN
100
AcDbLine
 10
-333.0343173908182
 20
561.1356079955148
 30
0.0
 11
-334.3631931056149
 21
559.3896323556527
 31
0.0
  0
ARC
  5
B0E
330
1F
100
AcDbEntity
  8
CYAN
100
AcDbCircle
 10
-332.32351800442
 20
557.3447091923243
 30
0.0
 40
2.888249515192778
100
AcDbArc
 50
134.9263840333984
 51
232.0835691224002
  0
ARC
  5
B0F
330
1F
100
AcDbEntity
  8
CYAN
100
AcDbCircle
 10
-315.9341354051277
 20
502.0686632363291
 30
0.0
 40
10.67666484810664
100
AcDbArc
 50
1.83500401640109
 51
63.64417009420091
  0
ARC
  5
B10
330
1F
100
AcDbEntity
  8
CYAN
100
AcDbCircle
 10
-320.1166984093839
 20
495.176928998213
 30
0.0
 40
18.72151409461986
100
AcDbArc
 50
61.53734073060074
 51
119.3326596582005
  0
LINE
  5
B11
330
1F
100
AcDbEntity
  8
CYAN
100
AcDbLine
 10
-329.2879837722943
 20
511.4981610224389
 30
0.0
 11
-330.4011955688249
 21
510.1738007281754
 31
0.0
  0
ARC
  5
B12
330
1F
100
AcDbEntity
  8
CYAN
100
AcDbCircle
 10
-328.870212438962
 20
508.8869088695122
 30
0.0
 40
1.999999999994999
100
AcDbArc
 50
139.9507436517
 51
180.0
  0
LINE
  5
B13
330
1F
100
AcDbEntity
  8
CYAN
100
AcDbLine
 10
-330.870212438957
 20
508.8869088695122
 30
0.0
 11
-330.870212438957
 21
507.9430531447143
 31
0.0
  0
ARC
  5
B14
330
1F
100
AcDbEntity
  8
CYAN
100
AcDbCircle
 10
-330.203545772292
 20
507.9430531447143
 30
0.0
 40
0.6666666666650001
100
AcDbArc
 50
180.0
 51
206.5700664402996
  0
LINE
  5
B15
330
1F
100
AcDbEntity
  8
CYAN
100
AcDbLine
 10
-330.7998044666905
 20
507.6448585543151
 30
0.0
 11
-330.5507134677578
 21
507.1467855556497
 31
0.0
  0
ARC
  5
B16
330
1F
100
AcDbEntity
  8
CYAN
100
AcDbCircle
 10
-331.7432308566881
 20
506.5503963749845
 30
0.0
 40
1.333333333329999
100
AcDbArc
 50
356.1892117823003
 51
26.57006644029963
  0
LINE
  5
B17
330
1F
100
AcDbEntity
  8
CYAN
100
AcDbLine
 10
-330.4128455608248
 20
506.4617806747182
 30
0.0
 11
-330.4574811056247
 21
505.7916683557865
 31
0.0
  0
ARC
  5
B18
330
1F
100
AcDbEntity
  8
CYAN
100
AcDbCircle
 10
-353.0716968705015
 20
519.097208472553
 30
0.0
 40
26.23814308340107
100
AcDbArc
 50
321.3168315371009
 51
329.5286950964998
  0
ARC
  5
B19
330
1F
100
AcDbEntity
  8
CYAN
100
AcDbCircle
 10
-331.8273140150879
 20
501.2160124860645
 30
0.0
 40
1.666666666662498
100
AcDbArc
 50
117.2266681846993
 51
241.4552564540993
  0
ARC
  5
B1A
330
1F
100
AcDbEntity
  8
CYAN
100
AcDbCircle
 10
-353.4773919039671
 20
483.8282265367746
 30
0.0
 40
26.23814308340107
100
AcDbArc
 50
29.15322954229955
 51
37.36509310169906
  0
LINE
  5
B1B
330
1F
100
AcDbEntity
  8
CYAN
100
AcDbLine
 10
-330.5630961176245
 20
496.6100574336762
 30
0.0
 11
-330.5338867932245
 21
495.9390956856777
 31
0.0
  0
ARC
  5
B1C
330
1F
100
AcDbEntity
  8
CYAN
100
AcDbCircle
 10
-331.8659584748211
 20
495.8811059211447
 30
0.0
 40
1.333333333329999
100
AcDbArc
 50
332.1118581984992
 51
2.492712856500312
  0
LINE
  5
B1D
330
1F
100
AcDbEntity
  8
CYAN
100
AcDbLine
 10
-330.6874752001573
 20
495.2574433931462
 30
0.0
 11
-330.9479573266902
 21
494.7652319554141
 31
0.0
  0
ARC
  5
B1E
330
1F
100
AcDbEntity
  8
CYAN
100
AcDbCircle
 10
-330.3587156893584
 20
494.4534006912816
 30
0.0
 40
0.6666666666650001
100
AcDbArc
 50
152.1118581984992
 51
178.6819246387988
  0
LINE
  5
B1F
330
1F
100
AcDbEntity
  8
CYAN
100
AcDbLine
 10
-331.0252059576233
 20
494.4687358418148
 30
0.0
 11
-331.0469172120232
 21
493.5251298591504
 31
0.0
  0
ARC
  5
B20
330
1F
100
AcDbEntity
  8
CYAN
100
AcDbCircle
 10
-329.0474464073615
 20
493.4791244074173
 30
0.0
 40
1.999999999994999
100
AcDbArc
 50
178.6819246387988
 51
218.7311809871006
  0
LINE
  5
B21
330
1F
100
AcDbEntity
  8
CYAN
100
AcDbLine
 10
-330.6076264632243
 20
492.2277898426203
 30
0.0
 11
-329.5251731166937
 21
490.8781730654236
 31
0.0
  0
ARC
  5
B22
330
1F
100
AcDbEntity
  8
CYAN
100
AcDbCircle
 10
-319.9808816297842
 20
506.9841219665835
 30
0.0
 40
18.72151409461986
100
AcDbArc
 50
239.3492649806013
 51
297.1445839082012
  0
ARC
  5
B23
330
1F
100
AcDbEntity
  8
CYAN
100
AcDbCircle
 10
-315.9579539951276
 20
499.9980009155343
 30
0.0
 40
10.67666484810664
100
AcDbArc
 50
295.0377545446002
 51
2.215362927398421
  0
LINE
  5
B24
330
1F
100
AcDbEntity
  8
CYAN
100
AcDbLine
 10
-305.289269020621
 20
500.4107153357998
 30
0.0
 11
-314.4909401675314
 21
500.5165610981997
 31
0.0
  0
LINE
  5
B25
330
1F
100
AcDbEntity
  8
CYAN
100
AcDbLine
 10
-314.4909401675314
 20
500.5165610981997
 30
0.0
 11
-314.4679359199314
 21
502.5164287949946
 31
0.0
  0
LINE
  5
B26
330
1F
100
AcDbEntity
  8
CYAN
100
AcDbLine
 10
-314.4679359199314
 20
502.5164287949946
 30
0.0
 11
-305.2629457227543
 21
502.4105448539282
 31
0.0
  0
ARC
  5
B27
330
1F
100
AcDbEntity
  8
CYAN
100
AcDbCircle
 10
-239.1109119373197
 20
441.6826878687468
 30
0.0
 40
5.002137250387494
100
AcDbArc
 50
358.8587684874
 51
81.07365497840078
  0
ARC
  5
B28
330
1F
100
AcDbEntity
  8
CYAN
100
AcDbCircle
 10
-217.0133257447083
 20
786.3033629074851
 30
0.0
 40
340.3476287179491
100
AcDbArc
 50
265.5641415927012
 51
266.4082943631994
  0
ARC
  5
B29
330
1F
100
AcDbEntity
  8
CYAN
100
AcDbCircle
 10
-248.1458310730305
 20
441.835729731413
 30
0.0
 40
7.038528971849068
100
AcDbArc
 50
46.90277540070037
 51
179.5721147486004
  0
LINE
  5
B2A
330
1F
100
AcDbEntity
  8
CYAN
100
AcDbLine
 10
-255.1841637724796
 20
441.8882930226128
 30
0.0
 11
-256.8517091058087
 21
440.923587689282
 31
0.0
  0
ARC
  5
B2B
330
1F
100
AcDbEntity
  8
CYAN
100
AcDbCircle
 10
-262.0250231989958
 20
491.5974981228887
 30
0.0
 40
50.93729848880599
100
AcDbArc
 50
263.266928288299
 51
275.8291473048008
  0
LINE
  5
B2C
330
1F
100
AcDbEntity
  8
CYAN
100
AcDbLine
 10
-267.9971151057809
 20
441.0115070226152
 30
0.0
 11
-270.1909617724421
 21
442.3268576892785
 31
0.0
  0
ARC
  5
B2D
330
1F
100
AcDbEntity
  8
CYAN
100
AcDbCircle
 10
-263.7212272599249
 20
444.2045916204738
 30
0.0
 40
6.736716513183157
100
AcDbArc
 50
161.3296109841007
 51
196.1845009129008
  0
ARC
  5
B2E
330
1F
100
AcDbEntity
  8
CYAN
100
AcDbCircle
 10
-198.8151188318204
 20
424.39569034679
 30
0.0
 40
74.59561432594684
100
AcDbArc
 50
150.2972119906011
 51
162.8747944137009
  0
ARC
  5
B2F
330
1F
100
AcDbEntity
  8
CYAN
100
AcDbCircle
 10
-268.7009825768458
 20
464.5303731276229
 30
0.0
 40
5.999054884918334
100
AcDbArc
 50
328.0734968125015
 51
26.78741142280021
  0
ARC
  5
B30
330
1F
100
AcDbEntity
  8
CYAN
100
AcDbCircle
 10
-319.3318940389858
 20
439.4837292102189
 30
0.0
 40
62.48625062584377
100
AcDbArc
 50
26.36593777340183
 51
54.9058881887991
  0
ARC
  5
B31
330
1F
100
AcDbEntity
  8
CYAN
100
AcDbCircle
 10
-289.5049777315937
 20
468.0933383678808
 30
0.0
 40
23.32823362274168
100
AcDbArc
 50
74.8474824197993
 51
100.909308016901
  0
LINE
  5
B32
330
1F
100
AcDbEntity
  8
CYAN
100
AcDbLine
 10
-293.9199617723827
 20
490.9999836891568
 30
0.0
 11
-294.631853772381
 21
490.6572370224908
 31
0.0
  0
LINE
  5
B33
330
1F
100
AcDbEntity
  8
CYAN
100
AcDbLine
 10
-294.631853772381
 20
490.6572370224908
 30
0.0
 11
-294.8429284390471
 21
489.3659263558276
 31
0.0
  0
LINE
  5
B34
330
1F
100
AcDbEntity
  8
CYAN
100
AcDbLine
 10
-294.8429284390471
 20
489.3659263558276
 30
0.0
 11
-293.9725917723826
 21
488.3905750224966
 31
0.0
  0
LINE
  5
B35
330
1F
100
AcDbEntity
  8
CYAN
100
AcDbLine
 10
-293.9725917723826
 20
488.3905750224966
 30
0.0
 11
-292.2352431057202
 21
487.9564750224978
 31
0.0
  0
ARC
  5
B36
330
1F
100
AcDbEntity
  8
CYAN
100
AcDbCircle
 10
-282.4079375038781
 20
565.3147904443043
 30
0.0
 40
77.98002885540504
100
AcDbArc
 50
262.7601423788994
 51
267.1630028770997
  0
ARC
  5
B37
330
1F
100
AcDbEntity
  8
CYAN
100
AcDbCircle
 10
-304.5259541672896
 20
455.0024029075134
 30
0.0
 40
37.21479005977363
100
AcDbArc
 50
19.37220801349962
 51
60.61848733210009
  0
ARC
  5
B38
330
1F
100
AcDbEntity
  8
CYAN
100
AcDbCircle
 10
-274.094095933899
 20
465.3025837137543
 30
0.0
 40
5.103234494920575
100
AcDbArc
 50
321.3133759046996
 51
23.61253425849999
  0
ARC
  5
B39
330
1F
100
AcDbEntity
  8
CYAN
100
AcDbCircle
 10
-208.3936720992632
 20
427.05690123185
 30
0.0
 40
70.97813679448922
100
AcDbArc
 50
150.4029902269005
 51
169.1226221037009
  0
ARC
  5
B3A
330
1F
100
AcDbEntity
  8
CYAN
100
AcDbCircle
 10
-274.2212648421653
 20
439.8158034312849
 30
0.0
 40
3.927016943723515
100
AcDbArc
 50
170.6911393346989
 51
248.8368683936005
  0
ARC
  5
B3B
330
1F
100
AcDbEntity
  8
CYAN
100
AcDbCircle
 10
-251.7337835664882
 20
510.3369409547084
 30
0.0
 40
77.93986366820516
100
AcDbArc
 50
252.1387007139
 51
280.4834513520008
  0
ARC
  5
B3C
330
1F
100
AcDbEntity
  8
CYAN
100
AcDbCircle
 10
-239.2348726326527
 20
438.5065898276881
 30
0.0
 40
5.094314714787262
100
AcDbArc
 50
289.2835779167011
 51
12.11369398549888
  0
LINE
  5
B3D
330
1F
100
AcDbEntity
  8
CYAN
100
AcDbLine
 10
-234.2539924687985
 20
439.5756432436853
 30
0.0
 11
-242.8306294414438
 21
439.2307039143529
 31
0.0
  0
LINE
  5
B3E
330
1F
100
AcDbEntity
  8
CYAN
100
AcDbLine
 10
-242.8306294414438
 20
439.2307039143529
 30
0.0
 11
-242.870815436777
 21
440.2298961308837
 31
0.0
  0
LINE
  5
B3F
330
1F
100
AcDbEntity
  8
CYAN
100
AcDbLine
 10
-242.870815436777
 20
440.2298961308837
 30
0.0
 11
-242.9110014321103
 21
441.2290883475479
 31
0.0
  0
LINE
  5
B40
330
1F
100
AcDbEntity
  8
CYAN
100
AcDbLine
 10
-242.9110014321103
 20
441.2290883475479
 30
0.0
 11
-234.1097669194656
 21
441.5830606492803
 31
0.0
  0
ARC
  5
B41
330
1F
100
AcDbEntity
  8
CYAN
100
AcDbCircle
 10
-203.6904878170083
 20
508.3878068049798
 30
0.0
 40
1.474076161196314
100
AcDbArc
 50
101.5245579276001
 51
285.4853851201004
  0
ARC
  5
B42
330
1F
100
AcDbEntity
  8
CYAN
100
AcDbCircle
 10
-193.5669058819669
 20
487.2042903795663
 30
0.0
 40
22.02833238687826
100
AcDbArc
 50
84.87653842730111
 51
116.2126885480006
  0
ARC
  5
B43
330
1F
100
AcDbEntity
  8
CYAN
100
AcDbCircle
 10
-358.8726352375537
 20
211.5661893295889
 30
0.0
 40
341.3695094896799
100
AcDbArc
 50
58.49377398919801
 51
60.65906277549998
  0
ARC
  5
B44
330
1F
100
AcDbEntity
  8
CYAN
100
AcDbCircle
 10
-157.2593309483244
 20
555.2468099671293
 30
0.0
 40
57.52753053732285
100
AcDbArc
 50
246.1982215305018
 51
262.1569006544986
  0
ARC
  5
B45
330
1F
100
AcDbEntity
  8
CYAN
100
AcDbCircle
 10
-164.3993374015065
 20
501.2723100867311
 30
0.0
 40
3.09741794692559
100
AcDbArc
 50
256.7439763452996
 51
352.9710230568996
  0
LINE
  5
B46
330
1F
100
AcDbEntity
  8
CYAN
100
AcDbLine
 10
-161.3251984393809
 20
500.8932750224653
 30
0.0
 11
-160.0924092923173
 21
503.8783633996579
 31
0.0
  0
LINE
  5
B47
330
1F
100
AcDbEntity
  8
CYAN
100
AcDbLine
 10
-160.0924092923173
 20
503.8783633996579
 30
0.0
 11
-171.3069862934893
 21
508.5627213684461
 31
0.0
  0
LINE
  5
B48
330
1F
100
AcDbEntity
  8
CYAN
100
AcDbLine
 10
-171.3069862934893
 20
508.5627213684461
 30
0.0
 11
-170.9215565689568
 21
509.4854585615106
 31
0.0
  0
LINE
  5
B49
330
1F
100
AcDbEntity
  8
CYAN
100
AcDbLine
 10
-170.9215565689568
 20
509.4854585615106
 30
0.0
 11
-170.5361268445578
 21
510.408195754575
 31
0.0
  0
LINE
  5
B4A
330
1F
100
AcDbEntity
  8
CYAN
100
AcDbLine
 10
-170.5361268445578
 20
510.408195754575
 30
0.0
 11
-159.3949883668524
 21
505.75451324792
 31
0.0
  0
LINE
  5
B4B
330
1F
100
AcDbEntity
  8
CYAN
100
AcDbLine
 10
-159.3949883668524
 20
505.75451324792
 30
0.0
 11
-157.8848477727228
 21
509.9468716891093
 31
0.0
  0
LINE
  5
B4C
330
1F
100
AcDbEntity
  8
CYAN
100
AcDbLine
 10
-157.8848477727228
 20
509.9468716891093
 30
0.0
 11
-157.9995264393892
 21
512.0095336891043
 31
0.0
  0
ARC
  5
B4D
330
1F
100
AcDbEntity
  8
CYAN
100
AcDbCircle
 10
-189.6206611877101
 20
472.6139557416027
 30
0.0
 40
50.51641044840703
100
AcDbArc
 50
51.24748730130145
 51
74.49760839710075
  0
ARC
  5
B4E
330
1F
100
AcDbEntity
  8
CYAN
100
AcDbCircle
 10
-152.2594009434035
 20
644.4666798861065
 30
0.0
 40
125.4636770336863
100
AcDbArc
 50
254.0823219678006
 51
259.0373516760006
  0
ARC
  5
B4F
330
1F
100
AcDbEntity
  8
CYAN
100
AcDbCircle
 10
-174.4040275430815
 20
537.7975230445064
 30
0.0
 40
18.6001705939535
100
AcDbArc
 50
199.4404498695994
 51
228.7475925264007
  0
ARC
  5
B50
330
1F
100
AcDbEntity
  8
CYAN
100
AcDbCircle
 10
-193.6131028709001
 20
531.2260580677229
 30
0.0
 40
1.712227261329051
100
AcDbArc
 50
12.85098346209908
 51
225.6170024394995
  0
ARC
  5
B51
330
1F
100
AcDbEntity
  8
CYAN
100
AcDbCircle
 10
-165.8774821511028
 20
539.7499631541014
 30
0.0
 40
30.53110056819034
100
AcDbArc
 50
198.6186559074985
 51
222.8138249016001
  0
ARC
  5
B52
330
1F
100
AcDbEntity
  8
CYAN
100
AcDbCircle
 10
-189.3310252283774
 20
516.5120359866931
 30
0.0
 40
2.703604142393241
100
AcDbArc
 50
260.7657681316991
 51
66.98649679169879
  0
ARC
  5
B53
330
1F
100
AcDbEntity
  8
CYAN
100
AcDbCircle
 10
-188.6870577173124
 20
482.8117173781106
 30
0.0
 40
31.05046377165571
100
AcDbArc
 50
91.98923906710133
 51
119.5168622087982
  0
ARC
  5
B54
330
1F
100
AcDbEntity
  8
CYAN
100
AcDbCircle
 10
-185.1513688334546
 20
544.4984294250231
 30
0.0
 40
26.16405176153459
100
AcDbArc
 50
333.3021631187993
 51
19.73163636699846
  0
ARC
  5
B55
330
1F
100
AcDbEntity
  8
CYAN
100
AcDbCircle
 10
-182.1590723411955
 20
545.3951113855541
 30
0.0
 40
23.04531621447572
100
AcDbArc
 50
20.14487918530138
 51
83.32510628830133
  0
ARC
  5
B56
330
1F
100
AcDbEntity
  8
CYAN
100
AcDbCircle
 10
-179.3672117888024
 20
542.7193144783609
 30
0.0
 40
25.56515505806942
100
AcDbArc
 50
90.25364709829927
 51
147.8946359412
  0
ARC
  5
B57
330
1F
100
AcDbEntity
  8
CYAN
100
AcDbCircle
 10
-192.1887710277037
 20
550.5058345352746
 30
0.0
 40
10.56826756664024
100
AcDbArc
 50
146.7092464114996
 51
195.8632970792011
  0
ARC
  5
B58
330
1F
100
AcDbEntity
  8
CYAN
100
AcDbCircle
 10
-160.6562671087159
 20
579.1415396933365
 30
0.0
 40
52.27370249013597
100
AcDbArc
 50
217.0897668722007
 51
261.0941540406997
  0
ARC
  5
B59
330
1F
100
AcDbEntity
  8
CYAN
100
AcDbCircle
 10
-167.8870714393644
 20
532.3101170185203
 30
0.0
 40
4.888624487987778
100
AcDbArc
 50
259.8470483027011
 51
336.8918417371014
  0
LINE
  5
B5A
330
1F
100
AcDbEntity
  8
CYAN
100
AcDbLine
 10
-163.3906826881756
 20
530.3914879290585
 30
0.0
 11
-172.4155776221532
 21
535.6030004943786
 31
0.0
  0
LINE
  5
B5B
330
1F
100
AcDbEntity
  8
CYAN
100
AcDbLine
 10
-172.4155776221532
 20
535.6030004943786
 30
0.0
 11
-171.415435557489
 21
537.334969273041
 31
0.0
  0
LINE
  5
B5C
330
1F
100
AcDbEntity
  8
CYAN
100
AcDbLine
 10
-171.415435557489
 20
537.334969273041
 30
0.0
 11
-162.2233676916452
 21
532.0269210869208
 31
0.0
  0
LINE
  5
B5D
330
1F
100
AcDbEntity
  8
CYAN
100
AcDbLine
 10
-162.2233676916452
 20
532.0269210869208
 30
0.0
 11
-161.776709772713
 21
532.7433063557192
 31
0.0
  0
ARC
  5
B5E
330
1F
100
AcDbEntity
  8
CYAN
100
AcDbCircle
 10
-265.6403084889868
 20
582.4162520742616
 30
0.0
 40
4.999343158520833
100
AcDbArc
 50
49.00603513130009
 51
137.2017067358993
  0
LINE
  5
B5F
330
1F
100
AcDbEntity
  8
CYAN
100
AcDbLine
 10
-262.3608417156617
 20
586.1896497075855
 30
0.0
 11
-256.0058883823442
 21
577.6858903742735
 31
0.0
  0
ARC
  5
B60
330
1F
100
AcDbEntity
  8
CYAN
100
AcDbCircle
 10
-252.1412303667538
 20
581.7090002973301
 30
0.0
 40
5.578619455452719
100
AcDbArc
 50
226.1508204509997
 51
296.5129405314002
  0
LINE
  5
B61
330
1F
100
AcDbEntity
  8
CYAN
100
AcDbLine
 10
-249.6509350490267
 20
576.7170643742757
 30
0.0
 11
-248.9864303823617
 21
577.0698783742749
 31
0.0
  0
LINE
  5
B62
330
1F
100
AcDbEntity
  8
CYAN
100
AcDbLine
 10
-248.9864303823617
 20
577.0698783742749
 30
0.0
 11
-253.3356003823509
 21
583.898947707591
 31
0.0
  0
LINE
  5
B63
330
1F
100
AcDbEntity
  8
CYAN
100
AcDbLine
 10
-253.3356003823509
 20
583.898947707591
 30
0.0
 11
-251.6929970490216
 21
585.0429177075883
 31
0.0
  0
LINE
  5
B64
330
1F
100
AcDbEntity
  8
CYAN
100
AcDbLine
 10
-251.6929970490216
 20
585.0429177075883
 30
0.0
 11
-247.2678690490327
 21
578.0945797076056
 31
0.0
  0
LINE
  5
B65
330
1F
100
AcDbEntity
  8
CYAN
100
AcDbLine
 10
-247.2678690490327
 20
578.0945797076056
 30
0.0
 11
-246.3884190490349
 21
578.6784130409374
 31
0.0
  0
ARC
  5
B66
330
1F
100
AcDbEntity
  8
CYAN
100
AcDbCircle
 10
-248.3969914418299
 20
582.6940011979941
 30
0.0
 40
4.489912171188773
100
AcDbArc
 50
296.5739346913981
 51
336.2398283055012
  0
ARC
  5
B67
330
1F
100
AcDbEntity
  8
CYAN
100
AcDbCircle
 10
-241.1617679105146
 20
581.69611895053
 30
0.0
 40
3.229405400525258
100
AcDbArc
 50
71.57255896879863
 51
194.5470292303
  0
LINE
  5
B68
330
1F
100
AcDbEntity
  8
CYAN
100
AcDbLine
 10
-240.1409417157172
 20
584.7599357075891
 30
0.0
 11
-232.1705197157371
 21
579.9700670409341
 31
0.0
  0
ARC
  5
B69
330
1F
100
AcDbEntity
  8
CYAN
100
AcDbCircle
 10
-229.7423256852098
 20
585.4049090107873
 30
0.0
 40
5.952615684518451
100
AcDbArc
 50
245.9257286865013
 51
319.3983880047002
  0
LINE
  5
B6A
330
1F
100
AcDbEntity
  8
CYAN
100
AcDbLine
 10
-225.2227843824211
 20
581.5309730409303
 30
0.0
 11
-224.7726063824222
 21
582.260558374262
 31
0.0
  0
LINE
  5
B6B
330
1F
100
AcDbEntity
  8
CYAN
100
AcDbLine
 10
-224.7726063824222
 20
582.260558374262
 30
0.0
 11
-231.2547550490727
 21
586.2669217075854
 31
0.0
  0
LINE
  5
B6C
330
1F
100
AcDbEntity
  8
CYAN
100
AcDbLine
 10
-231.2547550490727
 20
586.2669217075854
 30
0.0
 11
-230.2331130490752
 21
587.9866543742475
 31
0.0
  0
LINE
  5
B6D
330
1F
100
AcDbEntity
  8
CYAN
100
AcDbLine
 10
-230.2331130490752
 20
587.9866543742475
 30
0.0
 11
-223.8647143824245
 21
584.0505957075909
 31
0.0
  0
LINE
  5
B6E
330
1F
100
AcDbEntity
  8
CYAN
100
AcDbLine
 10
-223.8647143824245
 20
584.0505957075909
 30
0.0
 11
-223.5535777157586
 21
584.6524410409227
 31
0.0
  0
ARC
  5
B6F
330
1F
100
AcDbEntity
  8
CYAN
100
AcDbCircle
 10
-228.0417523605474
 20
587.0519160579833
 30
0.0
 40
5.089321369320608
100
AcDbArc
 50
331.8700784475993
 51
60.6379367584003
  0
LINE
  5
B70
330
1F
100
AcDbEntity
  8
CYAN
100
AcDbLine
 10
-225.5463217157537
 20
591.4874563742389
 30
0.0
 11
-232.3854723824033
 21
596.1162543742274
 31
0.0
  0
ARC
  5
B71
330
1F
100
AcDbEntity
  8
CYAN
100
AcDbCircle
 10
-228.9403154176119
 20
601.2788630700811
 30
0.0
 40
6.206579980784482
100
AcDbArc
 50
118.0005941565992
 51
236.2836799625003
  0
LINE
  5
B72
330
1F
100
AcDbEntity
  8
CYAN
100
AcDbLine
 10
-231.8541850490712
 20
606.7589177075342
 30
0.0
 11
-228.2454177157469
 21
609.1808110408615
 31
0.0
  0
LINE
  5
B73
330
1F
100
AcDbEntity
  8
CYAN
100
AcDbLine
 10
-228.2454177157469
 20
609.1808110408615
 30
0.0
 11
-224.745235049089
 21
612.1947843741873
 31
0.0
  0
ARC
  5
B74
330
1F
100
AcDbEntity
  8
CYAN
100
AcDbCircle
 10
-228.7081976756124
 20
615.2301043931129
 30
0.0
 40
4.991817344120853
100
AcDbArc
 50
322.5507039868012
 51
22.57053685219943
  0
LINE
  5
B75
330
1F
100
AcDbEntity
  8
CYAN
100
AcDbLine
 10
-224.0987150490906
 20
617.1460663741749
 30
0.0
 11
-224.7611990490889
 21
618.3731070408383
 31
0.0
  0
LINE
  5
B76
330
1F
100
AcDbEntity
  8
CYAN
100
AcDbLine
 10
-224.7611990490889
 20
618.3731070408383
 30
0.0
 11
-230.722913049074
 21
614.5091837075146
 31
0.0
  0
LINE
  5
B77
330
1F
100
AcDbEntity
  8
CYAN
100
AcDbLine
 10
-230.722913049074
 20
614.5091837075146
 30
0.0
 11
-231.932917049071
 21
616.1083370408439
 31
0.0
  0
LINE
  5
B78
330
1F
100
AcDbEntity
  8
CYAN
100
AcDbLine
 10
-231.932917049071
 20
616.1083370408439
 30
0.0
 11
-225.9065637157529
 21
620.0110543741677
 31
0.0
  0
LINE
  5
B79
330
1F
100
AcDbEntity
  8
CYAN
100
AcDbLine
 10
-225.9065637157529
 20
620.0110543741677
 30
0.0
 11
-226.468180382418
 21
621.0749470408317
 31
0.0
  0
ARC
  5
B7A
330
1F
100
AcDbEntity
  8
CYAN
100
AcDbCircle
 10
-230.2054777358753
 20
617.9851880740393
 30
0.0
 40
4.84912383652121
100
AcDbArc
 50
39.58177087120128
 51
116.8110621007014
  0
LINE
  5
B7B
330
1F
100
AcDbEntity
  8
CYAN
100
AcDbLine
 10
-232.3926743824032
 20
622.3130250408287
 30
0.0
 11
-241.1708310490479
 21
616.8232390408422
 31
0.0
  0
LINE
  5
B7C
330
1F
100
AcDbEntity
  8
CYAN
100
AcDbLine
 10
-241.1708310490479
 20
616.8232390408422
 30
0.0
 11
-244.1330783823739
 21
617.5228130408403
 31
0.0
  0
LINE
  5
B7D
330
1F
100
AcDbEntity
  8
CYAN
100
AcDbLine
 10
-244.1330783823739
 20
617.5228130408403
 30
0.0
 11
-244.887074382372
 21
618.8683863741704
 31
0.0
  0
ARC
  5
B7E
330
1F
100
AcDbEntity
  8
CYAN
100
AcDbCircle
 10
-252.9471550627519
 20
616.8901354891087
 30
0.0
 40
8.299299798112585
100
AcDbArc
 50
13.78997816160088
 51
49.21425104429784
  0
LINE
  5
B7F
330
1F
100
AcDbEntity
  8
CYAN
100
AcDbLine
 10
-247.5257843823654
 20
623.1740130408264
 30
0.0
 11
-248.3817857156966
 21
623.6213370408253
 31
0.0
  0
LINE
  5
B80
330
1F
100
AcDbEntity
  8
CYAN
100
AcDbLine
 10
-248.3817857156966
 20
623.6213370408253
 30
0.0
 11
-252.35058504902
 21
616.4533610408433
 31
0.0
  0
LINE
  5
B81
330
1F
100
AcDbEntity
  8
CYAN
100
AcDbLine
 10
-252.35058504902
 20
616.4533610408433
 30
0.0
 11
-254.1169703823489
 21
617.3920137075074
 31
0.0
  0
LINE
  5
B82
330
1F
100
AcDbEntity
  8
CYAN
100
AcDbLine
 10
-254.1169703823489
 20
617.3920137075074
 30
0.0
 11
-250.1632877156921
 21
624.5326870408229
 31
0.0
  0
LINE
  5
B83
330
1F
100
AcDbEntity
  8
CYAN
100
AcDbLine
 10
-250.1632877156921
 20
624.5326870408229
 30
0.0
 11
-251.6503270490217
 21
625.2260290408213
 31
0.0
  0
ARC
  5
B84
330
1F
100
AcDbEntity
  8
CYAN
100
AcDbCircle
 10
-253.2532709894177
 20
619.4345608032357
 30
0.0
 40
6.009204075718308
100
AcDbArc
 50
74.52914721280163
 51
134.5215698001996
  0
LINE
  5
B85
330
1F
100
AcDbEntity
  8
CYAN
100
AcDbLine
 10
-257.4667910490072
 20
623.7190423741584
 30
0.0
 11
-263.1752243823263
 21
614.6771223741811
 31
0.0
  0
ARC
  5
B86
330
1F
100
AcDbEntity
  8
CYAN
100
AcDbCircle
 10
-266.4922937197846
 20
618.6891510347042
 30
0.0
 40
5.205701005853652
100
AcDbArc
 50
234.2980628833001
 51
309.5832982557001
  0
LINE
  5
B87
330
1F
100
AcDbEntity
  8
CYAN
100
AcDbLine
 10
-269.5301777156437
 20
614.461789707515
 30
0.0
 11
-276.9626637156251
 21
619.7901617075014
 31
0.0
  0
ARC
  5
B88
330
1F
100
AcDbEntity
  8
CYAN
100
AcDbCircle
 10
-279.4376756058856
 20
613.8136799229831
 30
0.0
 40
6.468695260917161
100
AcDbArc
 50
67.5043200569991
 51
122.7844212133017
  0
LINE
  5
B89
330
1F
100
AcDbEntity
  8
CYAN
100
AcDbLine
 10
-282.9403423822768
 20
619.2520017075029
 30
0.0
 11
-283.3532897156091
 21
618.7358817075041
 31
0.0
  0
LINE
  5
B8A
330
1F
100
AcDbEntity
  8
CYAN
100
AcDbLine
 10
-283.3532897156091
 20
618.7358817075041
 30
0.0
 11
-278.2122750489553
 21
613.7721570408498
 31
0.0
  0
LINE
  5
B8B
330
1F
100
AcDbEntity
  8
CYAN
100
AcDbLine
 10
-278.2122750489553
 20
613.7721570408498
 30
0.0
 11
-279.5991577156185
 21
612.3311277075202
 31
0.0
  0
LINE
  5
B8C
330
1F
100
AcDbEntity
  8
CYAN
100
AcDbLine
 10
-279.5991577156185
 20
612.3311277075202
 30
0.0
 11
-284.613749715606
 21
617.1727890408414
 31
0.0
  0
LINE
  5
B8D
330
1F
100
AcDbEntity
  8
CYAN
100
AcDbLine
 10
-284.613749715606
 20
617.1727890408414
 30
0.0
 11
-284.9846083822717
 21
616.7445930408424
 31
0.0
  0
ARC
  5
B8E
330
1F
100
AcDbEntity
  8
CYAN
100
AcDbCircle
 10
-280.7547487353489
 20
613.0782559176516
 30
0.0
 40
5.597654913719337
100
AcDbArc
 50
139.0820682571998
 51
216.5104782074013
  0
ARC
  5
B8F
330
1F
100
AcDbEntity
  8
CYAN
100
AcDbCircle
 10
-290.3706880669249
 20
604.7129173147392
 30
0.0
 40
7.178596619048717
100
AcDbArc
 50
352.0485495805
 51
44.53759115150066
  0
LINE
  5
B90
330
1F
100
AcDbEntity
  8
CYAN
100
AcDbLine
 10
-283.2611090489427
 20
603.7198737075416
 30
0.0
 11
-284.1768737156071
 21
602.0514737075458
 31
0.0
  0
LINE
  5
B91
330
1F
100
AcDbEntity
  8
CYAN
100
AcDbLine
 10
-284.1768737156071
 20
602.0514737075458
 30
0.0
 11
-262.3652737156616
 21
602.0514737075458
 31
0.0
  0
LINE
  5
B92
330
1F
100
AcDbEntity
  8
CYAN
100
AcDbLine
 10
-262.3652737156616
 20
602.0514737075458
 30
0.0
 11
-262.3115357156617
 21
600.0514737075509
 31
0.0
  0
LINE
  5
B93
330
1F
100
AcDbEntity
  8
CYAN
100
AcDbLine
 10
-262.3115357156617
 20
600.0514737075509
 30
0.0
 11
-284.1768737156071
 21
600.0514737075509
 31
0.0
  0
LINE
  5
B94
330
1F
100
AcDbEntity
  8
CYAN
100
AcDbLine
 10
-284.1768737156071
 20
600.0514737075509
 30
0.0
 11
-283.5879703822752
 21
598.0102903742227
 31
0.0
  0
ARC
  5
B95
330
1F
100
AcDbEntity
  8
CYAN
100
AcDbCircle
 10
-288.7893910030622
 20
595.3874994784959
 30
0.0
 40
5.825273260385436
100
AcDbArc
 50
319.0758142264002
 51
26.75930194140062
  0
LINE
  5
B96
330
1F
100
AcDbEntity
  8
CYAN
100
AcDbLine
 10
-284.3879483822732
 20
591.5715970409054
 30
0.0
 11
-285.7341723822699
 21
589.418612374244
 31
0.0
  0
ARC
  5
B97
330
1F
100
AcDbEntity
  8
CYAN
100
AcDbCircle
 10
-276.2014263484271
 20
587.6511595490484
 30
0.0
 40
9.695212036642427
100
AcDbArc
 50
169.4961487594994
 51
194.8467924235002
  0
LINE
  5
B98
330
1F
100
AcDbEntity
  8
CYAN
100
AcDbLine
 10
-285.5729583822703
 20
585.1669043742547
 30
0.0
 11
-283.7957210489413
 21
583.1217570409263
 31
0.0
  0
LINE
  5
B99
330
1F
100
AcDbEntity
  8
CYAN
100
AcDbLine
 10
-283.7957210489413
 20
583.1217570409263
 30
0.0
 11
-278.6252230489543
 21
588.1269583742472
 31
0.0
  0
LINE
  5
B9A
330
1F
100
AcDbEntity
  8
CYAN
100
AcDbLine
 10
-278.6252230489543
 20
588.1269583742472
 30
0.0
 11
-277.1022483822914
 21
586.8176617075838
 31
0.0
  0
LINE
  5
B9B
330
1F
100
AcDbEntity
  8
CYAN
100
AcDbLine
 10
-277.1022483822914
 20
586.8176617075838
 30
0.0
 11
-282.4046637156115
 21
581.6847603742634
 31
0.0
  0
LINE
  5
B9C
330
1F
100
AcDbEntity
  8
CYAN
100
AcDbLine
 10
-282.4046637156115
 20
581.6847603742634
 30
0.0
 11
-281.2101950489478
 21
580.5384497075996
 31
0.0
  0
ARC
  5
B9D
330
1F
100
AcDbEntity
  8
CYAN
100
AcDbCircle
 10
-278.2447185625553
 20
584.9273802841219
 30
0.0
 40
5.296863448920089
100
AcDbArc
 50
235.9542163233006
 51
295.8791279794994
  0
LINE
  5
B9E
330
1F
100
AcDbEntity
  8
CYAN
100
AcDbLine
 10
-275.932775048961
 20
580.1617030409337
 30
0.0
 11
-269.3085770489775
 21
585.8129030409197
 31
0.0
  0
ARC
  5
B9F
330
1F
100
AcDbEntity
  8
CYAN
100
AcDbCircle
 10
-169.8096306132263
 20
546.3334987303518
 30
0.0
 40
5.215875751453626
100
AcDbArc
 50
239.8330875193985
 51
2.06205435830133
  0
ARC
  5
BA0
330
1F
100
AcDbEntity
  8
CYAN
100
AcDbCircle
 10
-206.1347376182022
 20
500.8173508220656
 30
0.0
 40
53.08021418626729
100
AcDbArc
 50
50.58269104189967
 51
72.54447332440014
  0
ARC
  5
BA1
330
1F
100
AcDbEntity
  8
CYAN
100
AcDbCircle
 10
-186.5781769119844
 20
555.4383633112624
 30
0.0
 40
5.393486148386513
100
AcDbArc
 50
120.9381543246021
 51
227.6360840305008
  0
ARC
  5
BA2
330
1F
100
AcDbEntity
  8
CYAN
100
AcDbCircle
 10
-180.5626439381327
 20
546.7338025000841
 30
0.0
 40
15.96692730542675
100
AcDbArc
 50
359.2369866318006
 51
123.3952972780002
  0
ARC
  5
BA3
330
1F
100
AcDbEntity
  8
CYAN
100
AcDbCircle
 10
-123.6134933649418
 20
469.1934180829447
 30
0.0
 40
25.2674696254035
100
AcDbArc
 50
49.99173972020184
 51
71.79516300890106
  0
LINE
  5
BA4
330
1F
100
AcDbEntity
  8
CYAN
100
AcDbLine
 10
-115.7195539262948
 20
493.196141707818
 30
0.0
 11
-117.1727005929579
 21
494.3129877078153
 31
0.0
  0
ARC
  5
BA5
330
1F
100
AcDbEntity
  8
CYAN
100
AcDbCircle
 10
-170.4820279576246
 20
465.482338927354
 30
0.0
 40
60.60602852171514
100
AcDbArc
 50
28.40532475430028
 51
44.89792453639961
  0
ARC
  5
BA6
330
1F
100
AcDbEntity
  8
CYAN
100
AcDbCircle
 10
-129.9886595302592
 20
506.2368712615188
 30
0.0
 40
3.168533876392078
100
AcDbArc
 50
39.70064970170028
 51
211.8431218789
  0
LINE
  5
BA7
330
1F
100
AcDbEntity
  8
CYAN
100
AcDbLine
 10
-132.6803159262525
 20
504.5651677077896
 30
0.0
 11
-133.3960859262507
 21
502.1810517077955
 31
0.0
  0
ARC
  5
BA8
330
1F
100
AcDbEntity
  8
CYAN
100
AcDbCircle
 10
-142.9790578847601
 20
509.981667880976
 30
0.0
 40
12.35649482010244
100
AcDbArc
 50
266.3078887348991
 51
320.8541337849009
  0
LINE
  5
BA9
330
1F
100
AcDbEntity
  8
CYAN
100
AcDbLine
 10
-143.7747532595581
 20
497.6508190411402
 30
0.0
 11
-145.4445145928872
 21
498.3661910411384
 31
0.0
  0
LINE
  5
BAA
330
1F
100
AcDbEntity
  8
CYAN
100
AcDbLine
 10
-145.4445145928872
 20
498.3661910411384
 30
0.0
 11
-146.0411745928857
 21
499.9157637078011
 31
0.0
  0
ARC
  5
BAB
330
1F
100
AcDbEntity
  8
CYAN
100
AcDbCircle
 10
-150.7515826367406
 20
493.4139879866173
 30
0.0
 40
8.028762760779924
100
AcDbArc
 50
54.07741280309973
 51
76.69770759120106
  0
ARC
  5
BAC
330
1F
100
AcDbEntity
  8
CYAN
100
AcDbCircle
 10
-146.8982405015503
 20
496.3500121596768
 30
0.0
 40
5.273745035986816
100
AcDbArc
 50
112.3570772945982
 51
148.804972320999
  0
LINE
  5
BAD
330
1F
100
AcDbEntity
  8
CYAN
100
AcDbLine
 10
-151.4094505928723
 20
499.0815630411367
 30
0.0
 11
-152.4831059262029
 21
492.40555770782
 31
0.0
  0
ARC
  5
BAE
330
1F
100
AcDbEntity
  8
CYAN
100
AcDbCircle
 10
-148.7572854099456
 20
492.1478780726206
 30
0.0
 40
3.734720513457328
100
AcDbArc
 50
176.0436947265987
 51
247.0070948325998
  0
LINE
  5
BAF
330
1F
100
AcDbEntity
  8
CYAN
100
AcDbLine
 10
-150.216131259542
 20
488.7098690411625
 30
0.0
 11
-147.1148292595497
 21
488.8290403744957
 31
0.0
  0
ARC
  5
BB0
330
1F
100
AcDbEntity
  8
CYAN
100
AcDbCircle
 10
-148.6882839191458
 20
485.1068645109048
 30
0.0
 40
4.04108311292323
100
AcDbArc
 50
298.5500435014001
 51
67.08503203510034
  0
ARC
  5
BB1
330
1F
100
AcDbEntity
  8
CYAN
100
AcDbCircle
 10
-147.2505656623494
 20
477.8320713845231
 30
0.0
 40
3.757668680657271
100
AcDbArc
 50
82.45160052509929
 51
126.7783466512007
  0
ARC
  5
BB2
330
1F
100
AcDbEntity
  8
CYAN
100
AcDbCircle
 10
-139.1161150747697
 20
475.4006107773292
 30
0.0
 40
11.72344445957069
100
AcDbArc
 50
152.3461125480012
 51
176.1273496552993
  0
ARC
  5
BB3
330
1F
100
AcDbEntity
  8
CYAN
100
AcDbCircle
 10
-147.9924884855475
 20
475.5168903357289
 30
0.0
 40
2.900072186926082
100
AcDbArc
 50
166.5304284551994
 51
246.6381000295995
  0
ARC
  5
BB4
330
1F
100
AcDbEntity
  8
CYAN
100
AcDbCircle
 10
-148.3211186234134
 20
465.3602993006876
 30
0.0
 40
7.539146287714483
100
AcDbArc
 50
58.40131194140044
 51
96.25454133100042
  0
ARC
  5
BB5
330
1F
100
AcDbEntity
  8
CYAN
100
AcDbCircle
 10
-146.5850392536843
 20
468.8545642577454
 30
0.0
 40
3.67023450505749
100
AcDbArc
 50
278.5216165887987
 51
52.89480865499952
  0
ARC
  5
BB6
330
1F
100
AcDbEntity
  8
CYAN
100
AcDbCircle
 10
-147.6478808048817
 20
459.4861344741688
 30
0.0
 40
5.959391725185099
100
AcDbArc
 50
74.35899291949869
 51
193.7253891266987
  0
ARC
  5
BB7
330
1F
100
AcDbEntity
  8
CYAN
100
AcDbCircle
 10
-107.5690644211152
 20
454.0904089787158
 30
0.0
 40
46.04053320975156
100
AcDbArc
 50
175.0386598191989
 51
194.5831159628991
  0
ARC
  5
BB8
330
1F
100
AcDbEntity
  8
CYAN
100
AcDbCircle
 10
-121.1061858421481
 20
451.1681064869896
 30
0.0
 40
32.20896972125281
100
AcDbArc
 50
195.6154132186004
 51
209.9107385765992
  0
ARC
  5
BB9
330
1F
100
AcDbEntity
  8
CYAN
100
AcDbCircle
 10
-142.8352301559604
 20
437.4344393670241
 30
0.0
 40
6.612874600650133
100
AcDbArc
 50
200.6060871813992
 51
245.6166613516991
  0
ARC
  5
BBA
330
1F
100
AcDbEntity
  8
CYAN
100
AcDbCircle
 10
-145.0920432859548
 20
433.230934505168
 30
0.0
 40
1.880062383861965
100
AcDbArc
 50
255.4208725286002
 51
17.48682057699999
  0
ARC
  5
BBB
330
1F
100
AcDbEntity
  8
CYAN
100
AcDbCircle
 10
-136.9929766601084
 20
436.8937739586254
 30
0.0
 40
7.025757081982433
100
AcDbArc
 50
178.0430109514998
 51
206.1635898549986
  0
ARC
  5
BBC
330
1F
100
AcDbEntity
  8
CYAN
100
AcDbCircle
 10
-142.0266460411624
 20
437.0331977787584
 30
0.0
 40
1.990528611328356
100
AcDbArc
 50
55.99229268479953
 51
177.1059399831995
  0
LINE
  5
BBD
330
1F
100
AcDbEntity
  8
CYAN
100
AcDbLine
 10
-140.9133345928985
 20
438.6832710412876
 30
0.0
 11
-132.4432032595864
 21
431.6497510413053
 31
0.0
  0
LINE
  5
BBE
330
1F
100
AcDbEntity
  8
CYAN
100
AcDbLine
 10
-132.4432032595864
 20
431.6497510413053
 30
0.0
 11
-128.2421207765302
 21
429.5504560487771
 31
0.0
  0
LINE
  5
BBF
330
1F
100
AcDbEntity
  8
CYAN
100
AcDbLine
 10
-128.2421207765302
 20
429.5504560487771
 30
0.0
 11
-125.405165259604
 21
432.6034663746361
 31
0.0
  0
LINE
  5
BC0
330
1F
100
AcDbEntity
  8
CYAN
100
AcDbLine
 10
-125.405165259604
 20
432.6034663746361
 30
0.0
 11
-139.1239092595697
 21
444.0480470412743
 31
0.0
  0
LINE
  5
BC1
330
1F
100
AcDbEntity
  8
CYAN
100
AcDbLine
 10
-139.1239092595697
 20
444.0480470412743
 30
0.0
 11
-137.7604225929064
 21
445.5151510412705
 31
0.0
  0
LINE
  5
BC2
330
1F
100
AcDbEntity
  8
CYAN
100
AcDbLine
 10
-137.7604225929064
 20
445.5151510412705
 30
0.0
 11
-123.8312245929413
 21
433.8950023746328
 31
0.0
  0
LINE
  5
BC3
330
1F
100
AcDbEntity
  8
CYAN
100
AcDbLine
 10
-123.8312245929413
 20
433.8950023746328
 30
0.0
 11
-121.4451612596138
 21
434.5435223746313
 31
0.0
  0
LINE
  5
BC4
330
1F
100
AcDbEntity
  8
CYAN
100
AcDbLine
 10
-121.4451612596138
 20
434.5435223746313
 30
0.0
 11
-120.0141752596174
 21
434.5435223746313
 31
0.0
  0
ARC
  5
BC5
330
1F
100
AcDbEntity
  8
CYAN
100
AcDbCircle
 10
-114.0764950002989
 20
446.1411187003355
 30
0.0
 40
13.02920900876742
100
AcDbArc
 50
242.8886850273012
 51
19.07353173820167
  0
ARC
  5
BC6
330
1F
100
AcDbEntity
  8
CYAN
100
AcDbCircle
 10
-129.793218975193
 20
444.236195210207
 30
0.0
 40
28.70007181192825
100
AcDbArc
 50
12.39940011559935
 51
88.8146829198005
  0
ARC
  5
BC7
330
1F
100
AcDbEntity
  8
CYAN
100
AcDbCircle
 10
-127.2506292805327
 20
475.2584739231961
 30
0.0
 40
3.036345361192408
100
AcDbArc
 50
90.75112184429951
 51
230.0697053688006
  0
LINE
  5
BC8
330
1F
100
AcDbEntity
  8
CYAN
100
AcDbLine
 10
-127.2904332595993
 20
478.2945583745218
 30
0.0
 11
-123.4733619262755
 21
478.0562150411892
 31
0.0
  0
LINE
  5
BC9
330
1F
100
AcDbEntity
  8
CYAN
100
AcDbLine
 10
-123.4733619262755
 20
478.0562150411892
 30
0.0
 11
-116.435323926293
 21
476.38712770786
 31
0.0
  0
LINE
  5
BCA
330
1F
100
AcDbEntity
  8
CYAN
100
AcDbLine
 10
-116.435323926293
 20
476.38712770786
 30
0.0
 11
-112.1407032596371
 21
474.7183843745307
 31
0.0
  0
ARC
  5
BCB
330
1F
100
AcDbEntity
  8
CYAN
100
AcDbCircle
 10
-115.1328936690964
 20
469.3712200698776
 30
0.0
 40
6.127427645184679
100
AcDbArc
 50
342.8592954037989
 51
60.76929870309999
  0
ARC
  5
BCC
330
1F
100
AcDbEntity
  8
CYAN
100
AcDbCircle
 10
-93.72062514114986
 20
483.1645714231765
 30
0.0
 40
22.03079455301159
100
AcDbArc
 50
225.0776509096991
 51
242.4513592823995
  0
ARC
  5
BCD
330
1F
100
AcDbEntity
  8
CYAN
100
AcDbCircle
 10
-103.3790668007257
 20
467.8031604096148
 30
0.0
 40
4.205138616922819
100
AcDbArc
 50
262.7479539336992
 51
348.5653579827007
  0
ARC
  5
BCE
330
1F
100
AcDbEntity
  8
CYAN
100
AcDbCircle
 10
-123.9712945076075
 20
469.9922757900093
 30
0.0
 40
24.89807433420442
100
AcDbArc
 50
353.0267265886989
 51
48.17890394180095
  0
LINE
  5
BCF
330
1F
100
AcDbEntity
  8
CYAN
100
AcDbLine
 10
-95.56054059301194
 20
479.9687970411843
 30
0.0
 11
-96.06745259301078
 21
475.6604223745284
 31
0.0
  0
ARC
  5
BD0
330
1F
100
AcDbEntity
  8
CYAN
100
AcDbCircle
 10
-3.278504001375977
 20
480.3426877694501
 30
0.0
 40
92.90701044563439
100
AcDbArc
 50
182.8887781328002
 51
204.4921409137998
  0
ARC
  5
BD1
330
1F
100
AcDbEntity
  8
CYAN
100
AcDbCircle
 10
-84.16929760704048
 20
443.7099504708751
 30
0.0
 40
4.112928250923051
100
AcDbArc
 50
207.2558429035004
 51
280.9581663661005
  0
ARC
  5
BD2
330
1F
100
AcDbEntity
  8
CYAN
100
AcDbCircle
 10
-105.814869036853
 20
507.8798398267147
 30
0.0
 40
71.8003883678205
100
AcDbArc
 50
288.2013764984005
 51
303.906399112602
  0
ARC
  5
BD3
330
1F
100
AcDbEntity
  8
CYAN
100
AcDbCircle
 10
-49.44357856259394
 20
430.5983898581079
 30
0.0
 40
24.06759374113983
100
AcDbArc
 50
113.1731304213009
 51
132.6891425659997
  0
ARC
  5
BD4
330
1F
100
AcDbEntity
  8
CYAN
100
AcDbCircle
 10
-68.40262670601321
 20
408.6427946976293
 30
0.0
 40
45.09098455655393
100
AcDbArc
 50
42.82141387530013
 51
77.85284576859975
  0
LINE
  5
BD5
330
1F
100
AcDbEntity
  8
CYAN
100
AcDbLine
 10
-35.32947725982922
 20
439.2918350412862
 30
0.0
 11
-33.6813225931667
 21
434.0963717079658
 31
0.0
  0
LINE
  5
BD6
330
1F
100
AcDbEntity
  8
CYAN
100
AcDbLine
 10
-33.6813225931667
 20
434.0963717079658
 30
0.0
 11
-32.79325792650226
 21
429.5345437079772
 31
0.0
  0
LINE
  5
BD7
330
1F
100
AcDbEntity
  8
CYAN
100
AcDbLine
 10
-32.79325792650226
 20
429.5345437079772
 30
0.0
 11
-31.27196925983934
 21
429.7879977079766
 31
0.0
  0
LINE
  5
BD8
330
1F
100
AcDbEntity
  8
CYAN
100
AcDbLine
 10
-31.27196925983934
 20
429.7879977079766
 30
0.0
 11
-30.63763725984099
 21
431.0552677079733
 31
0.0
  0
ARC
  5
BD9
330
1F
100
AcDbEntity
  8
CYAN
100
AcDbCircle
 10
-69.43547167334388
 20
433.0193643746351
 30
0.0
 40
38.84751769283621
100
AcDbArc
 50
357.1019397021998
 51
8.53561011580092
  0
LINE
  5
BDA
330
1F
100
AcDbEntity
  8
CYAN
100
AcDbLine
 10
-31.01823659317333
 20
438.7852710412873
 30
0.0
 11
-32.41321259316983
 21
441.5729210412804
 31
0.0
  0
ARC
  5
BDB
330
1F
100
AcDbEntity
  8
CYAN
100
AcDbCircle
 10
-73.65468352626672
 20
406.7172876245676
 30
0.0
 40
53.99790834479833
100
AcDbArc
 50
40.20315129689878
 51
71.48292722979829
  0
ARC
  5
BDC
330
1F
100
AcDbEntity
  8
CYAN
100
AcDbCircle
 10
-59.73906892643487
 20
451.4274295525892
 30
0.0
 40
7.252882889181866
100
AcDbArc
 50
63.5246205715995
 51
116.4753794284005
  0
ARC
  5
BDD
330
1F
100
AcDbEntity
  8
CYAN
100
AcDbCircle
 10
-96.0068156464775
 20
496.6085883327428
 30
0.0
 40
50.8733538302728
100
AcDbArc
 50
288.2316487532999
 51
310.4921733380012
  0
LINE
  5
BDE
330
1F
100
AcDbEntity
  8
CYAN
100
AcDbLine
 10
-80.09059792638401
 20
448.2891083745968
 30
0.0
 11
-82.75312992637735
 21
448.41583570793
 31
0.0
  0
ARC
  5
BDF
330
1F
100
AcDbEntity
  8
CYAN
100
AcDbCircle
 10
-63.46097734615887
 20
458.8325060420372
 30
0.0
 40
21.92473881314519
100
AcDbArc
 50
169.7471214783988
 51
208.3665351565008
  0
LINE
  5
BE0
330
1F
100
AcDbEntity
  8
CYAN
100
AcDbLine
 10
-85.03561659303828
 20
462.7349557078941
 30
0.0
 11
-79.45681992638556
 21
466.156241041219
 31
0.0
  0
ARC
  5
BE1
330
1F
100
AcDbEntity
  8
CYAN
100
AcDbCircle
 10
-86.44243443316813
 20
469.7007301660099
 30
0.0
 40
7.833403678780414
100
AcDbArc
 50
333.0968389362003
 51
49.53521101370014
  0
LINE
  5
BE2
330
1F
100
AcDbEntity
  8
CYAN
100
AcDbLine
 10
-81.35870725971415
 20
475.6604223745284
 30
0.0
 11
-82.24621792637861
 21
481.1089963745148
 31
0.0
  0
ARC
  5
BE3
330
1F
100
AcDbEntity
  8
CYAN
100
AcDbCircle
 10
-86.00269800956914
 20
480.1467596722505
 30
0.0
 40
3.877762510390303
100
AcDbArc
 50
14.36760711729834
 51
88.83240924809925
  0
LINE
  5
BE4
330
1F
100
AcDbEntity
  8
CYAN
100
AcDbLine
 10
-85.92368125970272
 20
484.0237170411741
 30
0.0
 11
-88.33248059303
 21
484.0237170411741
 31
0.0
  0
LINE
  5
BE5
330
1F
100
AcDbEntity
  8
CYAN
100
AcDbLine
 10
-88.33248059303
 20
484.0237170411741
 30
0.0
 11
-88.20561459303036
 21
475.5336957078622
 31
0.0
  0
LINE
  5
BE6
330
1F
100
AcDbEntity
  8
CYAN
100
AcDbLine
 10
-88.20561459303036
 20
475.5336957078622
 30
0.0
 11
-90.20583792635866
 21
475.5336957078622
 31
0.0
  0
LINE
  5
BE7
330
1F
100
AcDbEntity
  8
CYAN
100
AcDbLine
 10
-90.20583792635866
 20
475.5336957078622
 30
0.0
 11
-90.33065992635835
 21
483.8869170411746
 31
0.0
  0
LINE
  5
BE8
330
1F
100
AcDbEntity
  8
CYAN
100
AcDbLine
 10
-90.33065992635835
 20
483.8869170411746
 30
0.0
 11
-92.64372192635258
 21
483.6435363745086
 31
0.0
  0
ARC
  5
BE9
330
1F
100
AcDbEntity
  8
CYAN
100
AcDbCircle
 10
-88.7380843944957
 20
477.5484627985238
 30
0.0
 40
7.2390556307819
100
AcDbArc
 50
122.6511781867017
 51
160.4673529450996
  0
ARC
  5
BEA
330
1F
100
AcDbEntity
  8
CYAN
100
AcDbCircle
 10
60.3970306919315
 20
479.3317889417193
 30
0.0
 40
80.9456905080643
100
AcDbArc
 50
127.6386849715986
 51
154.8736890185011
  0
ARC
  5
BEB
330
1F
100
AcDbEntity
  8
CYAN
100
AcDbCircle
 10
-7.417123497498977
 20
512.273281453237
 30
0.0
 40
5.655546620252526
100
AcDbArc
 50
165.3613635816996
 51
215.8059251896984
  0
ARC
  5
BEC
330
1F
100
AcDbEntity
  8
CYAN
100
AcDbCircle
 10
24.9059698606869
 20
569.8049259350931
 30
0.0
 40
71.1609552554221
100
AcDbArc
 50
238.7562535054985
 51
259.3575445553989
  0
LINE
  5
BED
330
1F
100
AcDbEntity
  8
CYAN
100
AcDbLine
 10
11.76399007338642
 20
499.8680263744678
 30
0.0
 11
13.84980607338113
 21
498.8573010411371
 31
0.0
  0
ARC
  5
BEE
330
1F
100
AcDbEntity
  8
CYAN
100
AcDbCircle
 10
-37.04313123449163
 20
476.3258931382601
 30
0.0
 40
55.65748296426086
100
AcDbArc
 50
357.1274297212998
 51
23.88001188130127
  0
ARC
  5
BEF
330
1F
100
AcDbEntity
  8
CYAN
100
AcDbCircle
 10
4.629294317670883
 20
477.5657327297238
 30
0.0
 40
14.48669354996378
100
AcDbArc
 50
324.3118258205985
 51
343.8517020809998
  0
LINE
  5
BF0
330
1F
100
AcDbEntity
  8
CYAN
100
AcDbLine
 10
16.39544407337482
 20
469.1145783745449
 30
0.0
 11
13.99329274004745
 21
465.5768690412203
 31
0.0
  0
LINE
  5
BF1
330
1F
100
AcDbEntity
  8
CYAN
100
AcDbLine
 10
13.99329274004745
 20
465.5768690412203
 30
0.0
 11
12.81936274005039
 21
463.7594183745583
 31
0.0
  0
LINE
  5
BF2
330
1F
100
AcDbEntity
  8
CYAN
100
AcDbLine
 10
12.81936274005039
 20
463.7594183745583
 30
0.0
 11
14.06531274004726
 21
463.0478237078933
 31
0.0
  0
LINE
  5
BF3
330
1F
100
AcDbEntity
  8
CYAN
100
AcDbLine
 10
14.06531274004726
 20
463.0478237078933
 30
0.0
 11
14.95503940671176
 21
462.8702683745604
 31
0.0
  0
ARC
  5
BF4
330
1F
100
AcDbEntity
  8
CYAN
100
AcDbCircle
 10
8.331539350195013
 20
473.8840695621329
 30
0.0
 40
12.85202589476787
100
AcDbArc
 50
301.0219370518985
 51
331.0961561882987
  0
LINE
  5
BF5
330
1F
100
AcDbEntity
  8
CYAN
100
AcDbLine
 10
19.5826154067002
 20
467.6721570412151
 30
0.0
 11
21.71829207336148
 21
469.8065970412097
 31
0.0
  0
ARC
  5
BF6
330
1F
100
AcDbEntity
  8
CYAN
100
AcDbCircle
 10
-36.90440941035863
 20
481.0558532018482
 30
0.0
 40
59.69226828851741
100
AcDbArc
 50
349.1374156410986
 51
8.870136366500675
  0
ARC
  5
BF7
330
1F
100
AcDbEntity
  8
CYAN
100
AcDbCircle
 10
-75736.98704541202
 20
-21162.29098209231
 30
0.0
 40
78792.56496775179
100
AcDbArc
 50
15.95036374750001
 51
15.95977988949909
  0
LINE
  5
BF8
330
1F
100
AcDbEntity
  8
CYAN
100
AcDbLine
 10
18.51450007336953
 20
502.7102823744609
 30
0.0
 11
17.26910474003929
 21
503.9552290411243
 31
0.0
  0
LINE
  5
BF9
330
1F
100
AcDbEntity
  8
CYAN
100
AcDbLine
 10
17.26910474003929
 20
503.9552290411243
 30
0.0
 11
13.3534207400491
 21
505.7338717077866
 31
0.0
  0
ARC
  5
BFA
330
1F
100
AcDbEntity
  8
CYAN
100
AcDbCircle
 10
17.6873342564383
 20
543.6255774611586
 30
0.0
 40
38.13874894737132
100
AcDbArc
 50
235.1830801322019
 51
263.4750744233017
  0
ARC
  5
BFB
330
1F
100
AcDbEntity
  8
CYAN
100
AcDbCircle
 10
0.359183191548226
 20
514.1819950410987
 30
0.0
 40
4.82361347278794
100
AcDbArc
 50
157.221044746601
 51
202.778955253399
  0
LINE
  5
BFC
330
1F
100
AcDbEntity
  8
CYAN
100
AcDbLine
 10
-4.088214593240649
 20
516.0495870410942
 30
0.0
 11
3.209095406741113
 21
524.0529630410742
 31
0.0
  0
LINE
  5
BFD
330
1F
100
AcDbEntity
  8
CYAN
100
AcDbLine
 10
3.209095406741113
 20
524.0529630410742
 30
0.0
 11
5.344772073402451
 21
524.4087603744064
 31
0.0
  0
LINE
  5
BFE
330
1F
100
AcDbEntity
  8
CYAN
100
AcDbLine
 10
5.344772073402451
 20
524.4087603744064
 30
0.0
 11
10.86152074005534
 21
522.8080163744106
 31
0.0
  0
ARC
  5
BFF
330
1F
100
AcDbEntity
  8
CYAN
100
AcDbCircle
 10
8.894338107126969
 20
532.2132699279872
 30
0.0
 40
9.608777337309312
100
AcDbArc
 50
281.8135578045
 51
321.1619605137991
  0
LINE
  5
C00
330
1F
100
AcDbEntity
  8
CYAN
100
AcDbLine
 10
16.37882407337485
 20
526.1874030410687
 30
0.0
 11
17.00212293083993
 21
530.3350142293252
 31
0.0
  0
ARC
  5
C01
330
1F
100
AcDbEntity
  8
CYAN
100
AcDbCircle
 10
9.065528282459778
 20
540.7427309174323
 30
0.0
 40
13.08854847850061
100
AcDbArc
 50
307.3279943687002
 51
338.0499241832989
  0
LINE
  5
C02
330
1F
100
AcDbEntity
  8
CYAN
100
AcDbLine
 10
21.20528674002944
 20
535.8502503743778
 30
0.0
 11
20.76263940669725
 21
538.629658374371
 31
0.0
  0
LINE
  5
C03
330
1F
100
AcDbEntity
  8
CYAN
100
AcDbLine
 10
20.76263940669725
 20
538.629658374371
 30
0.0
 11
18.76737474003551
 21
540.3736737076999
 31
0.0
  0
LINE
  5
C04
330
1F
100
AcDbEntity
  8
CYAN
100
AcDbLine
 10
18.76737474003551
 20
540.3736737076999
 30
0.0
 11
13.29769407338253
 21
534.7861783743807
 31
0.0
  0
LINE
  5
C05
330
1F
100
AcDbEntity
  8
CYAN
100
AcDbLine
 10
13.29769407338253
 20
534.7861783743807
 30
0.0
 11
11.84986007338617
 21
536.1662097077105
 31
0.0
  0
LINE
  5
C06
330
1F
100
AcDbEntity
  8
CYAN
100
AcDbLine
 10
11.84986007338617
 20
536.1662097077105
 30
0.0
 11
17.53890340670531
 21
541.9777930410295
 31
0.0
  0
LINE
  5
C07
330
1F
100
AcDbEntity
  8
CYAN
100
AcDbLine
 10
17.53890340670531
 20
541.9777930410295
 30
0.0
 11
16.40098407337478
 21
543.1149010410265
 31
0.0
  0
ARC
  5
C08
330
1F
100
AcDbEntity
  8
CYAN
100
AcDbCircle
 10
13.25414292604935
 20
535.8937973199779
 30
0.0
 40
7.876988520780304
100
AcDbArc
 50
66.45320031359904
 51
106.8936574798998
  0
ARC
  5
C09
330
1F
100
AcDbEntity
  8
CYAN
100
AcDbCircle
 10
-140.1502384969005
 20
562.6440967433778
 30
0.0
 40
2.333333333327499
100
AcDbArc
 50
134.6977357576001
 51
257.2095954581012
  0
ARC
  5
C0A
330
1F
100
AcDbEntity
  8
CYAN
100
AcDbCircle
 10
-132.9490373785185
 20
380.6289828711662
 30
0.0
 40
183.8864321022069
100
AcDbArc
 50
82.39442883099911
 51
92.75619611579919
  0
ARC
  5
C0B
330
1F
100
AcDbEntity
  8
CYAN
100
AcDbCircle
 10
-121.67664108988
 20
502.6700447659276
 30
0.0
 40
61.62854903117925
100
AcDbArc
 50
56.55374030699999
 51
77.76019794290114
  0
ARC
  5
C0C
330
1F
100
AcDbEntity
  8
CYAN
100
AcDbCircle
 10
-88.92071297462855
 20
552.8178527440688
 30
0.0
 40
1.758581020928936
100
AcDbArc
 50
247.8229421588016
 51
46.48189225810091
  0
ARC
  5
C0D
330
1F
100
AcDbEntity
  8
CYAN
100
AcDbCircle
 10
-126.6854058198674
 20
470.4399782917416
 30
0.0
 40
88.86472520924451
100
AcDbArc
 50
65.32324808209995
 51
81.82400542310046
  0
ARC
  5
C0E
330
1F
100
AcDbEntity
  8
CYAN
100
AcDbCircle
 10
-154.460326532998
 20
192.6359217347028
 30
0.0
 40
367.9913440746799
100
AcDbArc
 50
83.69506995370034
 51
87.85186302960049
  0
LINE
  5
C0F
330
1F
100
AcDbEntity
  8
CYAN
100
AcDbLine
 10
-118.5466245929544
 20
554.3740283743318
 30
0.0
 11
-116.1095712596272
 21
548.7537377076789
 31
0.0
  0
ARC
  5
C10
330
1F
100
AcDbEntity
  8
CYAN
100
AcDbCircle
 10
-117.8789994609562
 20
548.2752138470137
 30
0.0
 40
1.832992429195416
100
AcDbArc
 50
300.3321620681008
 51
15.13306060220139
  0
LINE
  5
C11
330
1F
100
AcDbEntity
  8
CYAN
100
AcDbLine
 10
-116.9533159262918
 20
546.693135707684
 30
0.0
 11
-129.8875932595928
 21
548.5665663743461
 31
0.0
  0
ARC
  5
C12
330
1F
100
AcDbEntity
  8
CYAN
100
AcDbCircle
 10
-128.2759372843968
 20
550.0754766190091
 30
0.0
 40
2.207769260794479
100
AcDbArc
 50
160.4383949528003
 51
223.1141977432015
  0
ARC
  5
C13
330
1F
100
AcDbEntity
  8
CYAN
100
AcDbCircle
 10
-118.3689743918882
 20
542.8589538316938
 30
0.0
 40
14.3871150218307
100
AcDbArc
 50
120.0635720591998
 51
146.4285841601988
  0
ARC
  5
C14
330
1F
100
AcDbEntity
  8
CYAN
100
AcDbCircle
 10
-125.3129623890709
 20
530.4366204019916
 30
0.0
 40
24.87534577860448
100
AcDbArc
 50
74.21610335349935
 51
90.60668064619909
  0
LINE
  5
C15
330
1F
100
AcDbEntity
  8
CYAN
100
AcDbLine
 10
-111.4492980553722
 20
545.4979867231538
 30
0.0
 11
-113.285520609101
 21
551.3422302892727
 31
0.0
  0
ARC
  5
C16
330
1F
100
AcDbEntity
  8
CYAN
100
AcDbCircle
 10
-111.4757661567055
 20
551.6331771355386
 30
0.0
 40
1.832992429195416
100
AcDbArc
 50
114.3321620680993
 51
189.1330606021998
  0
LINE
  5
C17
330
1F
100
AcDbEntity
  8
CYAN
100
AcDbLine
 10
-112.2310065035036
 20
553.3033487626011
 30
0.0
 11
-99.56341132340195
 21
550.0881808119422
 31
0.0
  0
ARC
  5
C18
330
1F
100
AcDbEntity
  8
CYAN
100
AcDbCircle
 10
-101.3239625475309
 20
548.7560004579457
 30
0.0
 40
2.207769260794479
100
AcDbArc
 50
334.4383949527985
 51
37.11419774320043
  0
ARC
  5
C19
330
1F
100
AcDbEntity
  8
CYAN
100
AcDbCircle
 10
-110.4223220236414
 20
556.9685499851251
 30
0.0
 40
14.3871150218307
100
AcDbArc
 50
294.0635720592003
 51
320.4285841602011
  0
ARC
  5
C1A
330
1F
100
AcDbEntity
  8
CYAN
100
AcDbCircle
 10
-102.2178864957953
 20
568.5969881781629
 30
0.0
 40
24.87534577860448
100
AcDbArc
 50
248.2161033535
 51
264.6066806461986
  0
ARC
  5
C1B
330
1F
100
AcDbEntity
  8
CYAN
100
AcDbCircle
 10
-45.04595490553829
 20
606.9445410680669
 30
0.0
 40
50.71545034880654
100
AcDbArc
 50
242.786080373699
 51
267.4917312061999
  0
ARC
  5
C1C
330
1F
100
AcDbEntity
  8
CYAN
100
AcDbCircle
 10
-67.24344678134944
 20
562.8769079001771
 30
0.0
 40
1.435174830396411
100
AcDbArc
 50
103.840945455101
 51
226.0866849143001
  0
LINE
  5
C1D
330
1F
100
AcDbEntity
  8
CYAN
100
AcDbLine
 10
-67.58677992641522
 20
564.2704103743068
 30
0.0
 11
-50.10968859312558
 21
563.2047363743096
 31
0.0
  0
ARC
  5
C1E
330
1F
100
AcDbEntity
  8
CYAN
100
AcDbCircle
 10
-53.56365745351698
 20
556.3697937404599
 30
0.0
 40
7.658089950914187
100
AcDbArc
 50
9.991328750099967
 51
63.19071145449949
  0
ARC
  5
C1F
330
1F
100
AcDbEntity
  8
CYAN
100
AcDbCircle
 10
-46.96759897646681
 20
557.2717170447243
 30
0.0
 40
1.037699627197405
100
AcDbArc
 50
253.3201146102015
 51
24.28306049879835
  0
ARC
  5
C20
330
1F
100
AcDbEntity
  8
CYAN
100
AcDbCircle
 10
-26.18728015891873
 20
595.3939482822291
 30
0.0
 40
27.49198200406461
100
AcDbArc
 50
5.366056152200817
 51
54.33265503419985
  0
ARC
  5
C21
330
1F
100
AcDbEntity
  8
CYAN
100
AcDbCircle
 10
-34.23718363156529
 20
580.202164286667
 30
0.0
 40
44.58805435068852
100
AcDbArc
 50
57.3128012019008
 51
88.99378881109983
  0
ARC
  5
C22
330
1F
100
AcDbEntity
  8
CYAN
100
AcDbCircle
 10
-37.15657525982464
 20
557.3334944571244
 30
0.0
 40
67.55138629489778
100
AcDbArc
 50
86.85812721359909
 51
110.5933246765994
  0
ARC
  5
C23
330
1F
100
AcDbEntity
  8
CYAN
100
AcDbCircle
 10
109.4184325251422
 20
172.4386255015533
 30
0.0
 40
479.4103691493347
100
AcDbArc
 50
110.811899262701
 51
113.6652152439008
  0
ARC
  5
C24
330
1F
100
AcDbEntity
  8
CYAN
100
AcDbCircle
 10
-188.8671656551786
 20
939.9031097160346
 30
0.0
 40
345.0095639328708
100
AcDbArc
 50
278.5203124717985
 51
287.867409424799
  0
LINE
  5
C25
330
1F
100
AcDbEntity
  8
CYAN
100
AcDbLine
 10
-137.7505392595731
 20
598.7012783742207
 30
0.0
 11
-142.6240919262276
 21
597.3900490408907
 31
0.0
  0
ARC
  5
C26
330
1F
100
AcDbEntity
  8
CYAN
100
AcDbCircle
 10
-139.5558306234353
 20
586.7310277243841
 30
0.0
 40
11.09184217557227
100
AcDbArc
 50
106.0587719570994
 51
267.1646900178006
  0
ARC
  5
C27
330
1F
100
AcDbEntity
  8
CYAN
100
AcDbCircle
 10
-289.1909870257279
 20
15328.28679971486
 30
0.0
 40
14753.38733252072
100
AcDbArc
 50
270.5789973614004
 51
270.9823155178999
  0
ARC
  5
C28
330
1F
100
AcDbEntity
  8
CYAN
100
AcDbCircle
 10
-40.70005719088239
 20
1001.45942084588
 30
0.0
 40
424.4149173322723
100
AcDbArc
 50
270.5991647406995
 51
275.0153945065012
  0
ARC
  5
C29
330
1F
100
AcDbEntity
  8
CYAN
100
AcDbCircle
 10
8.289753430328431
 20
481.1927001281147
 30
0.0
 40
98.19878213188784
100
AcDbArc
 50
84.56748861639988
 51
96.95214776630031
  0
LINE
  5
C2A
330
1F
100
AcDbEntity
  8
CYAN
100
AcDbLine
 10
17.58654740670519
 20
578.9504130409369
 30
0.0
 11
21.80416207336128
 21
579.3250990409359
 31
0.0
  0
LINE
  5
C2B
330
1F
100
AcDbEntity
  8
CYAN
100
AcDbLine
 10
21.80416207336128
 20
579.3250990409359
 30
0.0
 11
23.11659207335805
 21
581.2922863742643
 31
0.0
  0
LINE
  5
C2C
330
1F
100
AcDbEntity
  8
CYAN
100
AcDbLine
 10
23.11659207335805
 20
581.2922863742643
 30
0.0
 11
23.39802540669067
 21
584.5703603742562
 31
0.0
  0
LINE
  5
C2D
330
1F
100
AcDbEntity
  8
CYAN
100
AcDbLine
 10
23.39802540669067
 20
584.5703603742562
 30
0.0
 11
15.4309267400439
 21
585.3197323742545
 31
0.0
  0
LINE
  5
C2E
330
1F
100
AcDbEntity
  8
CYAN
100
AcDbLine
 10
15.4309267400439
 20
585.3197323742545
 30
0.0
 11
15.68154474004325
 21
587.3049870409159
 31
0.0
  0
LINE
  5
C2F
330
1F
100
AcDbEntity
  8
CYAN
100
AcDbLine
 10
15.68154474004325
 20
587.3049870409159
 30
0.0
 11
23.58531540669019
 21
586.5615710409179
 31
0.0
  0
LINE
  5
C30
330
1F
100
AcDbEntity
  8
CYAN
100
AcDbLine
 10
23.58531540669019
 20
586.5615710409179
 30
0.0
 11
23.83291940668957
 21
589.2208590409112
 31
0.0
  0
ARC
  5
C31
330
1F
100
AcDbEntity
  8
CYAN
100
AcDbCircle
 10
-19.90880527000109
 20
594.6865400408976
 30
0.0
 40
44.08188002455645
100
AcDbArc
 50
352.8776076979992
 51
1.948380539899975
  0
ARC
  5
C32
330
1F
100
AcDbEntity
  8
CYAN
100
AcDbCircle
 10
19.07583550883476
 20
594.7315902850307
 30
0.0
 40
5.275975180520143
100
AcDbArc
 50
15.99365368409906
 51
116.2442924096001
  0
ARC
  5
C33
330
1F
100
AcDbEntity
  8
CYAN
100
AcDbCircle
 10
26.61591085881594
 20
589.4731351582439
 30
0.0
 40
14.04598414423155
100
AcDbArc
 50
134.661202871899
 51
157.3862408188994
  0
LINE
  5
C34
330
1F
100
AcDbEntity
  8
CYAN
100
AcDbLine
 10
13.649811406715
 20
594.8740550408971
 30
0.0
 11
12.05650274005234
 21
594.0309250408993
 31
0.0
  0
ARC
  5
C35
330
1F
100
AcDbEntity
  8
CYAN
100
AcDbCircle
 10
5.70978688540157
 20
559.0025029371202
 30
0.0
 40
35.59875218617767
100
AcDbArc
 50
79.73013074290115
 51
91.25008928189954
  0
ARC
  5
C36
330
1F
100
AcDbEntity
  8
CYAN
100
AcDbCircle
 10
10.99981558952169
 20
605.1072204970048
 30
0.0
 40
12.13910440263632
100
AcDbArc
 50
216.0412986557997
 51
240.0157242429003
  0
LINE
  5
C37
330
1F
100
AcDbEntity
  8
CYAN
100
AcDbLine
 10
-116.1095712596272
 20
595.8851230408946
 30
0.0
 11
-118.5466245929544
 21
590.264832374242
 31
0.0
  0
ARC
  5
C38
330
1F
100
AcDbEntity
  8
CYAN
100
AcDbCircle
 10
-125.3129623890709
 20
614.2022403465821
 30
0.0
 40
24.87534577860448
100
AcDbArc
 50
269.3933193538009
 51
285.7838966465006
  0
ARC
  5
C39
330
1F
100
AcDbEntity
  8
CYAN
100
AcDbCircle
 10
-118.3689743918882
 20
601.77990691688
 30
0.0
 40
14.3871150218307
100
AcDbArc
 50
213.5714158398012
 51
239.9364279408002
  0
ARC
  5
C3A
330
1F
100
AcDbEntity
  8
CYAN
100
AcDbCircle
 10
-128.2759372843968
 20
594.5633841295646
 30
0.0
 40
2.207769260794479
100
AcDbArc
 50
136.8858022567984
 51
199.5616050471996
  0
LINE
  5
C3B
330
1F
100
AcDbEntity
  8
CYAN
100
AcDbLine
 10
-129.8875932595928
 20
596.0722943742275
 30
0.0
 11
-116.9533159262918
 21
597.9457250408895
 31
0.0
  0
ARC
  5
C3C
330
1F
100
AcDbEntity
  8
CYAN
100
AcDbCircle
 10
-117.8789994609562
 20
596.3636469015599
 30
0.0
 40
1.832992429195416
100
AcDbArc
 50
344.8669393977986
 51
59.66783793189918
  0
ARC
  5
C3D
330
1F
100
AcDbEntity
  8
CYAN
100
AcDbCircle
 10
-45.04595490553829
 20
537.6943196805068
 30
0.0
 40
50.71545034880654
100
AcDbArc
 50
92.50826879380005
 51
117.213919626301
  0
ARC
  5
C3E
330
1F
100
AcDbEntity
  8
CYAN
100
AcDbCircle
 10
-46.96759897646681
 20
587.3671437038491
 30
0.0
 40
1.037699627197405
100
AcDbArc
 50
335.7169395011987
 51
106.6798853897985
  0
ARC
  5
C3F
330
1F
100
AcDbEntity
  8
CYAN
100
AcDbCircle
 10
-53.56365745351698
 20
588.2690670081138
 30
0.0
 40
7.658089950914187
100
AcDbArc
 50
296.8092885455005
 51
350.0086712499
  0
LINE
  5
C40
330
1F
100
AcDbEntity
  8
CYAN
100
AcDbLine
 10
-50.10968859312558
 20
581.434124374264
 30
0.0
 11
-67.58677992641522
 21
580.3684503742666
 31
0.0
  0
ARC
  5
C41
330
1F
100
AcDbEntity
  8
CYAN
100
AcDbCircle
 10
-67.24344678134944
 20
581.7619528483966
 30
0.0
 40
1.435174830396411
100
AcDbArc
 50
133.9133150856999
 51
256.1590545448989
  0
ARC
  5
C42
330
1F
100
AcDbEntity
  8
CYAN
100
AcDbCircle
 10
-154.460326532998
 20
952.0029390138706
 30
0.0
 40
367.9913440746799
100
AcDbArc
 50
272.1481369703996
 51
276.3049300462996
  0
ARC
  5
C43
330
1F
100
AcDbEntity
  8
CYAN
100
AcDbCircle
 10
-126.6854058198674
 20
674.1988824568319
 30
0.0
 40
88.86472520924451
100
AcDbArc
 50
278.1759945768996
 51
294.6767519179001
  0
ARC
  5
C44
330
1F
100
AcDbEntity
  8
CYAN
100
AcDbCircle
 10
-88.92071297462855
 20
591.8210080045047
 30
0.0
 40
1.758581020928936
100
AcDbArc
 50
313.5181077418991
 51
112.1770578411984
  0
ARC
  5
C45
330
1F
100
AcDbEntity
  8
CYAN
100
AcDbCircle
 10
-121.67664108988
 20
641.9688159826461
 30
0.0
 40
61.62854903117925
100
AcDbArc
 50
282.2398020570989
 51
303.4462596929982
  0
ARC
  5
C46
330
1F
100
AcDbEntity
  8
CYAN
100
AcDbCircle
 10
-132.9490373785185
 20
764.0098778774075
 30
0.0
 40
183.8864321022069
100
AcDbArc
 50
267.2438038842007
 51
277.6055711690009
  0
ARC
  5
C47
330
1F
100
AcDbEntity
  8
CYAN
100
AcDbCircle
 10
-140.1502384969005
 20
581.9947640051958
 30
0.0
 40
2.333333333327499
100
AcDbArc
 50
102.7904045418987
 51
225.3022642423999
  0
ARC
  5
C48
330
1F
100
AcDbEntity
  8
CYAN
100
AcDbCircle
 10
-111.4757661567055
 20
593.0056836130351
 30
0.0
 40
1.832992429195416
100
AcDbArc
 50
170.8669393978001
 51
245.6678379319007
  0
LINE
  5
C49
330
1F
100
AcDbEntity
  8
CYAN
100
AcDbLine
 10
-113.285520609101
 20
593.2966304593011
 30
0.0
 11
-111.4492980553722
 21
599.1408740254199
 31
0.0
  0
ARC
  5
C4A
330
1F
100
AcDbEntity
  8
CYAN
100
AcDbCircle
 10
-102.2178864957953
 20
576.0418725704108
 30
0.0
 40
24.87534577860448
100
AcDbArc
 50
95.39331935380145
 51
111.7838966465
  0
ARC
  5
C4B
330
1F
100
AcDbEntity
  8
CYAN
100
AcDbCircle
 10
-110.4223220236414
 20
587.6703107634486
 30
0.0
 40
14.3871150218307
100
AcDbArc
 50
39.57141583979895
 51
65.93642794079958
  0
ARC
  5
C4C
330
1F
100
AcDbEntity
  8
CYAN
100
AcDbCircle
 10
-101.3239625475309
 20
595.8828602906279
 30
0.0
 40
2.207769260794479
100
AcDbArc
 50
322.8858022567997
 51
25.5616050472015
  0
LINE
  5
C4D
330
1F
100
AcDbEntity
  8
CYAN
100
AcDbLine
 10
-99.56341132340195
 20
594.5506799366312
 30
0.0
 11
-112.2310065035036
 21
591.3355119859726
 31
0.0
  0
ARC
  5
C4E
330
1F
100
AcDbEntity
  8
CYAN
100
AcDbCircle
 10
-127.2506292805327
 20
669.3803868253776
 30
0.0
 40
3.036345361192408
100
AcDbArc
 50
129.9302946311993
 51
269.2488781557004
  0
ARC
  5
C4F
330
1F
100
AcDbEntity
  8
CYAN
100
AcDbCircle
 10
-129.793218975193
 20
700.4026655383666
 30
0.0
 40
28.70007181192825
100
AcDbArc
 50
271.1853170801995
 51
347.6005998844006
  0
ARC
  5
C50
330
1F
100
AcDbEntity
  8
CYAN
100
AcDbCircle
 10
-114.0764950002989
 20
698.497742048238
 30
0.0
 40
13.02920900876742
100
AcDbArc
 50
340.9264682617983
 51
117.1113149726988
  0
LINE
  5
C51
330
1F
100
AcDbEntity
  8
CYAN
100
AcDbLine
 10
-120.0141752596174
 20
710.0953383739422
 30
0.0
 11
-121.4451612596138
 21
710.0953383739422
 31
0.0
  0
LINE
  5
C52
330
1F
100
AcDbEntity
  8
CYAN
100
AcDbLine
 10
-121.4451612596138
 20
710.0953383739422
 30
0.0
 11
-123.8312245929413
 21
710.7438583739407
 31
0.0
  0
LINE
  5
C53
330
1F
100
AcDbEntity
  8
CYAN
100
AcDbLine
 10
-123.8312245929413
 20
710.7438583739407
 30
0.0
 11
-137.7604225929064
 21
699.1237097073033
 31
0.0
  0
LINE
  5
C54
330
1F
100
AcDbEntity
  8
CYAN
100
AcDbLine
 10
-137.7604225929064
 20
699.1237097073033
 30
0.0
 11
-139.1239092595697
 21
700.5908137072996
 31
0.0
  0
LINE
  5
C55
330
1F
100
AcDbEntity
  8
CYAN
100
AcDbLine
 10
-139.1239092595697
 20
700.5908137072996
 30
0.0
 11
-125.405165259604
 21
712.0353943739377
 31
0.0
  0
LINE
  5
C56
330
1F
100
AcDbEntity
  8
CYAN
100
AcDbLine
 10
-125.405165259604
 20
712.0353943739377
 30
0.0
 11
-128.2421207765302
 21
715.0884046997965
 31
0.0
  0
LINE
  5
C57
330
1F
100
AcDbEntity
  8
CYAN
100
AcDbLine
 10
-128.2421207765302
 20
715.0884046997965
 30
0.0
 11
-132.4432032595864
 21
712.9891097072686
 31
0.0
  0
LINE
  5
C58
330
1F
100
AcDbEntity
  8
CYAN
100
AcDbLine
 10
-132.4432032595864
 20
712.9891097072686
 30
0.0
 11
-140.9133345928985
 21
705.955589707286
 31
0.0
  0
ARC
  5
C59
330
1F
100
AcDbEntity
  8
CYAN
100
AcDbCircle
 10
-142.0266460411624
 20
707.6056629698154
 30
0.0
 40
1.990528611328356
100
AcDbArc
 50
182.8940600168005
 51
304.0077073152005
  0
ARC
  5
C5A
330
1F
100
AcDbEntity
  8
CYAN
100
AcDbCircle
 10
-136.9929766601084
 20
707.7450867899482
 30
0.0
 40
7.025757081982433
100
AcDbArc
 50
153.8364101450014
 51
181.9569890485001
  0
ARC
  5
C5B
330
1F
100
AcDbEntity
  8
CYAN
100
AcDbCircle
 10
-145.0920432859548
 20
711.4079262434057
 30
0.0
 40
1.880062383861965
100
AcDbArc
 50
342.513179423
 51
104.5791274713997
  0
ARC
  5
C5C
330
1F
100
AcDbEntity
  8
CYAN
100
AcDbCircle
 10
-142.8352301559604
 20
707.2044213815496
 30
0.0
 40
6.612874600650133
100
AcDbArc
 50
114.3833386483007
 51
159.3939128186008
  0
ARC
  5
C5D
330
1F
100
AcDbEntity
  8
CYAN
100
AcDbCircle
 10
-121.1061858421481
 20
693.470754261584
 30
0.0
 40
32.20896972125281
100
AcDbArc
 50
150.0892614234008
 51
164.3845867813995
  0
ARC
  5
C5E
330
1F
100
AcDbEntity
  8
CYAN
100
AcDbCircle
 10
-107.5690644211152
 20
690.5484517698579
 30
0.0
 40
46.04053320975156
100
AcDbArc
 50
165.4168840371008
 51
184.961340180801
  0
ARC
  5
C5F
330
1F
100
AcDbEntity
  8
CYAN
100
AcDbCircle
 10
-147.6478808048817
 20
685.1527262744046
 30
0.0
 40
5.959391725185099
100
AcDbArc
 50
166.2746108733012
 51
285.6410070805013
  0
ARC
  5
C60
330
1F
100
AcDbEntity
  8
CYAN
100
AcDbCircle
 10
-146.5850392536843
 20
675.7842964908283
 30
0.0
 40
3.67023450505749
100
AcDbArc
 50
307.1051913450005
 51
81.47838341120133
  0
ARC
  5
C61
330
1F
100
AcDbEntity
  8
CYAN
100
AcDbCircle
 10
-148.3211186234134
 20
679.278561447886
 30
0.0
 40
7.539146287714483
100
AcDbArc
 50
263.7454586689996
 51
301.5986880585995
  0
ARC
  5
C62
330
1F
100
AcDbEntity
  8
CYAN
100
AcDbCircle
 10
-147.9924884855475
 20
669.1219704128448
 30
0.0
 40
2.900072186926082
100
AcDbArc
 50
113.3618999704005
 51
193.4695715448005
  0
ARC
  5
C63
330
1F
100
AcDbEntity
  8
CYAN
100
AcDbCircle
 10
-139.1161150747697
 20
669.2382499712445
 30
0.0
 40
11.72344445957069
100
AcDbArc
 50
183.8726503447006
 51
207.6538874519988
  0
ARC
  5
C64
330
1F
100
AcDbEntity
  8
CYAN
100
AcDbCircle
 10
-147.2505656623494
 20
666.8067893640507
 30
0.0
 40
3.757668680657271
100
AcDbArc
 50
233.2216533487993
 51
277.5483994749007
  0
ARC
  5
C65
330
1F
100
AcDbEntity
  8
CYAN
100
AcDbCircle
 10
-148.6882839191458
 20
659.5319962376687
 30
0.0
 40
4.04108311292323
100
AcDbArc
 50
292.9149679648996
 51
61.44995649859992
  0
LINE
  5
C66
330
1F
100
AcDbEntity
  8
CYAN
100
AcDbLine
 10
-147.1148292595497
 20
655.809820374078
 30
0.0
 11
-150.216131259542
 21
655.9289917074112
 31
0.0
  0
ARC
  5
C67
330
1F
100
AcDbEntity
  8
CYAN
100
AcDbCircle
 10
-148.7572854099456
 20
652.4909826759532
 30
0.0
 40
3.734720513457328
100
AcDbArc
 50
112.9929051674001
 51
183.9563052734013
  0
LINE
  5
C68
330
1F
100
AcDbEntity
  8
CYAN
100
AcDbLine
 10
-152.4831059262029
 20
652.2333030407537
 30
0.0
 11
-151.4094505928723
 21
645.5572977074369
 31
0.0
  0
ARC
  5
C69
330
1F
100
AcDbEntity
  8
CYAN
100
AcDbCircle
 10
-146.8982405015503
 20
648.288848588897
 30
0.0
 40
5.273745035986816
100
AcDbArc
 50
211.1950276790009
 51
247.6429227054018
  0
ARC
  5
C6A
330
1F
100
AcDbEntity
  8
CYAN
100
AcDbCircle
 10
-150.7515826367406
 20
651.2248727619562
 30
0.0
 40
8.028762760779924
100
AcDbArc
 50
283.3022924087988
 51
305.9225871969003
  0
LINE
  5
C6B
330
1F
100
AcDbEntity
  8
CYAN
100
AcDbLine
 10
-146.0411745928857
 20
644.7230970407725
 30
0.0
 11
-145.4445145928872
 21
646.2726697074351
 31
0.0
  0
LINE
  5
C6C
330
1F
100
AcDbEntity
  8
CYAN
100
AcDbLine
 10
-145.4445145928872
 20
646.2726697074351
 30
0.0
 11
-143.7747532595581
 21
646.9880417074334
 31
0.0
  0
ARC
  5
C6D
330
1F
100
AcDbEntity
  8
CYAN
100
AcDbCircle
 10
-142.9790578847601
 20
634.6571928675976
 30
0.0
 40
12.35649482010244
100
AcDbArc
 50
39.14586621509914
 51
93.69211126510085
  0
LINE
  5
C6E
330
1F
100
AcDbEntity
  8
CYAN
100
AcDbLine
 10
-133.3960859262507
 20
642.4578090407783
 30
0.0
 11
-132.6803159262525
 21
640.0736930407841
 31
0.0
  0
ARC
  5
C6F
330
1F
100
AcDbEntity
  8
CYAN
100
AcDbCircle
 10
-129.9886595302592
 20
638.4019894870549
 30
0.0
 40
3.168533876392078
100
AcDbArc
 50
148.1568781210999
 51
320.2993502982999
  0
ARC
  5
C70
330
1F
100
AcDbEntity
  8
CYAN
100
AcDbCircle
 10
-170.4820279576246
 20
679.1565218212198
 30
0.0
 40
60.60602852171514
100
AcDbArc
 50
315.1020754636004
 51
331.5946752456997
  0
LINE
  5
C71
330
1F
100
AcDbEntity
  8
CYAN
100
AcDbLine
 10
-117.1727005929579
 20
650.3258730407585
 30
0.0
 11
-115.7195539262948
 21
651.4427190407557
 31
0.0
  0
ARC
  5
C72
330
1F
100
AcDbEntity
  8
CYAN
100
AcDbCircle
 10
-123.6134933649418
 20
675.4454426656288
 30
0.0
 40
25.2674696254035
100
AcDbArc
 50
288.204836991099
 51
310.0082602797982
  0
ARC
  5
C73
330
1F
100
AcDbEntity
  8
CYAN
100
AcDbCircle
 10
-123.9712945076075
 20
674.6465849585644
 30
0.0
 40
24.89807433420442
100
AcDbArc
 50
311.8210960581992
 51
6.97327341130116
  0
ARC
  5
C74
330
1F
100
AcDbEntity
  8
CYAN
100
AcDbCircle
 10
-103.3790668007257
 20
676.8357003389589
 30
0.0
 40
4.205138616922819
100
AcDbArc
 50
11.43464201729928
 51
97.25204606630081
  0
ARC
  5
C75
330
1F
100
AcDbEntity
  8
CYAN
100
AcDbCircle
 10
-93.72062514114986
 20
661.4742893253973
 30
0.0
 40
22.03079455301159
100
AcDbArc
 50
117.5486407176005
 51
134.9223490903009
  0
ARC
  5
C76
330
1F
100
AcDbEntity
  8
CYAN
100
AcDbCircle
 10
-115.1328936690964
 20
675.2676406786961
 30
0.0
 40
6.127427645184679
100
AcDbArc
 50
283.2381609273005
 51
17.14070459620112
  0
LINE
  5
C77
330
1F
100
AcDbEntity
  8
CYAN
100
AcDbLine
 10
-113.7297172977665
 20
669.3030396343109
 30
0.0
 11
-116.435323926293
 21
668.2517330407137
 31
0.0
  0
LINE
  5
C78
330
1F
100
AcDbEntity
  8
CYAN
100
AcDbLine
 10
-116.435323926293
 20
668.2517330407137
 30
0.0
 11
-123.4733619262755
 21
666.5826457073847
 31
0.0
  0
LINE
  5
C79
330
1F
100
AcDbEntity
  8
CYAN
100
AcDbLine
 10
-123.4733619262755
 20
666.5826457073847
 30
0.0
 11
-127.2904332595993
 21
666.3443023740517
 31
0.0
  0
LINE
  5
C7A
330
1F
100
AcDbEntity
  8
CYAN
100
AcDbLine
 10
-187.3118950491825
 20
709.6766930406102
 30
0.0
 11
-187.5601110491819
 21
708.775653707279
 31
0.0
  0
LINE
  5
C7B
330
1F
100
AcDbEntity
  8
CYAN
100
AcDbLine
 10
-187.5601110491819
 20
708.775653707279
 30
0.0
 11
-179.7375843825348
 21
706.5023363739515
 31
0.0
  0
LINE
  5
C7C
330
1F
100
AcDbEntity
  8
CYAN
100
AcDbLine
 10
-179.7375843825348
 20
706.5023363739515
 30
0.0
 11
-180.2957170492001
 21
704.5817923739563
 31
0.0
  0
LINE
  5
C7D
330
1F
100
AcDbEntity
  8
CYAN
100
AcDbLine
 10
-180.2957170492001
 20
704.5817923739563
 30
0.0
 11
-188.1826083825137
 21
706.873815040617
 31
0.0
  0
LINE
  5
C7E
330
1F
100
AcDbEntity
  8
CYAN
100
AcDbLine
 10
-188.1826083825137
 20
706.873815040617
 30
0.0
 11
-189.7550430491764
 21
702.7176977072941
 31
0.0
  0
ARC
  5
C7F
330
1F
100
AcDbEntity
  8
CYAN
100
AcDbCircle
 10
-184.8568456663887
 20
700.8494415940988
 30
0.0
 40
5.242396255986894
100
AcDbArc
 50
159.1222948602006
 51
244.3210710865987
  0
LINE
  5
C80
330
1F
100
AcDbEntity
  8
CYAN
100
AcDbLine
 10
-187.128521049183
 20
696.1248030406441
 30
0.0
 11
-181.9973570491958
 21
694.1105650406488
 31
0.0
  0
LINE
  5
C81
330
1F
100
AcDbEntity
  8
CYAN
100
AcDbLine
 10
-181.9973570491958
 20
694.1105650406488
 30
0.0
 11
-179.920959049201
 21
693.0727090406517
 31
0.0
  0
ARC
  5
C82
330
1F
100
AcDbEntity
  8
CYAN
100
AcDbCircle
 10
-172.6171581384193
 20
701.0714753070317
 30
0.0
 40
10.83170206050625
100
AcDbArc
 50
227.6002983442996
 51
322.9005986803993
  0
ARC
  5
C83
330
1F
100
AcDbEntity
  8
CYAN
100
AcDbCircle
 10
-165.3776336765707
 20
695.6308754834452
 30
0.0
 40
1.77597320719556
100
AcDbArc
 50
322.0130660668991
 51
90.16817060160059
  0
LINE
  5
C84
330
1F
100
AcDbEntity
  8
CYAN
100
AcDbLine
 10
-165.3828463825707
 20
697.4068410406409
 30
0.0
 11
-167.7650537158981
 21
697.2237903739745
 31
0.0
  0
ARC
  5
C85
330
1F
100
AcDbEntity
  8
CYAN
100
AcDbCircle
 10
-167.9826118270976
 20
699.1949142035696
 30
0.0
 40
1.983093715195041
100
AcDbArc
 50
155.0415030258014
 51
276.2983922283987
  0
ARC
  5
C86
330
1F
100
AcDbEntity
  8
CYAN
100
AcDbCircle
 10
-175.386628386279
 20
703.9330406626245
 30
0.0
 40
6.83000542904959
100
AcDbArc
 50
325.1656652597014
 51
358.5080482805992
  0
ARC
  5
C87
330
1F
100
AcDbEntity
  8
CYAN
100
AcDbCircle
 10
-166.9309315380335
 20
703.8401989152914
 30
0.0
 40
1.630223673195924
100
AcDbArc
 50
33.16162939800062
 51
182.9883352925996
  0
LINE
  5
C88
330
1F
100
AcDbEntity
  8
CYAN
100
AcDbLine
 10
-165.5662210492369
 20
704.7319357072892
 30
0.0
 11
-163.6720890492416
 21
702.9618790406268
 31
0.0
  0
ARC
  5
C89
330
1F
100
AcDbEntity
  8
CYAN
100
AcDbCircle
 10
-162.6573164764442
 20
704.8016055338222
 30
0.0
 40
2.101037111594746
100
AcDbArc
 50
241.1193622422
 51
1.434369023500855
  0
ARC
  5
C8A
330
1F
100
AcDbEntity
  8
CYAN
100
AcDbCircle
 10
-170.4838317252246
 20
705.3693662782208
 30
0.0
 40
9.940252644775148
100
AcDbArc
 50
357.0292328213012
 51
101.5172293190011
  0
LINE
  5
C8B
330
1F
100
AcDbEntity
  8
CYAN
100
AcDbLine
 10
-172.468528382553
 20
715.1094690405966
 30
0.0
 11
-174.3011657158818
 21
715.4147810405957
 31
0.0
  0
LINE
  5
C8C
330
1F
100
AcDbEntity
  8
CYAN
100
AcDbLine
 10
-174.3011657158818
 20
715.4147810405957
 30
0.0
 11
-179.4323290492022
 21
717.0017877072584
 31
0.0
  0
ARC
  5
C8D
330
1F
100
AcDbEntity
  8
CYAN
100
AcDbCircle
 10
-180.975889530665
 20
712.0083476730043
 30
0.0
 40
5.226568887453598
100
AcDbArc
 50
72.82269752270183
 51
155.2817021508002
  0
ARC
  5
C8E
330
1F
100
AcDbEntity
  8
CYAN
100
AcDbCircle
 10
-253.536989645417
 20
735.5004632377456
 30
0.0
 40
71.0818560638223
100
AcDbArc
 50
338.6972327734985
 51
342.5575792563994
  0
LINE
  5
C8F
330
1F
100
AcDbEntity
  8
CYAN
100
AcDbLine
 10
-334.4674851782814
 20
674.4737191824315
 30
0.0
 11
-330.6531830488242
 21
669.6632450407101
 31
0.0
  0
ARC
  5
C90
330
1F
100
AcDbEntity
  8
CYAN
100
AcDbCircle
 10
-321.4270634212472
 20
682.4649468204115
 30
0.0
 40
15.77988757369388
100
AcDbArc
 50
234.2199043963017
 51
309.034121199299
  0
ARC
  5
C91
330
1F
100
AcDbEntity
  8
CYAN
100
AcDbCircle
 10
-303.0039702958267
 20
660.2685591395337
 30
0.0
 40
13.06838436276733
100
AcDbArc
 50
48.90336938060018
 51
130.4881814639992
  0
ARC
  5
C92
330
1F
100
AcDbEntity
  8
CYAN
100
AcDbCircle
 10
-300.0323774447675
 20
662.4428430308616
 30
0.0
 40
9.511088671309556
100
AcDbArc
 50
324.2664004834012
 51
53.78986520350131
  0
LINE
  5
C93
330
1F
100
AcDbEntity
  8
CYAN
100
AcDbLine
 10
-292.31183504892
 20
656.8882023740752
 30
0.0
 11
-294.7638463822473
 21
653.5301083740838
 31
0.0
  0
ARC
  5
C94
330
1F
100
AcDbEntity
  8
CYAN
100
AcDbCircle
 10
-288.0727718386641
 20
649.8304337095597
 30
0.0
 40
7.645787805714217
100
AcDbArc
 50
151.0606166486998
 51
221.8847251610004
  0
LINE
  5
C95
330
1F
100
AcDbEntity
  8
CYAN
100
AcDbLine
 10
-293.7649810489165
 20
644.7258450407725
 30
0.0
 11
-268.1822910489804
 21
626.6708537074844
 31
0.0
  0
ARC
  5
C96
330
1F
100
AcDbEntity
  8
CYAN
100
AcDbCircle
 10
-263.4136295651256
 20
632.0401091989375
 30
0.0
 40
7.181158463582044
100
AcDbArc
 50
228.390373878502
 51
318.1522673028998
  0
LINE
  5
C97
330
1F
100
AcDbEntity
  8
CYAN
100
AcDbLine
 10
-258.0642377156723
 20
627.2491757074829
 30
0.0
 11
-256.8985893374086
 21
628.8699969436121
 31
0.0
  0
LINE
  5
C98
330
1F
100
AcDbEntity
  8
CYAN
100
AcDbLine
 10
-256.8985893374086
 20
628.8699969436121
 30
0.0
 11
-274.4363950489648
 21
639.0249603741201
 31
0.0
  0
LINE
  5
C99
330
1F
100
AcDbEntity
  8
CYAN
100
AcDbLine
 10
-274.4363950489648
 20
639.0249603741201
 30
0.0
 11
-273.2685810489677
 21
640.6486010407827
 31
0.0
  0
LINE
  5
C9A
330
1F
100
AcDbEntity
  8
CYAN
100
AcDbLine
 10
-273.2685810489677
 20
640.6486010407827
 30
0.0
 11
-255.9449929567443
 21
630.6287779320078
 31
0.0
  0
ARC
  5
C9B
330
1F
100
AcDbEntity
  8
CYAN
100
AcDbCircle
 10
-260.1728016331338
 20
636.5805896226595
 30
0.0
 40
7.300577279048411
100
AcDbArc
 50
305.3876934746981
 51
11.34335521579984
  0
ARC
  5
C9C
330
1F
100
AcDbEntity
  8
CYAN
100
AcDbCircle
 10
-247.4769218952988
 20
638.1760874445222
 30
0.0
 40
5.540209353586147
100
AcDbArc
 50
46.45247077130169
 51
181.6503781105006
  0
LINE
  5
C9D
330
1F
100
AcDbEntity
  8
CYAN
100
AcDbLine
 10
-243.6599610490417
 20
642.1916483741122
 30
0.0
 11
-238.3011023823884
 21
636.5641457074596
 31
0.0
  0
ARC
  5
C9E
330
1F
100
AcDbEntity
  8
CYAN
100
AcDbCircle
 10
-215.8310687471113
 20
654.1550930614156
 30
0.0
 40
28.53671039872866
100
AcDbArc
 50
218.0560608200018
 51
253.0879211549995
  0
ARC
  5
C9F
330
1F
100
AcDbEntity
  8
CYAN
100
AcDbCircle
 10
-222.2696411866952
 20
531.6616556033218
 30
0.0
 40
95.20910101616198
100
AcDbArc
 50
58.60341835409972
 51
91.12112473020138
  0
ARC
  5
CA0
330
1F
100
AcDbEntity
  8
CYAN
100
AcDbCircle
 10
-170.2696542897585
 20
612.821975704319
 30
0.0
 40
2.402425524927326
100
AcDbArc
 50
177.4128407466992
 51
317.7298442966992
  0
LINE
  5
CA1
330
1F
100
AcDbEntity
  8
CYAN
100
AcDbLine
 10
-168.4919037158963
 20
611.2060390408562
 30
0.0
 11
-165.3528803825708
 21
617.048036374175
 31
0.0
  0
LINE
  5
CA2
330
1F
100
AcDbEntity
  8
CYAN
100
AcDbLine
 10
-165.3528803825708
 20
617.048036374175
 30
0.0
 11
-204.6001850491394
 21
638.4958703741215
 31
0.0
  0
LINE
  5
CA3
330
1F
100
AcDbEntity
  8
CYAN
100
AcDbLine
 10
-204.6001850491394
 20
638.4958703741215
 30
0.0
 11
-203.6410950491418
 21
640.2509050407838
 31
0.0
  0
LINE
  5
CA4
330
1F
100
AcDbEntity
  8
CYAN
100
AcDbLine
 10
-203.6410950491418
 20
640.2509050407838
 30
0.0
 11
-164.3858120871065
 21
618.8194271621706
 31
0.0
  0
LINE
  5
CA5
330
1F
100
AcDbEntity
  8
CYAN
100
AcDbLine
 10
-164.3858120871065
 20
618.8194271621706
 30
0.0
 11
-161.6798990492466
 21
624.3667577074901
 31
0.0
  0
ARC
  5
CA6
330
1F
100
AcDbEntity
  8
CYAN
100
AcDbCircle
 10
-163.6014164083085
 20
625.3161532278879
 30
0.0
 40
2.143264056261308
100
AcDbArc
 50
333.706650715199
 51
94.48564702469914
  0
LINE
  5
CA7
330
1F
100
AcDbEntity
  8
CYAN
100
AcDbLine
 10
-163.7690397159081
 20
627.4528523741491
 30
0.0
 11
-165.8576257159029
 21
627.1805097074831
 31
0.0
  0
ARC
  5
CA8
330
1F
100
AcDbEntity
  8
CYAN
100
AcDbCircle
 10
-112.6258275667026
 20
731.3556231633562
 30
0.0
 40
116.9875147087742
100
AcDbArc
 50
229.9150429529014
 51
242.9337023658995
  0
LINE
  5
CA9
330
1F
100
AcDbEntity
  8
CYAN
100
AcDbLine
 10
-187.956753049181
 20
641.8495883741131
 30
0.0
 11
-202.9430530491435
 21
657.8244017074064
 31
0.0
  0
ARC
  5
CAA
330
1F
100
AcDbEntity
  8
CYAN
100
AcDbCircle
 10
-214.8524906791137
 20
647.9781659520978
 30
0.0
 40
15.4526070036947
100
AcDbArc
 50
39.5825501347987
 51
84.56248880860036
  0
LINE
  5
CAB
330
1F
100
AcDbEntity
  8
CYAN
100
AcDbLine
 10
-213.3882003824507
 20
663.3612383740592
 30
0.0
 11
-224.2870757157568
 21
664.6319430407227
 31
0.0
  0
ARC
  5
CAC
330
1F
100
AcDbEntity
  8
CYAN
100
AcDbCircle
 10
-222.6265995492276
 20
668.9395421637787
 30
0.0
 40
4.61655621692179
100
AcDbArc
 50
194.1790454574006
 51
248.9195450629987
  0
LINE
  5
CAD
330
1F
100
AcDbEntity
  8
CYAN
100
AcDbLine
 10
-227.1025123824164
 20
667.8087037073813
 30
0.0
 11
-227.5567937157486
 21
671.983825707371
 31
0.0
  0
ARC
  5
CAE
330
1F
100
AcDbEntity
  8
CYAN
100
AcDbCircle
 10
-230.0427905093424
 20
669.0851114092448
 30
0.0
 40
3.818733381723785
100
AcDbArc
 50
49.38293299169834
 51
110.7337775235009
  0
LINE
  5
CAF
330
1F
100
AcDbEntity
  8
CYAN
100
AcDbLine
 10
-231.3947223824057
 20
672.6565263740361
 30
0.0
 11
-240.0049077157175
 21
659.9370337074011
 31
0.0
  0
LINE
  5
CB0
330
1F
100
AcDbEntity
  8
CYAN
100
AcDbLine
 10
-240.0049077157175
 20
659.9370337074011
 30
0.0
 11
-241.66112238238
 21
661.0581730407317
 31
0.0
  0
LINE
  5
CB1
330
1F
100
AcDbEntity
  8
CYAN
100
AcDbLine
 10
-241.66112238238
 20
661.0581730407317
 30
0.0
 11
-233.0509377157349
 21
673.7776650406997
 31
0.0
  0
ARC
  5
CB2
330
1F
100
AcDbEntity
  8
CYAN
100
AcDbCircle
 10
-235.8053915834613
 20
674.7696984134972
 30
0.0
 40
2.927652015326013
100
AcDbArc
 50
340.1932061195016
 51
81.92715817460022
  0
ARC
  5
CB3
330
1F
100
AcDbEntity
  8
CYAN
100
AcDbCircle
 10
-235.8499973986612
 20
682.4235255278782
 30
0.0
 40
4.776976590921389
100
AcDbArc
 50
188.1771146397993
 51
275.4745609747015
  0
ARC
  5
CB4
330
1F
100
AcDbEntity
  8
CYAN
100
AcDbCircle
 10
-243.4803572870421
 20
679.2451068646862
 30
0.0
 40
3.829644516257091
100
AcDbArc
 50
40.73290689400058
 51
116.1179797114
  0
LINE
  5
CB5
330
1F
100
AcDbEntity
  8
CYAN
100
AcDbLine
 10
-245.1662470490379
 20
682.6837043740108
 30
0.0
 11
-255.2479697156794
 21
672.7904130407023
 31
0.0
  0
LINE
  5
CB6
330
1F
100
AcDbEntity
  8
CYAN
100
AcDbLine
 10
-255.2479697156794
 20
672.7904130407023
 30
0.0
 11
-256.6474223823426
 21
674.2192350406988
 31
0.0
  0
LINE
  5
CB7
330
1F
100
AcDbEntity
  8
CYAN
100
AcDbLine
 10
-256.6474223823426
 20
674.2192350406988
 30
0.0
 11
-246.5656997157011
 21
684.1125263740073
 31
0.0
  0
ARC
  5
CB8
330
1F
100
AcDbEntity
  8
CYAN
100
AcDbCircle
 10
-249.1802180788946
 20
685.7525559525368
 30
0.0
 40
3.086325207992282
100
AcDbArc
 50
327.9008602115985
 51
93.73256757910008
  0
LINE
  5
CB9
330
1F
100
AcDbEntity
  8
CYAN
100
AcDbLine
 10
-249.3811363823608
 20
688.8323343739956
 30
0.0
 11
-252.1057163823539
 21
689.014010373995
 31
0.0
  0
ARC
  5
CBA
330
1F
100
AcDbEntity
  8
CYAN
100
AcDbCircle
 10
-250.7954375520905
 20
692.9588659950518
 30
0.0
 40
4.156767552389607
100
AcDbArc
 50
173.0551682835009
 51
251.6261577666993
  0
LINE
  5
CBB
330
1F
100
AcDbEntity
  8
CYAN
100
AcDbLine
 10
-254.9217070490136
 20
693.4614757073171
 30
0.0
 11
-254.9217070490136
 21
695.7857223739782
 31
0.0
  0
LINE
  5
CBC
330
1F
100
AcDbEntity
  8
CYAN
100
AcDbLine
 10
-254.9217070490136
 20
695.7857223739782
 30
0.0
 11
-265.8205823823196
 21
695.5488650406453
 31
0.0
  0
LINE
  5
CBD
330
1F
100
AcDbEntity
  8
CYAN
100
AcDbLine
 10
-265.8205823823196
 20
695.5488650406453
 30
0.0
 11
-265.8638763823195
 21
697.5483963739736
 31
0.0
  0
LINE
  5
CBE
330
1F
100
AcDbEntity
  8
CYAN
100
AcDbLine
 10
-265.8638763823195
 20
697.5483963739736
 30
0.0
 11
-254.8849497156803
 21
697.78611504064
 31
0.0
  0
ARC
  5
CBF
330
1F
100
AcDbEntity
  8
CYAN
100
AcDbCircle
 10
-263.3660814039258
 20
696.7591942606425
 30
0.0
 40
8.543076787845308
100
AcDbArc
 50
6.90393544070096
 51
129.4265644783988
  0
LINE
  5
CC0
330
1F
100
AcDbEntity
  8
CYAN
100
AcDbLine
 10
-268.7916930489789
 20
703.3582017072924
 30
0.0
 11
-282.4157023822781
 21
702.4505063739614
 31
0.0
  0
ARC
  5
CC1
330
1F
100
AcDbEntity
  8
CYAN
100
AcDbCircle
 10
-280.8989278158819
 20
696.5511685041096
 30
0.0
 40
6.091206152118106
100
AcDbArc
 50
104.4189690960993
 51
185.9920146741989
  0
LINE
  5
CC2
330
1F
100
AcDbEntity
  8
CYAN
100
AcDbLine
 10
-286.9568543822668
 20
695.9153083739778
 30
0.0
 11
-286.2305583822686
 21
694.4632717073147
 31
0.0
  0
ARC
  5
CC3
330
1F
100
AcDbEntity
  8
CYAN
100
AcDbCircle
 10
-289.1306217138614
 20
692.6114191962527
 30
0.0
 40
3.440890153724729
100
AcDbArc
 50
197.8122691180011
 51
32.5605059272007
  0
LINE
  5
CC4
330
1F
100
AcDbEntity
  8
CYAN
100
AcDbLine
 10
-292.4065690489198
 20
691.5588537073221
 30
0.0
 11
-293.1328650489181
 21
694.1002623739827
 31
0.0
  0
ARC
  5
CC5
330
1F
100
AcDbEntity
  8
CYAN
100
AcDbCircle
 10
-305.2167310836878
 20
689.7463120139932
 30
0.0
 40
12.84432567650122
100
AcDbArc
 50
19.81465150990014
 51
70.65113332599974
  0
LINE
  5
CC6
330
1F
100
AcDbEntity
  8
CYAN
100
AcDbLine
 10
-300.9611590488985
 20
701.8651737072964
 30
0.0
 11
-310.7860703822072
 21
688.7270363739958
 31
0.0
  0
LINE
  5
CC7
330
1F
100
AcDbEntity
  8
CYAN
100
AcDbLine
 10
-310.7860703822072
 20
688.7270363739958
 30
0.0
 11
-312.3877477155365
 21
689.9247963739931
 31
0.0
  0
LINE
  5
CC8
330
1F
100
AcDbEntity
  8
CYAN
100
AcDbLine
 10
-312.3877477155365
 20
689.9247963739931
 30
0.0
 11
-302.8251963822271
 21
702.7120990406277
 31
0.0
  0
LINE
  5
CC9
330
1F
100
AcDbEntity
  8
CYAN
100
AcDbLine
 10
-302.8251963822271
 20
702.7120990406277
 30
0.0
 11
-311.8431643822046
 21
707.4426570406156
 31
0.0
  0
ARC
  5
CCA
330
1F
100
AcDbEntity
  8
CYAN
100
AcDbCircle
 10
-318.6415263391209
 20
705.0667351611549
 30
0.0
 40
7.201578304381996
100
AcDbArc
 50
19.26372744200021
 51
163.8893614872001
  0
LINE
  5
CCB
330
1F
100
AcDbEntity
  8
CYAN
100
AcDbLine
 10
-325.5602817155036
 20
707.0651230406167
 30
0.0
 11
-317.2445577155244
 21
703.0735090406267
 31
0.0
  0
LINE
  5
CCC
330
1F
100
AcDbEntity
  8
CYAN
100
AcDbLine
 10
-317.2445577155244
 20
703.0735090406267
 30
0.0
 11
-318.1100310488556
 21
701.2704683739643
 31
0.0
  0
LINE
  5
CCD
330
1F
100
AcDbEntity
  8
CYAN
100
AcDbLine
 10
-318.1100310488556
 20
701.2704683739643
 30
0.0
 11
-326.5707363821678
 21
705.3316743739543
 31
0.0
  0
ARC
  5
CCE
330
1F
100
AcDbEntity
  8
CYAN
100
AcDbCircle
 10
-305.8865510098194
 20
691.8275068758548
 30
0.0
 40
24.70218744033824
100
AcDbArc
 50
146.8605235190008
 51
172.3904182485011
  0
LINE
  5
CCF
330
1F
100
AcDbEntity
  8
CYAN
100
AcDbLine
 10
-330.3711963821582
 20
695.0986237073132
 30
0.0
 11
-322.469470382178
 21
695.7339757073117
 31
0.0
  0
LINE
  5
CD0
330
1F
100
AcDbEntity
  8
CYAN
100
AcDbLine
 10
-322.469470382178
 20
695.7339757073117
 30
0.0
 11
-322.3082570488451
 21
693.7404837073168
 31
0.0
  0
LINE
  5
CD1
330
1F
100
AcDbEntity
  8
CYAN
100
AcDbLine
 10
-322.3082570488451
 20
693.7404837073168
 30
0.0
 11
-330.337917048825
 21
693.0911257073183
 31
0.0
  0
ARC
  5
CD2
330
1F
100
AcDbEntity
  8
CYAN
100
AcDbCircle
 10
-306.2937745996852
 20
692.2547342383872
 30
0.0
 40
24.05868526753985
100
AcDbArc
 50
178.0077315620996
 51
199.8577884600992
  0
LINE
  5
CD3
330
1F
100
AcDbEntity
  8
CYAN
100
AcDbLine
 10
-328.9218977154952
 20
684.0823183740075
 30
0.0
 11
-323.3868970488424
 21
686.2730670406684
 31
0.0
  0
LINE
  5
CD4
330
1F
100
AcDbEntity
  8
CYAN
100
AcDbLine
 10
-323.3868970488424
 20
686.2730670406684
 30
0.0
 11
-322.6508550488442
 21
684.4134323740067
 31
0.0
  0
LINE
  5
CD5
330
1F
100
AcDbEntity
  8
CYAN
100
AcDbLine
 10
-322.6508550488442
 20
684.4134323740067
 30
0.0
 11
-328.1882817154971
 21
682.2217230406787
 31
0.0
  0
ARC
  5
CD6
330
1F
100
AcDbEntity
  8
CYAN
100
AcDbCircle
 10
-304.0210406380908
 20
688.9188111586619
 30
0.0
 40
25.07800890327064
100
AcDbArc
 50
195.488813638199
 51
203.4945044432009
  0
ARC
  5
CD7
330
1F
100
AcDbEntity
  8
CYAN
100
AcDbCircle
 10
-329.2490925704277
 20
678.6374889393544
 30
0.0
 40
2.247032878661048
100
AcDbArc
 50
247.5261922690012
 51
7.253141073798651
  0
LINE
  5
CD8
330
1F
100
AcDbEntity
  8
CYAN
100
AcDbLine
 10
-330.1080457154923
 20
676.5611083740262
 30
0.0
 11
-331.7429043821548
 21
677.9228230406896
 31
0.0
  0
LINE
  5
CD9
330
1F
100
AcDbEntity
  8
CYAN
100
AcDbLine
 10
-331.7429043821548
 20
677.9228230406896
 30
0.0
 11
-333.0143383821517
 21
678.1951657073554
 31
0.0
  0
ARC
  5
CDA
330
1F
100
AcDbEntity
  8
CYAN
100
AcDbCircle
 10
-333.0985298166848
 20
676.0836057645607
 30
0.0
 40
2.113237703061383
100
AcDbArc
 50
87.71673065699975
 51
229.6240648583012
  0
LINE
  5
CDB
330
1F
100
AcDbEntity
  8
CYAN
100
AcDbLine
 10
-330.4920598406912
 20
457.5777560420403
 30
0.0
 11
-310.8304831055404
 21
457.6012516419069
 31
0.0
  0
LINE
  5
CDC
330
1F
100
AcDbEntity
  8
CYAN
100
AcDbLine
 10
-310.8304831055404
 20
457.6012516419069
 30
0.0
 11
-310.8280931056738
 21
455.601253069912
 31
0.0
  0
LINE
  5
CDD
330
1F
100
AcDbEntity
  8
CYAN
100
AcDbLine
 10
-310.8280931056738
 20
455.601253069912
 30
0.0
 11
-330.4718344194914
 21
455.5777787833786
 31
0.0
  0
ARC
  5
CDE
330
1F
100
AcDbEntity
  8
CYAN
100
AcDbCircle
 10
-311.0175262264733
 20
448.42295235513
 30
0.0
 40
20.72828136834818
100
AcDbArc
 50
159.8076923123
 51
272.5672790086008
  0
LINE
  5
CDF
330
1F
100
AcDbEntity
  8
CYAN
100
AcDbLine
 10
-310.0890551056756
 20
427.715475689315
 30
0.0
 11
-304.5850484390227
 21
427.6412936893152
 31
0.0
  0
ARC
  5
CE0
330
1F
100
AcDbEntity
  8
CYAN
100
AcDbCircle
 10
-304.5145986290229
 20
452.6283704080526
 30
0.0
 40
24.9871760334042
100
AcDbArc
 50
269.838457850399
 51
333.8978369007989
  0
LINE
  5
CE1
330
1F
100
AcDbEntity
  8
CYAN
100
AcDbLine
 10
-282.075840541479
 20
441.6346857840802
 30
0.0
 11
-310.3208411070083
 21
434.5856308615646
 31
0.0
  0
LINE
  5
CE2
330
1F
100
AcDbEntity
  8
CYAN
100
AcDbLine
 10
-310.3208411070083
 20
434.5856308615646
 30
0.0
 11
-310.5629824375411
 21
435.5558718502289
 31
0.0
  0
LINE
  5
CE3
330
1F
100
AcDbEntity
  8
CYAN
100
AcDbLine
 10
-310.5629824375411
 20
435.5558718502289
 30
0.0
 11
-310.8051237680738
 21
436.5261128388929
 31
0.0
  0
LINE
  5
CE4
330
1F
100
AcDbEntity
  8
CYAN
100
AcDbLine
 10
-310.8051237680738
 20
436.5261128388929
 30
0.0
 11
-281.5317903980137
 21
443.8318069636748
 31
0.0
  0
ARC
  5
CE5
330
1F
100
AcDbEntity
  8
CYAN
100
AcDbCircle
 10
-294.223936527182
 20
448.2527933759304
 30
0.0
 40
13.44007790969973
100
AcDbArc
 50
340.7955171281009
 51
6.749606477798756
  0
LINE
  5
CE6
330
1F
100
AcDbEntity
  8
CYAN
100
AcDbLine
 10
-280.8770082464153
 20
449.8324134849931
 30
0.0
 11
-303.2771466236927
 21
445.0039904394052
 31
0.0
  0
LINE
  5
CE7
330
1F
100
AcDbEntity
  8
CYAN
100
AcDbLine
 10
-303.2771466236927
 20
445.0039904394052
 30
0.0
 11
-303.4878602543589
 21
445.9815382724693
 31
0.0
  0
LINE
  5
CE8
330
1F
100
AcDbEntity
  8
CYAN
100
AcDbLine
 10
-303.4878602543589
 20
445.9815382724693
 30
0.0
 11
-303.6985738850249
 21
446.9590861054003
 31
0.0
  0
LINE
  5
CE9
330
1F
100
AcDbEntity
  8
CYAN
100
AcDbLine
 10
-303.6985738850249
 20
446.9590861054003
 30
0.0
 11
-280.5115412400162
 21
451.9571267824543
 31
0.0
  0
ARC
  5
CEA
330
1F
100
AcDbEntity
  8
CYAN
100
AcDbCircle
 10
-296.0692555861107
 20
456.7718906568423
 30
0.0
 40
16.28571235289262
100
AcDbArc
 50
342.8038756937008
 51
19.82893296050114
  0
LINE
  5
CEB
330
1F
100
AcDbEntity
  8
CYAN
100
AcDbLine
 10
-280.7491297196157
 20
462.2962159800287
 30
0.0
 11
-303.942409413291
 21
466.9622804837501
 31
0.0
  0
LINE
  5
CEC
330
1F
100
AcDbEntity
  8
CYAN
100
AcDbLine
 10
-303.942409413291
 20
466.9622804837501
 30
0.0
 11
-303.7451794303581
 21
467.9426377318811
 31
0.0
  0
LINE
  5
CED
330
1F
100
AcDbEntity
  8
CYAN
100
AcDbLine
 10
-303.7451794303581
 20
467.9426377318811
 30
0.0
 11
-303.5479494475587
 21
468.9229949798787
 31
0.0
  0
LINE
  5
CEE
330
1F
100
AcDbEntity
  8
CYAN
100
AcDbLine
 10
-303.5479494475587
 20
468.9229949798787
 30
0.0
 11
-281.7415857902798
 21
464.535952666023
 31
0.0
  0
ARC
  5
CEF
330
1F
100
AcDbEntity
  8
CYAN
100
AcDbCircle
 10
-292.2522525086535
 20
466.9449438658836
 30
0.0
 40
10.78319773837304
100
AcDbArc
 50
347.0910544418002
 51
20.39878028260056
  0
LINE
  5
CF0
330
1F
100
AcDbEntity
  8
CYAN
100
AcDbLine
 10
-282.1452754656121
 20
470.703450020941
 30
0.0
 11
-311.7101222366049
 21
477.5152470107904
 31
0.0
  0
LINE
  5
CF1
330
1F
100
AcDbEntity
  8
CYAN
100
AcDbLine
 10
-311.7101222366049
 20
477.5152470107904
 30
0.0
 11
-311.4856025938055
 21
478.4897165741214
 31
0.0
  0
LINE
  5
CF2
330
1F
100
AcDbEntity
  8
CYAN
100
AcDbLine
 10
-311.4856025938055
 20
478.4897165741214
 30
0.0
 11
-311.2610829508727
 21
479.4641861375857
 31
0.0
  0
LINE
  5
CF3
330
1F
100
AcDbEntity
  8
CYAN
100
AcDbLine
 10
-311.2610829508727
 20
479.4641861375857
 30
0.0
 11
-282.9544092040101
 21
472.9422746081352
 31
0.0
  0
ARC
  5
CF4
330
1F
100
AcDbEntity
  8
CYAN
100
AcDbCircle
 10
-298.6045239934377
 20
467.2585143518828
 30
0.0
 40
16.65026196702504
100
AcDbArc
 50
19.95985252169977
 51
58.31779596080028
  0
ARC
  5
CF5
330
1F
100
AcDbEntity
  8
CYAN
100
AcDbCircle
 10
-308.1323336358138
 20
455.0129937648468
 30
0.0
 40
32.11874387138637
100
AcDbArc
 50
55.32580193880157
 51
116.6008219822999
  0
ARC
  5
CF6
330
1F
100
AcDbEntity
  8
CYAN
100
AcDbCircle
 10
-310.8960425798069
 20
465.8941627308196
 30
0.0
 40
21.28770801901345
100
AcDbArc
 50
123.0772024791999
 51
202.9960133080989
  0
LINE
  5
CF7
330
1F
100
AcDbEntity
  8
CYAN
100
AcDbLine
 10
-340.2918479037335
 20
422.1446018746623
 30
0.0
 11
29.04148542867654
 21
422.1446018746623
 31
0.0
  0
LINE
  5
CF8
330
1F
100
AcDbEntity
  8
CYAN
100
AcDbLine
 10
29.04148542867654
 20
422.1446018746623
 30
0.0
 11
29.04148542867654
 21
722.1446018739121
 31
0.0
  0
LINE
  5
CF9
330
1F
100
AcDbEntity
  8
CYAN
100
AcDbLine
 10
29.04148542867654
 20
722.1446018739121
 30
0.0
 11
-340.2918479037335
 21
722.1446018739121
 31
0.0
  0
LINE
  5
CFA
330
1F
100
AcDbEntity
  8
CYAN
100
AcDbLine
 10
-340.2918479037335
 20
722.1446018739121
 30
0.0
 11
-340.2918479037335
 21
422.1446018746623
 31
0.0
  0
LINE
  5
D16
330
1F
100
AcDbEntity
  8
0
100
AcDbLine
 10
-225.2064253834917
 20
454.1048587162131
 30
0.0
 11
-215.9343466283458
 21
446.1752544126446
 31
0.0
  0
LINE
  5
D17
330
1F
100
AcDbEntity
  8
0
100
AcDbLine
 10
-226.6055644120411
 20
452.494332261376
 30
0.0
 11
-217.5626453900595
 21
444.7607083904909
 31
0.0
  0
LINE
  5
D18
330
1F
100
AcDbEntity
  8
0
100
AcDbLine
 10
-215.9343466283458
 20
446.1752544126446
 30
0.0
 11
-215.9284379065209
 21
446.1709471980426
 31
0.0
  0
LINE
  5
D19
330
1F
100
AcDbEntity
  8
0
100
AcDbLine
 10
-217.5626453900595
 20
444.7607083904909
 30
0.0
 11
-217.5290859929435
 21
444.7301451763236
 31
0.0
  0
LINE
  5
D1A
330
1F
100
AcDbEntity
  8
0
100
AcDbLine
 10
-226.6055644120411
 20
452.494332261376
 30
0.0
 11
-225.2064253834917
 21
454.1048587162131
 31
0.0
  0
ENDSEC
  0
SECTION
  2
OBJECTS
  0
DICTIONARY
  5
C
330
0
100
AcDbDictionary
281
     1
  3
ACAD_COLOR
350
6B
  3
ACAD_GROUP
350
D
  3
ACAD_LAYOUT
350
1A
  3
ACAD_MATERIAL
350
6A
  3
ACAD_MLINESTYLE
350
17
  3
ACAD_PLOTSETTINGS
350
19
  3
ACAD_PLOTSTYLENAME
350
E
  3
ACAD_TABLESTYLE
350
7E
  3
ACDBHEADERROUNDTRIPXREC
350
D51
  3
AcDbVariableDictionary
350
5E
  3
DWGPROPS
350
D50
  0
DICTIONARY
  5
13E
330
1F
100
AcDbDictionary
280
     1
281
     1
  3
ACAD_SORTENTS
360
13F
  0
DICTIONARY
  5
6B
102
{ACAD_REACTORS
330
C
102
}
330
C
100
AcDbDictionary
281
     1
  0
DICTIONARY
  5
D
102
{ACAD_REACTORS
330
C
102
}
330
C
100
AcDbDictionary
281
     1
  0
DICTIONARY
  5
1A
102
{ACAD_REACTORS
330
C
102
}
330
C
100
AcDbDictionary
281
     1
  3
Layout1
350
D3
  3
Layout2
350
D7
  3
Model
350
22
  0
DICTIONARY
  5
6A
102
{ACAD_REACTORS
330
C
102
}
330
C
100
AcDbDictionary
281
     1
  0
DICTIONARY
  5
17
102
{ACAD_REACTORS
330
C
102
}
330
C
100
AcDbDictionary
281
     1
  3
Standard
350
18
  0
DICTIONARY
  5
19
102
{ACAD_REACTORS
330
C
102
}
330
C
100
AcDbDictionary
281
     1
  0
ACDBDICTIONARYWDFLT
  5
E
102
{ACAD_REACTORS
330
C
102
}
330
C
100
AcDbDictionary
281
     1
  3
Normal
350
F
100
AcDbDictionaryWithDefault
340
F
  0
DICTIONARY
  5
7E
102
{ACAD_REACTORS
330
C
102
}
330
C
100
AcDbDictionary
281
     1
  3
Standard
350
7F
  0
DICTIONARY
  5
D51
102
{ACAD_REACTORS
330
C
102
}
330
C
100
AcDbDictionary
281
     1
  0
DICTIONARY
  5
5E
102
{ACAD_REACTORS
330
C
102
}
330
C
100
AcDbDictionary
281
     1
  3
CTABLESTYLE
350
84
  3
DIMASSOC
350
5F
  3
HIDETEXT
350
63
  3
PROJECTNAME
350
133
  0
XRECORD
  5
D50
102
{ACAD_REACTORS
330
C
102
}
330
C
100
AcDbXrecord
280
     1
  1
DWGPROPS COOKIE
  2

  3

  4

  6

  7

  8
Autodesk
  9

300
=
301
=
302
=
303
=
304
=
305
=
306
=
307
=
308
=
309
=
 40
0.0300206134259259
 41
2453766.821152697
 42
2454577.406464294
  1

 90
        0
  0
SORTENTSTABLE
  5
13F
102
{ACAD_REACTORS
330
13E
102
}
330
13E
100
AcDbSortentsTable
330
1F
331
B0D
  5
B0D
331
B2C
  5
B2C
331
AB8
  5
AB8
331
A7A
  5
A7A
331
A99
  5
A99
331
A25
  5
A25
331
A44
  5
A44
331
9E7
  5
9E7
331
A06
  5
A06
331
992
  5
992
331
9B1
  5
9B1
331
973
  5
973
331
9D0
  5
9D0
331
A5B
  5
A5B
331
AEE
  5
AEE
331
B2D
  5
B2D
331
AEF
  5
AEF
331
A9A
  5
A9A
331
AB9
  5
AB9
331
A45
  5
A45
331
A5C
  5
A5C
331
A07
  5
A07
331
A26
  5
A26
331
9D1
  5
9D1
331
9E8
  5
9E8
331
A7B
  5
A7B
331
B0E
  5
B0E
331
974
  5
974
331
993
  5
993
331
9B2
  5
9B2
331
AF0
  5
AF0
331
B0F
  5
B0F
331
ABA
  5
ABA
331
AD1
  5
AD1
331
A7C
  5
A7C
331
A9B
  5
A9B
331
B2E
  5
B2E
331
A27
  5
A27
331
A46
  5
A46
331
9E9
  5
9E9
331
A08
  5
A08
331
994
  5
994
331
9B3
  5
9B3
331
975
  5
975
331
9D2
  5
9D2
331
A5D
  5
A5D
331
B2F
  5
B2F
331
AD2
  5
AD2
331
AF1
  5
AF1
331
A9C
  5
A9C
331
ABB
  5
ABB
331
A47
  5
A47
331
A5E
  5
A5E
331
A09
  5
A09
331
A28
  5
A28
331
9B4
  5
9B4
331
9D3
  5
9D3
331
976
  5
976
331
995
  5
995
331
9EA
  5
9EA
331
A7D
  5
A7D
331
B10
  5
B10
331
AF2
  5
AF2
331
B11
  5
B11
331
ABC
  5
ABC
331
AD3
  5
AD3
331
A5F
  5
A5F
331
A7E
  5
A7E
331
A29
  5
A29
331
A48
  5
A48
331
9EB
  5
9EB
331
A0A
  5
A0A
331
A9D
  5
A9D
331
B30
  5
B30
331
996
  5
996
331
9B5
  5
9B5
331
977
  5
977
331
9D4
  5
9D4
331
B40
  5
B40
331
B12
  5
B12
331
B31
  5
B31
331
AD4
  5
AD4
331
AF3
  5
AF3
331
A9E
  5
A9E
331
ABD
  5
ABD
331
A49
  5
A49
331
A60
  5
A60
331
A0B
  5
A0B
331
A2A
  5
A2A
331
9B6
  5
9B6
331
9D5
  5
9D5
331
978
  5
978
331
997
  5
997
331
9EC
  5
9EC
331
A7F
  5
A7F
331
B41
  5
B41
331
B60
  5
B60
331
818
  5
818
331
AF4
  5
AF4
331
B13
  5
B13
331
ABE
  5
ABE
331
AD5
  5
AD5
331
A61
  5
A61
331
A80
  5
A80
331
A2B
  5
A2B
331
A4A
  5
A4A
331
9D6
  5
9D6
331
9ED
  5
9ED
331
998
  5
998
331
9B7
  5
9B7
331
979
  5
979
331
A0C
  5
A0C
331
A9F
  5
A9F
331
B32
  5
B32
331
B61
  5
B61
331
B80
  5
B80
331
B42
  5
B42
331
838
  5
838
331
819
  5
819
331
B14
  5
B14
331
B33
  5
B33
331
AD6
  5
AD6
331
AF5
  5
AF5
331
A81
  5
A81
331
AA0
  5
AA0
331
A4B
  5
A4B
331
A62
  5
A62
331
A0D
  5
A0D
331
A2C
  5
A2C
331
ABF
  5
ABF
331
9B8
  5
9B8
331
9D7
  5
9D7
331
97A
  5
97A
331
999
  5
999
331
9EE
  5
9EE
331
B81
  5
B81
331
BA0
  5
BA0
331
B43
  5
B43
331
B62
  5
B62
331
858
  5
858
331
81A
  5
81A
331
839
  5
839
331
B34
  5
B34
331
AF6
  5
AF6
331
B15
  5
B15
331
AC0
  5
AC0
331
AD7
  5
AD7
331
A63
  5
A63
331
A82
  5
A82
331
A2D
  5
A2D
331
A4C
  5
A4C
331
9EF
  5
9EF
331
99A
  5
99A
331
9B9
  5
9B9
331
97B
  5
97B
331
A0E
  5
A0E
331
AA1
  5
AA1
331
BA1
  5
BA1
331
BB8
  5
BB8
331
B63
  5
B63
331
B82
  5
B82
331
B44
  5
B44
331
81B
  5
81B
331
83A
  5
83A
331
859
  5
859
331
B16
  5
B16
331
B35
  5
B35
331
AD8
  5
AD8
331
AF7
  5
AF7
331
A83
  5
A83
331
AA2
  5
AA2
331
A4D
  5
A4D
331
A64
  5
A64
331
9F0
  5
9F0
331
9BA
  5
9BA
331
A0F
  5
A0F
331
97C
  5
97C
331
99B
  5
99B
331
A2E
  5
A2E
331
AC1
  5
AC1
331
BB9
  5
BB9
331
BD8
  5
BD8
331
B83
  5
B83
331
BA2
  5
BA2
331
B45
  5
B45
331
B64
  5
B64
331
85A
  5
85A
331
81C
  5
81C
331
83B
  5
83B
331
B36
  5
B36
331
AF8
  5
AF8
331
B17
  5
B17
331
AA3
  5
AA3
331
AC2
  5
AC2
331
A65
  5
A65
331
A84
  5
A84
331
A2F
  5
A2F
331
A4E
  5
A4E
331
AD9
  5
AD9
331
9F1
  5
9F1
331
99C
  5
99C
331
9BB
  5
9BB
331
97D
  5
97D
331
A10
  5
A10
331
BD9
  5
BD9
331
BF8
  5
BF8
331
BA3
  5
BA3
331
BBA
  5
BBA
331
B46
  5
B46
331
B65
  5
B65
331
B84
  5
B84
331
81D
  5
81D
331
83C
  5
83C
331
85B
  5
85B
331
B18
  5
B18
331
B37
  5
B37
331
ADA
  5
ADA
331
AF9
  5
AF9
331
A85
  5
A85
331
AA4
  5
AA4
331
A4F
  5
A4F
331
A66
  5
A66
331
9F2
  5
9F2
331
9BC
  5
9BC
331
A11
  5
A11
331
97E
  5
97E
331
99D
  5
99D
331
A30
  5
A30
331
AC3
  5
AC3
331
BF9
  5
BF9
331
C18
  5
C18
331
BBB
  5
BBB
331
BDA
  5
BDA
331
B85
  5
B85
331
BA4
  5
BA4
331
B47
  5
B47
331
B66
  5
B66
331
7E8
  5
7E8
331
83D
  5
83D
331
85C
  5
85C
331
81E
  5
81E
331
B38
  5
B38
331
AFA
  5
AFA
331
B19
  5
B19
331
AA5
  5
AA5
331
AC4
  5
AC4
331
A67
  5
A67
331
A12
  5
A12
331
A31
  5
A31
331
9F3
  5
9F3
331
A86
  5
A86
331
99E
  5
99E
331
9BD
  5
9BD
331
ADB
  5
ADB
331
97F
  5
97F
331
C30
  5
C30
331
BDB
  5
BDB
331
BFA
  5
BFA
331
BA5
  5
BA5
331
BBC
  5
BBC
331
B48
  5
B48
331
B67
  5
B67
331
B86
  5
B86
331
C19
  5
C19
331
870
  5
870
331
7E9
  5
7E9
331
81F
  5
81F
331
83E
  5
83E
331
800
  5
800
331
85D
  5
85D
331
B1A
  5
B1A
331
B39
  5
B39
331
AC5
  5
AC5
331
ADC
  5
ADC
331
A87
  5
A87
331
AA6
  5
AA6
331
A68
  5
A68
331
AFB
  5
AFB
331
9F4
  5
9F4
331
9BE
  5
9BE
331
A13
  5
A13
331
99F
  5
99F
331
A32
  5
A32
331
C50
  5
C50
331
BFB
  5
BFB
331
C1A
  5
C1A
331
BBD
  5
BBD
331
BDC
  5
BDC
331
B68
  5
B68
331
B87
  5
B87
331
B49
  5
B49
331
BA6
  5
BA6
331
C31
  5
C31
331
7EA
  5
7EA
331
83F
  5
83F
331
85E
  5
85E
331
871
  5
871
331
801
  5
801
331
820
  5
820
331
890
  5
890
331
B3A
  5
B3A
331
AFC
  5
AFC
331
B1B
  5
B1B
331
AA7
  5
AA7
331
AC6
  5
AC6
331
A69
  5
A69
331
A14
  5
A14
331
A33
  5
A33
331
9F5
  5
9F5
331
A88
  5
A88
331
9BF
  5
9BF
331
ADD
  5
ADD
331
C70
  5
C70
331
C1B
  5
C1B
331
C32
  5
C32
331
BDD
  5
BDD
331
BFC
  5
BFC
331
BA7
  5
BA7
331
BBE
  5
BBE
331
C51
  5
C51
331
B4A
  5
B4A
331
B69
  5
B69
331
B88
  5
B88
331
872
  5
872
331
891
  5
891
331
85F
  5
85F
331
821
  5
821
331
840
  5
840
331
7EB
  5
7EB
331
802
  5
802
331
8B0
  5
8B0
331
B1C
  5
B1C
331
B3B
  5
B3B
331
AC7
  5
AC7
331
ADE
  5
ADE
331
A89
  5
A89
331
AA8
  5
AA8
331
A34
  5
A34
331
9F6
  5
9F6
331
A15
  5
A15
331
A6A
  5
A6A
331
AFD
  5
AFD
331
C90
  5
C90
331
C52
  5
C52
331
C71
  5
C71
331
BFD
  5
BFD
331
C1C
  5
C1C
331
BBF
  5
BBF
331
BDE
  5
BDE
331
B6A
  5
B6A
331
B89
  5
B89
331
B4B
  5
B4B
331
BA8
  5
BA8
331
C33
  5
C33
331
892
  5
892
331
8B1
  5
8B1
331
7EC
  5
7EC
331
841
  5
841
331
860
  5
860
331
873
  5
873
331
803
  5
803
331
822
  5
822
331
8D0
  5
8D0
331
B3C
  5
B3C
331
ADF
  5
ADF
331
AA9
  5
AA9
331
AFE
  5
AFE
331
A6B
  5
A6B
331
A16
  5
A16
331
A35
  5
A35
331
9F7
  5
9F7
331
A8A
  5
A8A
331
B1D
  5
B1D
331
CA8
  5
CA8
331
C72
  5
C72
331
C91
  5
C91
331
C1D
  5
C1D
331
C34
  5
C34
331
BDF
  5
BDF
331
BFE
  5
BFE
331
B8A
  5
B8A
331
BA9
  5
BA9
331
B4C
  5
B4C
331
B6B
  5
B6B
331
BC0
  5
BC0
331
C53
  5
C53
331
8D1
  5
8D1
331
8E8
  5
8E8
331
874
  5
874
331
893
  5
893
331
861
  5
861
331
823
  5
823
331
842
  5
842
331
7ED
  5
7ED
331
804
  5
804
331
8B2
  5
8B2
331
B1E
  5
B1E
331
B3D
  5
B3D
331
AE0
  5
AE0
331
A8B
  5
A8B
331
AAA
  5
AAA
331
A36
  5
A36
331
A17
  5
A17
331
A6C
  5
A6C
331
AFF
  5
AFF
331
CC8
  5
CC8
331
C92
  5
C92
331
CA9
  5
CA9
331
C35
  5
C35
331
C54
  5
C54
331
BFF
  5
BFF
331
C1E
  5
C1E
331
BC1
  5
BC1
331
BE0
  5
BE0
331
C73
  5
C73
331
B6C
  5
B6C
331
B8B
  5
B8B
331
B4D
  5
B4D
331
BAA
  5
BAA
331
8E9
  5
8E9
331
908
  5
908
331
894
  5
894
331
8B3
  5
8B3
331
7EE
  5
7EE
331
843
  5
843
331
862
  5
862
331
875
  5
875
331
805
  5
805
331
824
  5
824
331
8D2
  5
8D2
331
B3E
  5
B3E
331
AE1
  5
AE1
331
AAB
  5
AAB
331
B00
  5
B00
331
A6D
  5
A6D
331
A37
  5
A37
331
A8C
  5
A8C
331
B1F
  5
B1F
331
CE8
  5
CE8
331
CAA
  5
CAA
331
CC9
  5
CC9
331
C74
  5
C74
331
C93
  5
C93
331
C1F
  5
C1F
331
C36
  5
C36
331
BE1
  5
BE1
331
C00
  5
C00
331
B8C
  5
B8C
331
BAB
  5
BAB
331
B4E
  5
B4E
331
B6D
  5
B6D
331
BC2
  5
BC2
331
C55
  5
C55
331
909
  5
909
331
928
  5
928
331
8B4
  5
8B4
331
8D3
  5
8D3
331
876
  5
876
331
895
  5
895
331
863
  5
863
331
825
  5
825
331
844
  5
844
331
7EF
  5
7EF
331
8EA
  5
8EA
331
806
  5
806
331
B01
  5
B01
331
B20
  5
B20
331
AE2
  5
AE2
331
A8D
  5
A8D
331
AAC
  5
AAC
331
B3F
  5
B3F
331
A6E
  5
A6E
331
CCA
  5
CCA
331
CE9
  5
CE9
331
C94
  5
C94
331
CAB
  5
CAB
331
C37
  5
C37
331
C56
  5
C56
331
C01
  5
C01
331
C20
  5
C20
331
BAC
  5
BAC
331
BC3
  5
BC3
331
B6E
  5
B6E
331
B8D
  5
B8D
331
B4F
  5
B4F
331
BE2
  5
BE2
331
C75
  5
C75
331
929
  5
929
331
948
  5
948
331
8EB
  5
8EB
331
90A
  5
90A
331
896
  5
896
331
8B5
  5
8B5
331
7F0
  5
7F0
331
845
  5
845
331
864
  5
864
331
877
  5
877
331
807
  5
807
331
826
  5
826
331
8D4
  5
8D4
331
AE3
  5
AE3
331
AAD
  5
AAD
331
B02
  5
B02
331
A6F
  5
A6F
331
A8E
  5
A8E
331
B21
  5
B21
331
CEA
  5
CEA
331
CAC
  5
CAC
331
CCB
  5
CCB
331
C57
  5
C57
331
C76
  5
C76
331
C21
  5
C21
331
C38
  5
C38
331
BE3
  5
BE3
331
C02
  5
C02
331
C95
  5
C95
331
B8E
  5
B8E
331
BAD
  5
BAD
331
B50
  5
B50
331
B6F
  5
B6F
331
BC4
  5
BC4
331
949
  5
949
331
90B
  5
90B
331
92A
  5
92A
331
8B6
  5
8B6
331
8D5
  5
8D5
331
878
  5
878
331
897
  5
897
331
865
  5
865
331
827
  5
827
331
846
  5
846
331
7F1
  5
7F1
331
8EC
  5
8EC
331
808
  5
808
331
B03
  5
B03
331
B22
  5
B22
331
AE4
  5
AE4
331
A8F
  5
A8F
331
AAE
  5
AAE
331
CCC
  5
CCC
331
CEB
  5
CEB
331
C96
  5
C96
331
CAD
  5
CAD
331
C39
  5
C39
331
C58
  5
C58
331
C03
  5
C03
331
C22
  5
C22
331
BAE
  5
BAE
331
BC5
  5
BC5
331
B70
  5
B70
331
B8F
  5
B8F
331
B51
  5
B51
331
BE4
  5
BE4
331
C77
  5
C77
331
92B
  5
92B
331
94A
  5
94A
331
8D6
  5
8D6
331
8ED
  5
8ED
331
898
  5
898
331
8B7
  5
8B7
331
7F2
  5
7F2
331
847
  5
847
331
866
  5
866
331
879
  5
879
331
90C
  5
90C
331
809
  5
809
331
828
  5
828
331
B23
  5
B23
331
AE5
  5
AE5
331
AAF
  5
AAF
331
B04
  5
B04
331
CEC
  5
CEC
331
CAE
  5
CAE
331
CCD
  5
CCD
331
C59
  5
C59
331
C78
  5
C78
331
C23
  5
C23
331
C3A
  5
C3A
331
BC6
  5
BC6
331
BE5
  5
BE5
331
B90
  5
B90
331
BAF
  5
BAF
331
B52
  5
B52
331
B71
  5
B71
331
C04
  5
C04
331
C97
  5
C97
331
94B
  5
94B
331
90D
  5
90D
331
92C
  5
92C
331
8B8
  5
8B8
331
8D7
  5
8D7
331
87A
  5
87A
331
899
  5
899
331
867
  5
867
331
80A
  5
80A
331
829
  5
829
331
848
  5
848
331
7F3
  5
7F3
331
8EE
  5
8EE
331
B05
  5
B05
331
B24
  5
B24
331
AE6
  5
AE6
331
CCE
  5
CCE
331
CED
  5
CED
331
C79
  5
C79
331
C98
  5
C98
331
C3B
  5
C3B
331
C5A
  5
C5A
331
C05
  5
C05
331
C24
  5
C24
331
CAF
  5
CAF
331
BB0
  5
BB0
331
BC7
  5
BC7
331
B72
  5
B72
331
B91
  5
B91
331
B53
  5
B53
331
BE6
  5
BE6
331
92D
  5
92D
331
94C
  5
94C
331
8D8
  5
8D8
331
8EF
  5
8EF
331
89A
  5
89A
331
8B9
  5
8B9
331
7F4
  5
7F4
331
849
  5
849
331
868
  5
868
331
87B
  5
87B
331
90E
  5
90E
331
80B
  5
80B
331
82A
  5
82A
331
B25
  5
B25
331
AE7
  5
AE7
331
B06
  5
B06
331
CEE
  5
CEE
331
CB0
  5
CB0
331
CCF
  5
CCF
331
C5B
  5
C5B
331
C7A
  5
C7A
331
C25
  5
C25
331
C3C
  5
C3C
331
BC8
  5
BC8
331
BE7
  5
BE7
331
B92
  5
B92
331
BB1
  5
BB1
331
B54
  5
B54
331
B73
  5
B73
331
C06
  5
C06
331
C99
  5
C99
331
94D
  5
94D
331
8F0
  5
8F0
331
90F
  5
90F
331
8BA
  5
8BA
331
8D9
  5
8D9
331
87C
  5
87C
331
89B
  5
89B
331
92E
  5
92E
331
869
  5
869
331
80C
  5
80C
331
82B
  5
82B
331
84A
  5
84A
331
7F5
  5
7F5
331
B07
  5
B07
331
B26
  5
B26
331
CD0
  5
CD0
331
CEF
  5
CEF
331
C7B
  5
C7B
331
C9A
  5
C9A
331
C3D
  5
C3D
331
C5C
  5
C5C
331
BE8
  5
BE8
331
C07
  5
C07
331
BB2
  5
BB2
331
BC9
  5
BC9
331
B74
  5
B74
331
B93
  5
B93
331
C26
  5
C26
331
CB1
  5
CB1
331
B55
  5
B55
331
92F
  5
92F
331
94E
  5
94E
331
8DA
  5
8DA
331
8F1
  5
8F1
331
89C
  5
89C
331
8BB
  5
8BB
331
7F6
  5
7F6
331
82C
  5
82C
331
84B
  5
84B
331
80D
  5
80D
331
86A
  5
86A
331
87D
  5
87D
331
910
  5
910
331
B27
  5
B27
331
CF0
  5
CF0
331
C9B
  5
C9B
331
CB2
  5
CB2
331
C5D
  5
C5D
331
C7C
  5
C7C
331
C27
  5
C27
331
C3E
  5
C3E
331
CD1
  5
CD1
331
BCA
  5
BCA
331
BE9
  5
BE9
331
B94
  5
B94
331
BB3
  5
BB3
331
B56
  5
B56
331
B75
  5
B75
331
C08
  5
C08
331
94F
  5
94F
331
8F2
  5
8F2
331
911
  5
911
331
8BC
  5
8BC
331
8DB
  5
8DB
331
7F7
  5
7F7
331
86B
  5
86B
331
87E
  5
87E
331
89D
  5
89D
331
930
  5
930
331
80E
  5
80E
331
82D
  5
82D
331
84C
  5
84C
331
CD2
  5
CD2
331
CF1
  5
CF1
331
C7D
  5
C7D
331
C9C
  5
C9C
331
C3F
  5
C3F
331
C5E
  5
C5E
331
BEA
  5
BEA
331
C09
  5
C09
331
BB4
  5
BB4
331
BCB
  5
BCB
331
B57
  5
B57
331
B76
  5
B76
331
B95
  5
B95
331
C28
  5
C28
331
CB3
  5
CB3
331
912
  5
912
331
931
  5
931
331
8DC
  5
8DC
331
8F3
  5
8F3
331
89E
  5
89E
331
8BD
  5
8BD
331
950
  5
950
331
7F8
  5
7F8
331
82E
  5
82E
331
84D
  5
84D
331
80F
  5
80F
331
86C
  5
86C
331
87F
  5
87F
331
CF2
  5
CF2
331
C9D
  5
C9D
331
CB4
  5
CB4
331
C5F
  5
C5F
331
C7E
  5
C7E
331
C0A
  5
C0A
331
C29
  5
C29
331
BCC
  5
BCC
331
BEB
  5
BEB
331
B96
  5
B96
331
BB5
  5
BB5
331
C40
  5
C40
331
CD3
  5
CD3
331
B58
  5
B58
331
B77
  5
B77
331
951
  5
951
331
8F4
  5
8F4
331
913
  5
913
331
8BE
  5
8BE
331
8DD
  5
8DD
331
7F9
  5
7F9
331
84E
  5
84E
331
86D
  5
86D
331
880
  5
880
331
810
  5
810
331
82F
  5
82F
331
89F
  5
89F
331
932
  5
932
331
CB5
  5
CB5
331
CD4
  5
CD4
331
C7F
  5
C7F
331
C9E
  5
C9E
331
C41
  5
C41
331
C60
  5
C60
331
CF3
  5
CF3
331
BEC
  5
BEC
331
C0B
  5
C0B
331
BB6
  5
BB6
331
BCD
  5
BCD
331
B59
  5
B59
331
B78
  5
B78
331
B97
  5
B97
331
C2A
  5
C2A
331
914
  5
914
331
933
  5
933
331
8DE
  5
8DE
331
8F5
  5
8F5
331
881
  5
881
331
8A0
  5
8A0
331
7DB
  5
7DB
331
7FA
  5
7FA
331
8BF
  5
8BF
331
952
  5
952
331
830
  5
830
331
84F
  5
84F
331
811
  5
811
331
86E
  5
86E
331
CF4
  5
CF4
331
C9F
  5
C9F
331
CB6
  5
CB6
331
C61
  5
C61
331
C80
  5
C80
331
C0C
  5
C0C
331
C2B
  5
C2B
331
BCE
  5
BCE
331
BED
  5
BED
331
B79
  5
B79
331
B98
  5
B98
331
B5A
  5
B5A
331
BB7
  5
BB7
331
C42
  5
C42
331
CD5
  5
CD5
331
934
  5
934
331
953
  5
953
331
8F6
  5
8F6
331
915
  5
915
331
8C0
  5
8C0
331
8DF
  5
8DF
331
7FB
  5
7FB
331
882
  5
882
331
850
  5
850
331
86F
  5
86F
331
812
  5
812
331
831
  5
831
331
7DC
  5
7DC
331
8A1
  5
8A1
331
CB7
  5
CB7
331
CD6
  5
CD6
331
C81
  5
C81
331
CA0
  5
CA0
331
C2C
  5
C2C
331
C43
  5
C43
331
BEE
  5
BEE
331
C0D
  5
C0D
331
BCF
  5
BCF
331
C62
  5
C62
331
CF5
  5
CF5
331
B5B
  5
B5B
331
B7A
  5
B7A
331
B99
  5
B99
331
916
  5
916
331
935
  5
935
331
8E0
  5
8E0
331
8F7
  5
8F7
331
883
  5
883
331
8A2
  5
8A2
331
7DD
  5
7DD
331
832
  5
832
331
851
  5
851
331
7FC
  5
7FC
331
813
  5
813
331
8C1
  5
8C1
331
954
  5
954
331
CD7
  5
CD7
331
CF6
  5
CF6
331
CA1
  5
CA1
331
CB8
  5
CB8
331
C63
  5
C63
331
C82
  5
C82
331
C0E
  5
C0E
331
C2D
  5
C2D
331
BD0
  5
BD0
331
B7B
  5
B7B
331
B9A
  5
B9A
331
B5C
  5
B5C
331
BEF
  5
BEF
331
C44
  5
C44
331
936
  5
936
331
955
  5
955
331
8F8
  5
8F8
331
917
  5
917
331
8A3
  5
8A3
331
8C2
  5
8C2
331
7FD
  5
7FD
331
884
  5
884
331
852
  5
852
331
814
  5
814
331
833
  5
833
331
7DE
  5
7DE
331
8E1
  5
8E1
331
CB9
  5
CB9
331
CD8
  5
CD8
331
C83
  5
C83
331
CA2
  5
CA2
331
C2E
  5
C2E
331
C45
  5
C45
331
BF0
  5
BF0
331
C0F
  5
C0F
331
B9B
  5
B9B
331
B5D
  5
B5D
331
B7C
  5
B7C
331
BD1
  5
BD1
331
C64
  5
C64
331
CF7
  5
CF7
331
956
  5
956
331
918
  5
918
331
937
  5
937
331
8E2
  5
8E2
331
8F9
  5
8F9
331
885
  5
885
331
8A4
  5
8A4
331
7DF
  5
7DF
331
834
  5
834
331
853
  5
853
331
7FE
  5
7FE
331
815
  5
815
331
8C3
  5
8C3
331
CD9
  5
CD9
331
CF8
  5
CF8
331
CA3
  5
CA3
331
CBA
  5
CBA
331
C46
  5
C46
331
C65
  5
C65
331
C10
  5
C10
331
C2F
  5
C2F
331
BD2
  5
BD2
331
B7D
  5
B7D
331
B9C
  5
B9C
331
B5E
  5
B5E
331
BF1
  5
BF1
331
C84
  5
C84
331
938
  5
938
331
957
  5
957
331
8FA
  5
8FA
331
919
  5
919
331
8A5
  5
8A5
331
8C4
  5
8C4
331
7FF
  5
7FF
331
886
  5
886
331
854
  5
854
331
816
  5
816
331
835
  5
835
331
7E0
  5
7E0
331
8E3
  5
8E3
331
CF9
  5
CF9
331
CBB
  5
CBB
331
CDA
  5
CDA
331
C85
  5
C85
331
CA4
  5
CA4
331
C47
  5
C47
331
BF2
  5
BF2
331
C11
  5
C11
331
B9D
  5
B9D
331
B5F
  5
B5F
331
B7E
  5
B7E
331
BD3
  5
BD3
331
C66
  5
C66
331
958
  5
958
331
91A
  5
91A
331
939
  5
939
331
8C5
  5
8C5
331
8E4
  5
8E4
331
887
  5
887
331
7E1
  5
7E1
331
8A6
  5
8A6
331
836
  5
836
331
855
  5
855
331
8FB
  5
8FB
331
817
  5
817
331
CDB
  5
CDB
331
CFA
  5
CFA
331
CA5
  5
CA5
331
CBC
  5
CBC
331
C48
  5
C48
331
C12
  5
C12
331
C67
  5
C67
331
BD4
  5
BD4
331
B7F
  5
B7F
331
B9E
  5
B9E
331
BF3
  5
BF3
331
C86
  5
C86
331
93A
  5
93A
331
959
  5
959
331
8FC
  5
8FC
331
91B
  5
91B
331
8A7
  5
8A7
331
8C6
  5
8C6
331
888
  5
888
331
856
  5
856
331
837
  5
837
331
7E2
  5
7E2
331
8E5
  5
8E5
331
CBD
  5
CBD
331
CDC
  5
CDC
331
C68
  5
C68
331
C87
  5
C87
331
C49
  5
C49
331
BF4
  5
BF4
331
C13
  5
C13
331
CA6
  5
CA6
331
B9F
  5
B9F
331
BD5
  5
BD5
331
95A
  5
95A
331
91C
  5
91C
331
93B
  5
93B
331
8C7
  5
8C7
331
8E6
  5
8E6
331
889
  5
889
331
7E3
  5
7E3
331
8A8
  5
8A8
331
857
  5
857
331
8FD
  5
8FD
331
CDD
  5
CDD
331
CA7
  5
CA7
331
CBE
  5
CBE
331
C4A
  5
C4A
331
C14
  5
C14
331
C69
  5
C69
331
BD6
  5
BD6
331
BF5
  5
BF5
331
C88
  5
C88
331
93C
  5
93C
331
95B
  5
95B
331
8E7
  5
8E7
331
8FE
  5
8FE
331
8A9
  5
8A9
331
8C8
  5
8C8
331
88A
  5
88A
331
91D
  5
91D
331
7E4
  5
7E4
331
CBF
  5
CBF
331
C6A
  5
C6A
331
C89
  5
C89
331
C4B
  5
C4B
331
CDE
  5
CDE
331
BD7
  5
BD7
331
BF6
  5
BF6
331
C15
  5
C15
331
95C
  5
95C
331
91E
  5
91E
331
93D
  5
93D
331
8C9
  5
8C9
331
88B
  5
88B
331
7E5
  5
7E5
331
8AA
  5
8AA
331
8FF
  5
8FF
331
CDF
  5
CDF
331
C8A
  5
C8A
331
C4C
  5
C4C
331
C16
  5
C16
331
C6B
  5
C6B
331
CC0
  5
CC0
331
BF7
  5
BF7
331
93E
  5
93E
331
95D
  5
95D
331
900
  5
900
331
8AB
  5
8AB
331
8CA
  5
8CA
331
7E6
  5
7E6
331
88C
  5
88C
331
91F
  5
91F
331
CC1
  5
CC1
331
C6C
  5
C6C
331
C8B
  5
C8B
331
C4D
  5
C4D
331
CE0
  5
CE0
331
C17
  5
C17
331
95E
  5
95E
331
901
  5
901
331
8CB
  5
8CB
331
920
  5
920
331
88D
  5
88D
331
7E7
  5
7E7
331
8AC
  5
8AC
331
93F
  5
93F
331
CE1
  5
CE1
331
C8C
  5
C8C
331
C4E
  5
C4E
331
C6D
  5
C6D
331
CC2
  5
CC2
331
940
  5
940
331
95F
  5
95F
331
902
  5
902
331
8AD
  5
8AD
331
8CC
  5
8CC
331
88E
  5
88E
331
921
  5
921
331
CC3
  5
CC3
331
C6E
  5
C6E
331
C8D
  5
C8D
331
C4F
  5
C4F
331
CE2
  5
CE2
331
903
  5
903
331
8CD
  5
8CD
331
922
  5
922
331
88F
  5
88F
331
8AE
  5
8AE
331
941
  5
941
331
CE3
  5
CE3
331
C8E
  5
C8E
331
C6F
  5
C6F
331
CC4
  5
CC4
331
923
  5
923
331
942
  5
942
331
960
  5
960
331
904
  5
904
331
8AF
  5
8AF
331
8CE
  5
8CE
331
CC5
  5
CC5
331
C8F
  5
C8F
331
CE4
  5
CE4
331
961
  5
961
331
980
  5
980
331
905
  5
905
331
8CF
  5
8CF
331
924
  5
924
331
943
  5
943
331
CC6
  5
CC6
331
CE5
  5
CE5
331
981
  5
981
331
9A0
  5
9A0
331
925
  5
925
331
944
  5
944
331
962
  5
962
331
906
  5
906
331
CC7
  5
CC7
331
CE6
  5
CE6
331
9C0
  5
9C0
331
945
  5
945
331
963
  5
963
331
982
  5
982
331
907
  5
907
331
926
  5
926
331
9A1
  5
9A1
331
CE7
  5
CE7
331
D16
  5
D14
331
9D8
  5
9D8
331
983
  5
983
331
9A2
  5
9A2
331
927
  5
927
331
946
  5
946
331
964
  5
964
331
9C1
  5
9C1
331
D17
  5
D17
331
9F8
  5
9F8
331
9A3
  5
9A3
331
9C2
  5
9C2
331
947
  5
947
331
965
  5
965
331
984
  5
984
331
9D9
  5
9D9
331
A18
  5
A18
331
9DA
  5
9DA
331
9F9
  5
9F9
331
985
  5
985
331
9A4
  5
9A4
331
966
  5
966
331
9C3
  5
9C3
331
A38
  5
A38
331
9FA
  5
9FA
331
A19
  5
A19
331
9A5
  5
9A5
331
9C4
  5
9C4
331
967
  5
967
331
986
  5
986
331
9DB
  5
9DB
331
A50
  5
A50
331
A1A
  5
A1A
331
A39
  5
A39
331
9C5
  5
9C5
331
9DC
  5
9DC
331
987
  5
987
331
9A6
  5
9A6
331
968
  5
968
331
9FB
  5
9FB
331
A70
  5
A70
331
A3A
  5
A3A
331
A51
  5
A51
331
9FC
  5
9FC
331
A1B
  5
A1B
331
9A7
  5
9A7
331
9C6
  5
9C6
331
969
  5
969
331
988
  5
988
331
9DD
  5
9DD
331
A52
  5
A52
331
A71
  5
A71
331
A1C
  5
A1C
331
A3B
  5
A3B
331
9C7
  5
9C7
331
9DE
  5
9DE
331
989
  5
989
331
9A8
  5
9A8
331
96A
  5
96A
331
9FD
  5
9FD
331
A90
  5
A90
331
A72
  5
A72
331
A91
  5
A91
331
A3C
  5
A3C
331
A53
  5
A53
331
9DF
  5
9DF
331
9FE
  5
9FE
331
9A9
  5
9A9
331
9C8
  5
9C8
331
96B
  5
96B
331
98A
  5
98A
331
A1D
  5
A1D
331
AB0
  5
AB0
331
A92
  5
A92
331
AB1
  5
AB1
331
A54
  5
A54
331
A73
  5
A73
331
A1E
  5
A1E
331
A3D
  5
A3D
331
AC8
  5
AC8
331
9C9
  5
9C9
331
9E0
  5
9E0
331
98B
  5
98B
331
9AA
  5
9AA
331
96C
  5
96C
331
9FF
  5
9FF
331
AC9
  5
AC9
331
AE8
  5
AE8
331
A74
  5
A74
331
A93
  5
A93
331
A3E
  5
A3E
331
A55
  5
A55
331
9E1
  5
9E1
331
A00
  5
A00
331
9AB
  5
9AB
331
9CA
  5
9CA
331
96D
  5
96D
331
98C
  5
98C
331
A1F
  5
A1F
331
AB2
  5
AB2
331
AE9
  5
AE9
331
B08
  5
B08
331
A94
  5
A94
331
AB3
  5
AB3
331
A56
  5
A56
331
A75
  5
A75
331
A01
  5
A01
331
A20
  5
A20
331
9CB
  5
9CB
331
9E2
  5
9E2
331
98D
  5
98D
331
9AC
  5
9AC
331
A3F
  5
A3F
331
ACA
  5
ACA
331
96E
  5
96E
331
B09
  5
B09
331
B28
  5
B28
331
AB4
  5
AB4
331
ACB
  5
ACB
331
A76
  5
A76
331
A95
  5
A95
331
A40
  5
A40
331
A57
  5
A57
331
AEA
  5
AEA
331
9E3
  5
9E3
331
A02
  5
A02
331
9AD
  5
9AD
331
9CC
  5
9CC
331
96F
  5
96F
331
98E
  5
98E
331
A21
  5
A21
331
B29
  5
B29
331
AEB
  5
AEB
331
B0A
  5
B0A
331
A96
  5
A96
331
AB5
  5
AB5
331
A58
  5
A58
331
A77
  5
A77
331
A03
  5
A03
331
A22
  5
A22
331
9CD
  5
9CD
331
9E4
  5
9E4
331
970
  5
970
331
98F
  5
98F
331
9AE
  5
9AE
331
A41
  5
A41
331
ACC
  5
ACC
331
B0B
  5
B0B
331
B2A
  5
B2A
331
AB6
  5
AB6
331
ACD
  5
ACD
331
A78
  5
A78
331
A97
  5
A97
331
A23
  5
A23
331
A42
  5
A42
331
9E5
  5
9E5
331
A04
  5
A04
331
9AF
  5
9AF
331
9CE
  5
9CE
331
A59
  5
A59
331
AEC
  5
AEC
331
971
  5
971
331
990
  5
990
331
B2B
  5
B2B
331
AED
  5
AED
331
A98
  5
A98
331
AB7
  5
AB7
331
A5A
  5
A5A
331
A79
  5
A79
331
B0C
  5
B0C
331
A05
  5
A05
331
A24
  5
A24
331
9CF
  5
9CF
331
9E6
  5
9E6
331
972
  5
972
331
991
  5
991
331
9B0
  5
9B0
331
A43
  5
A43
  0
LAYOUT
  5
D3
102
{ACAD_XDICTIONARY
360
D54
102
}
102
{ACAD_REACTORS
330
1A
102
}
330
1A
100
AcDbPlotSettings
  1

  2
C:\Documents and Settings\basas\Application Data\Autodesk\AutoCAD 2005\R16.1\enu\plotters\Default Windows System Printer.pc3
  4

  6

 40
0.0
 41
0.0
 42
0.0
 43
0.0
 44
0.0
 45
0.0
 46
0.0
 47
0.0
 48
0.0
 49
0.0
140
0.0
141
0.0
142
1.0
143
1.0
 70
   688
 72
     0
 73
     0
 74
     5
  7

 75
    16
147
1.0
148
0.0
149
0.0
100
AcDbLayout
  1
Layout1
 70
     1
 71
     1
 10
0.0
 20
0.0
 11
12.0
 21
9.0
 12
0.0
 22
0.0
 32
0.0
 14
0.0
 24
0.0
 34
0.0
 15
0.0
 25
0.0
 35
0.0
146
0.0
 13
0.0
 23
0.0
 33
0.0
 16
1.0
 26
0.0
 36
0.0
 17
0.0
 27
1.0
 37
0.0
 76
     0
330
D2
  0
LAYOUT
  5
D7
102
{ACAD_XDICTIONARY
360
D56
102
}
102
{ACAD_REACTORS
330
1A
102
}
330
1A
100
AcDbPlotSettings
  1

  2
C:\Documents and Settings\basas\Application Data\Autodesk\AutoCAD 2005\R16.1\enu\plotters\Default Windows System Printer.pc3
  4

  6

 40
0.0
 41
0.0
 42
0.0
 43
0.0
 44
0.0
 45
0.0
 46
0.0
 47
0.0
 48
0.0
 49
0.0
140
0.0
141
0.0
142
1.0
143
1.0
 70
   688
 72
     0
 73
     0
 74
     5
  7

 75
    16
147
1.0
148
0.0
149
0.0
100
AcDbLayout
  1
Layout2
 70
     1
 71
     2
 10
0.0
 20
0.0
 11
12.0
 21
9.0
 12
0.0
 22
0.0
 32
0.0
 14
0.0
 24
0.0
 34
0.0
 15
0.0
 25
0.0
 35
0.0
146
0.0
 13
0.0
 23
0.0
 33
0.0
 16
1.0
 26
0.0
 36
0.0
 17
0.0
 27
1.0
 37
0.0
 76
     0
330
D6
  0
LAYOUT
  5
22
102
{ACAD_XDICTIONARY
360
D52
102
}
102
{ACAD_REACTORS
330
1A
102
}
330
1A
100
AcDbPlotSettings
  1

  2
none_device
  4
ISO_A4_(210.00_x_297.00_MM)
  6

 40
7.5
 41
20.0
 42
7.5
 43
20.0
 44
210.0
 45
297.0
 46
11.54999923706054
 47
-13.65000009536743
 48
0.0
 49
0.0
140
0.0
141
0.0
142
1.0
143
8.704084754739808
 70
 11952
 72
     1
 73
     0
 74
     0
  7

 75
     0
147
0.1148885871608098
148
0.0
149
0.0
100
AcDbLayout
  1
Model
 70
     1
 71
     0
 10
0.0
 20
0.0
 11
12.0
 21
9.0
 12
0.0
 22
0.0
 32
0.0
 14
0.0
 24
0.0
 34
0.0
 15
0.0
 25
0.0
 35
0.0
146
0.0
 13
0.0
 23
0.0
 33
0.0
 16
1.0
 26
0.0
 36
0.0
 17
0.0
 27
1.0
 37
0.0
 76
     0
330
1F
1001
ACAD_PSEXT
1000
None
1000
None
1000
Not applicable
1000
The layout will not be plotted unless a new plotter configuration name is selected.
1070
     0
  0
MLINESTYLE
  5
18
102
{ACAD_REACTORS
330
17
102
}
330
17
100
AcDbMlineStyle
  2
STANDARD
 70
     0
  3

 62
   256
 51
90.0
 52
90.0
 71
     2
 49
0.5
 62
   256
  6
BYLAYER
 49
-0.5
 62
   256
  6
BYLAYER
  0
ACDBPLACEHOLDER
  5
F
102
{ACAD_REACTORS
330
E
102
}
330
E
  0
TABLESTYLE
  5
7F
102
{ACAD_REACTORS
330
7E
102
}
330
7E
100
AcDbTableStyle
  3
Standard
 70
     0
 71
     0
 40
1.5
 41
1.5
280
     0
281
     0
  7
Standard
140
4.5
170
     2
 62
     0
 63
     7
283
     0
274
    -2
284
     1
 64
     0
275
    -2
285
     1
 65
     0
276
    -2
286
     1
 66
     0
277
    -2
287
     1
 67
     0
278
    -2
288
     1
 68
     0
279
    -2
289
     1
 69
     0
  7
Standard
140
6.0
170
     5
 62
     0
 63
     7
283
     0
274
    -2
284
     1
 64
     0
275
    -2
285
     1
 65
     0
276
    -2
286
     1
 66
     0
277
    -2
287
     1
 67
     0
278
    -2
288
     1
 68
     0
279
    -2
289
     1
 69
     0
  7
Standard
140
4.5
170
     5
 62
     0
 63
     7
283
     0
274
    -2
284
     1
 64
     0
275
    -2
285
     1
 65
     0
276
    -2
286
     1
 66
     0
277
    -2
287
     1
 67
     0
278
    -2
288
     1
 68
     0
279
    -2
289
     1
 69
     0
  0
DICTIONARYVAR
  5
84
102
{ACAD_REACTORS
330
5E
102
}
330
5E
100
DictionaryVariables
280
     0
  1
STANDARD
  0
DICTIONARYVAR
  5
5F
102
{ACAD_REACTORS
330
5E
102
}
330
5E
100
DictionaryVariables
280
     0
  1
2
  0
DICTIONARYVAR
  5
63
102
{ACAD_REACTORS
330
5E
102
}
330
5E
100
DictionaryVariables
280
     0
  1
1
  0
DICTIONARYVAR
  5
133
102
{ACAD_REACTORS
330
5E
102
}
330
5E
100
DictionaryVariables
280
     0
  1

  0
DICTIONARY
  5
D54
330
D3
100
AcDbDictionary
280
     1
281
     1
  3
ACAD_XREC_ROUNDTRIP
360
D55
  0
DICTIONARY
  5
D56
330
D7
100
AcDbDictionary
280
     1
281
     1
  3
ACAD_XREC_ROUNDTRIP
360
D57
  0
DICTIONARY
  5
D52
330
22
100
AcDbDictionary
280
     1
281
     1
  3
ACAD_XREC_ROUNDTRIP
360
D53
  0
XRECORD
  5
D55
102
{ACAD_REACTORS
330
D54
102
}
330
D54
100
AcDbXrecord
280
     1
102
SHADEPLOT
 70
     0
102
SHADEPLOTRESLEVEL
 70
     2
102
SHADEPLOTCUSTOMDPI
 70
   300
  0
XRECORD
  5
D57
102
{ACAD_REACTORS
330
D56
102
}
330
D56
100
AcDbXrecord
280
     1
102
SHADEPLOT
 70
     0
102
SHADEPLOTRESLEVEL
 70
     2
102
SHADEPLOTCUSTOMDPI
 70
   300
  0
XRECORD
  5
D53
102
{ACAD_REACTORS
330
D52
102
}
330
D52
100
AcDbXrecord
280
     1
102
SHADEPLOT
 70
     0
102
SHADEPLOTRESLEVEL
 70
     2
102
SHADEPLOTCUSTOMDPI
 70
   300
  0
ENDSEC
  0
EOF
