999
"DXF R12 Output" (www.mydxf.blogspot.com)
 0 
SECTION
 2 
HEADER
 9 
$ACADVER
 1 
AC1009
 9 
$EXTMIN
 10 
 0 
 20 
 0 
 9 
$EXTMAX
 10 
 8.5 
 20 
 11 
 0 
ENDSEC
 0 
SECTION
 2 
ENTITIES
0
LINE
8
Layer 1
10
0.846666
20
286.832000
11
-0.846666
21
285.138000
0
LINE
8
Layer 1
10
0.000000
20
287.396000
11
0.000000
21
284.574000
0
LINE
8
Layer 1
10
2.257780
20
284.856000
11
1.128890
21
283.727110
0
LINE
8
Layer 1
10
1.693330
20
285.421000
11
0.564440
21
284.292110
0
LINE
8
Layer 1
10
1.128890
20
285.985000
11
0.000000
21
284.856110
0
LINE
8
Layer 1
10
357.499000
20
99.910900
11
357.499000
21
136.861000
0
LINE
8
Layer 1
10
357.499000
20
136.861000
11
357.217587
21
141.099705
0
LINE
8
Layer 1
10
357.217587
20
141.099705
11
356.391302
21
145.210361
0
LINE
8
Layer 1
10
356.391302
20
145.210361
11
355.047069
21
149.146335
0
LINE
8
Layer 1
10
355.047069
20
149.146335
11
353.211810
21
152.860993
0
LINE
8
Layer 1
10
353.211810
20
152.860993
11
350.912450
21
156.307701
0
LINE
8
Layer 1
10
350.912450
20
156.307701
11
348.175912
21
159.439828
0
LINE
8
Layer 1
10
348.175912
20
159.439828
11
345.029121
21
162.210738
0
LINE
8
Layer 1
10
345.029121
20
162.210738
11
341.499000
21
164.573800
0
LINE
8
Layer 1
10
341.499000
20
164.574000
11
181.499000
21
256.950000
0
LINE
8
Layer 1
10
181.499000
20
256.950000
11
177.687467
21
258.825644
0
LINE
8
Layer 1
10
177.687467
20
258.825644
11
173.714390
21
260.165390
0
LINE
8
Layer 1
10
173.714390
20
260.165390
11
169.633619
21
260.969238
0
LINE
8
Layer 1
10
169.633619
20
260.969238
11
165.499000
21
261.237187
0
LINE
8
Layer 1
10
165.499000
20
261.237187
11
161.364381
21
260.969238
0
LINE
8
Layer 1
10
161.364381
20
260.969238
11
157.283610
21
260.165390
0
LINE
8
Layer 1
10
157.283610
20
260.165390
11
153.310533
21
258.825644
0
LINE
8
Layer 1
10
153.310533
20
258.825644
11
149.499000
21
256.950000
0
LINE
8
Layer 1
10
149.499000
20
256.950000
11
117.499000
21
238.475000
0
LINE
8
Layer 1
10
117.499000
20
238.475000
11
113.968879
21
236.111938
0
LINE
8
Layer 1
10
113.968879
20
236.111938
11
110.822088
21
233.341028
0
LINE
8
Layer 1
10
110.822088
20
233.341028
11
108.085550
21
230.208901
0
LINE
8
Layer 1
10
108.085550
20
230.208901
11
105.786190
21
226.762193
0
LINE
8
Layer 1
10
105.786190
20
226.762193
11
103.950931
21
223.047535
0
LINE
8
Layer 1
10
103.950931
20
223.047535
11
102.606698
21
219.111561
0
LINE
8
Layer 1
10
102.606698
20
219.111561
11
101.780413
21
215.000905
0
LINE
8
Layer 1
10
101.780413
20
215.000905
11
101.499000
21
210.762200
0
LINE
8
Layer 1
10
101.499000
20
210.762000
11
101.499000
21
26.010100
0
LINE
8
Layer 1
10
101.499000
20
26.010100
11
101.780413
21
21.771395
0
LINE
8
Layer 1
10
101.780413
20
21.771395
11
102.606698
21
17.660739
0
LINE
8
Layer 1
10
102.606698
20
17.660739
11
103.950931
21
13.724765
0
LINE
8
Layer 1
10
103.950931
20
13.724765
11
105.786190
21
10.010107
0
LINE
8
Layer 1
10
105.786190
20
10.010107
11
108.085550
21
6.563399
0
LINE
8
Layer 1
10
108.085550
20
6.563399
11
110.822088
21
3.431272
0
LINE
8
Layer 1
10
110.822088
20
3.431272
11
113.968879
21
0.660362
0
LINE
8
Layer 1
10
113.968879
20
0.660362
11
117.499000
21
-1.702700
0
LINE
8
Layer 1
10
117.499000
20
-1.702710
11
149.499000
21
-20.177910
0
LINE
8
Layer 1
10
149.499000
20
-20.177900
11
153.310533
21
-22.053544
0
LINE
8
Layer 1
10
153.310533
20
-22.053544
11
157.283610
21
-23.393290
0
LINE
8
Layer 1
10
157.283610
20
-23.393290
11
161.364381
21
-24.197138
0
LINE
8
Layer 1
10
161.364381
20
-24.197138
11
165.499000
21
-24.465087
0
LINE
8
Layer 1
10
165.499000
20
-24.465087
11
169.633619
21
-24.197138
0
LINE
8
Layer 1
10
169.633619
20
-24.197138
11
173.714390
21
-23.393290
0
LINE
8
Layer 1
10
173.714390
20
-23.393290
11
177.687467
21
-22.053544
0
LINE
8
Layer 1
10
177.687467
20
-22.053544
11
181.499000
21
-20.177900
0
LINE
8
Layer 1
10
181.499000
20
-20.177900
11
341.499000
21
72.198100
0
LINE
8
Layer 1
10
341.499000
20
72.198100
11
345.029121
21
74.561162
0
LINE
8
Layer 1
10
345.029121
20
74.561162
11
348.175912
21
77.332072
0
LINE
8
Layer 1
10
348.175912
20
77.332072
11
350.912450
21
80.464199
0
LINE
8
Layer 1
10
350.912450
20
80.464199
11
353.211810
21
83.910907
0
LINE
8
Layer 1
10
353.211810
20
83.910907
11
355.047069
21
87.625565
0
LINE
8
Layer 1
10
355.047069
20
87.625565
11
356.391302
21
91.561539
0
LINE
8
Layer 1
10
356.391302
20
91.561539
11
357.217587
21
95.672195
0
LINE
8
Layer 1
10
357.217587
20
95.672195
11
357.499000
21
99.910900
0
LINE
8
Layer 1
10
152.939000
20
127.986000
11
152.939000
21
121.586000
0
LINE
8
Layer 1
10
152.939000
20
121.586000
11
147.606000
21
121.586000
0
LINE
8
Layer 1
10
147.606000
20
121.586000
11
147.606000
21
127.986000
0
LINE
8
Layer 1
10
147.606000
20
127.986000
11
152.939000
21
127.986000
0
LINE
8
Layer 1
10
134.153000
20
121.586000
11
134.153000
21
127.986000
0
LINE
8
Layer 1
10
134.153000
20
127.986000
11
139.486000
21
127.986000
0
LINE
8
Layer 1
10
139.486000
20
127.986000
11
139.486000
21
121.586000
0
LINE
8
Layer 1
10
139.486000
20
121.586000
11
134.153000
21
121.586000
0
LINE
8
Layer 1
10
120.699000
20
121.586000
11
120.699000
21
127.986000
0
LINE
8
Layer 1
10
120.699000
20
127.986000
11
126.033000
21
127.986000
0
LINE
8
Layer 1
10
126.033000
20
127.986000
11
126.033000
21
121.586000
0
LINE
8
Layer 1
10
126.033000
20
121.586000
11
120.699000
21
121.586000
0
LINE
8
Layer 1
10
126.033000
20
108.786000
11
120.699000
21
108.786000
0
LINE
8
Layer 1
10
120.699000
20
108.786000
11
120.699000
21
115.186000
0
LINE
8
Layer 1
10
120.699000
20
115.186000
11
126.033000
21
115.186000
0
LINE
8
Layer 1
10
126.033000
20
115.186000
11
126.033000
21
108.786000
0
LINE
8
Layer 1
10
139.486000
20
108.786000
11
134.153000
21
108.786000
0
LINE
8
Layer 1
10
134.153000
20
108.786000
11
134.153000
21
115.186000
0
LINE
8
Layer 1
10
134.153000
20
115.186000
11
139.486000
21
115.186000
0
LINE
8
Layer 1
10
139.486000
20
115.186000
11
139.486000
21
108.786000
0
LINE
8
Layer 1
10
152.939000
20
108.786000
11
147.606000
21
108.786000
0
LINE
8
Layer 1
10
147.606000
20
108.786000
11
147.606000
21
115.186000
0
LINE
8
Layer 1
10
147.606000
20
115.186000
11
152.939000
21
115.186000
0
LINE
8
Layer 1
10
152.939000
20
115.186000
11
152.939000
21
108.786000
0
LINE
8
Layer 1
10
127.426000
20
121.586000
11
132.759000
21
121.586000
0
LINE
8
Layer 1
10
132.759000
20
121.586000
11
132.759000
21
115.186000
0
LINE
8
Layer 1
10
132.759000
20
115.186000
11
127.426000
21
115.186000
0
LINE
8
Layer 1
10
127.426000
20
115.186000
11
127.426000
21
121.586000
0
LINE
8
Layer 1
10
140.879000
20
121.586000
11
146.213000
21
121.586000
0
LINE
8
Layer 1
10
146.213000
20
121.586000
11
146.213000
21
115.186000
0
LINE
8
Layer 1
10
146.213000
20
115.186000
11
140.879000
21
115.186000
0
LINE
8
Layer 1
10
140.879000
20
115.186000
11
140.879000
21
121.586000
0
LINE
8
Layer 1
10
168.699000
20
229.237000
11
168.589457
21
230.073064
0
LINE
8
Layer 1
10
168.589457
20
230.073064
11
168.272170
21
230.839390
0
LINE
8
Layer 1
10
168.272170
20
230.839390
11
167.768708
21
231.498520
0
LINE
8
Layer 1
10
167.768708
20
231.498520
11
167.100638
21
232.012995
0
LINE
8
Layer 1
10
167.100638
20
232.012995
11
166.321433
21
232.335241
0
LINE
8
Layer 1
10
166.321433
20
232.335241
11
165.499005
21
232.442657
0
LINE
8
Layer 1
10
165.499005
20
232.442657
11
164.676577
21
232.335241
0
LINE
8
Layer 1
10
164.676577
20
232.335241
11
163.897372
21
232.012995
0
LINE
8
Layer 1
10
163.897372
20
232.012995
11
163.229302
21
231.498520
0
LINE
8
Layer 1
10
163.229302
20
231.498520
11
162.725840
21
230.839390
0
LINE
8
Layer 1
10
162.725840
20
230.839390
11
162.408553
21
230.073064
0
LINE
8
Layer 1
10
162.408553
20
230.073064
11
162.299010
21
229.237000
0
LINE
8
Layer 1
10
162.299010
20
229.237000
11
162.408553
21
228.400936
0
LINE
8
Layer 1
10
162.408553
20
228.400936
11
162.725840
21
227.634610
0
LINE
8
Layer 1
10
162.725840
20
227.634610
11
163.229302
21
226.975480
0
LINE
8
Layer 1
10
163.229302
20
226.975480
11
163.897372
21
226.461005
0
LINE
8
Layer 1
10
163.897372
20
226.461005
11
164.676577
21
226.138759
0
LINE
8
Layer 1
10
164.676577
20
226.138759
11
165.499005
21
226.031343
0
LINE
8
Layer 1
10
165.499005
20
226.031343
11
166.321433
21
226.138759
0
LINE
8
Layer 1
10
166.321433
20
226.138759
11
167.100638
21
226.461005
0
LINE
8
Layer 1
10
167.100638
20
226.461005
11
167.768708
21
226.975480
0
LINE
8
Layer 1
10
167.768708
20
226.975480
11
168.272170
21
227.634610
0
LINE
8
Layer 1
10
168.272170
20
227.634610
11
168.589457
21
228.400936
0
LINE
8
Layer 1
10
168.589457
20
228.400936
11
168.699000
21
229.237000
0
LINE
8
Layer 1
10
168.699000
20
229.237000
11
168.699000
21
229.237000
0
LINE
8
Layer 1
10
136.699000
20
210.762000
11
136.588230
21
211.596936
0
LINE
8
Layer 1
10
136.588230
20
211.596936
11
136.270281
21
212.362000
0
LINE
8
Layer 1
10
136.270281
20
212.362000
11
135.766691
21
213.019884
0
LINE
8
Layer 1
10
135.766691
20
213.019884
11
135.099000
21
213.533281
0
LINE
8
Layer 1
10
135.099000
20
213.533281
11
134.320539
21
213.854820
0
LINE
8
Layer 1
10
134.320539
20
213.854820
11
133.499000
21
213.962000
0
LINE
8
Layer 1
10
133.499000
20
213.962000
11
132.677461
21
213.854820
0
LINE
8
Layer 1
10
132.677461
20
213.854820
11
131.899000
21
213.533281
0
LINE
8
Layer 1
10
131.899000
20
213.533281
11
131.231309
21
213.019884
0
LINE
8
Layer 1
10
131.231309
20
213.019884
11
130.727719
21
212.362000
0
LINE
8
Layer 1
10
130.727719
20
212.362000
11
130.409770
21
211.596936
0
LINE
8
Layer 1
10
130.409770
20
211.596936
11
130.299000
21
210.762000
0
LINE
8
Layer 1
10
130.299000
20
210.762000
11
130.409770
21
209.927064
0
LINE
8
Layer 1
10
130.409770
20
209.927064
11
130.727719
21
209.162000
0
LINE
8
Layer 1
10
130.727719
20
209.162000
11
131.231309
21
208.504116
0
LINE
8
Layer 1
10
131.231309
20
208.504116
11
131.899000
21
207.990719
0
LINE
8
Layer 1
10
131.899000
20
207.990719
11
132.677461
21
207.669180
0
LINE
8
Layer 1
10
132.677461
20
207.669180
11
133.499000
21
207.562000
0
LINE
8
Layer 1
10
133.499000
20
207.562000
11
134.320539
21
207.669180
0
LINE
8
Layer 1
10
134.320539
20
207.669180
11
135.099000
21
207.990719
0
LINE
8
Layer 1
10
135.099000
20
207.990719
11
135.766691
21
208.504116
0
LINE
8
Layer 1
10
135.766691
20
208.504116
11
136.270281
21
209.162000
0
LINE
8
Layer 1
10
136.270281
20
209.162000
11
136.588230
21
209.927064
0
LINE
8
Layer 1
10
136.588230
20
209.927064
11
136.699000
21
210.762000
0
LINE
8
Layer 1
10
136.699000
20
210.762000
11
136.699000
21
210.762000
0
LINE
8
Layer 1
10
328.699000
20
99.910900
11
328.588230
21
100.745836
0
LINE
8
Layer 1
10
328.588230
20
100.745836
11
328.270281
21
101.510900
0
LINE
8
Layer 1
10
328.270281
20
101.510900
11
327.766691
21
102.168784
0
LINE
8
Layer 1
10
327.766691
20
102.168784
11
327.099000
21
102.682181
0
LINE
8
Layer 1
10
327.099000
20
102.682181
11
326.320539
21
103.003720
0
LINE
8
Layer 1
10
326.320539
20
103.003720
11
325.499000
21
103.110900
0
LINE
8
Layer 1
10
325.499000
20
103.110900
11
324.677461
21
103.003720
0
LINE
8
Layer 1
10
324.677461
20
103.003720
11
323.899000
21
102.682181
0
LINE
8
Layer 1
10
323.899000
20
102.682181
11
323.231309
21
102.168784
0
LINE
8
Layer 1
10
323.231309
20
102.168784
11
322.727719
21
101.510900
0
LINE
8
Layer 1
10
322.727719
20
101.510900
11
322.409770
21
100.745836
0
LINE
8
Layer 1
10
322.409770
20
100.745836
11
322.299000
21
99.910900
0
LINE
8
Layer 1
10
322.299000
20
99.910900
11
322.409770
21
99.075964
0
LINE
8
Layer 1
10
322.409770
20
99.075964
11
322.727719
21
98.310900
0
LINE
8
Layer 1
10
322.727719
20
98.310900
11
323.231309
21
97.653016
0
LINE
8
Layer 1
10
323.231309
20
97.653016
11
323.899000
21
97.139619
0
LINE
8
Layer 1
10
323.899000
20
97.139619
11
324.677461
21
96.818080
0
LINE
8
Layer 1
10
324.677461
20
96.818080
11
325.499000
21
96.710900
0
LINE
8
Layer 1
10
325.499000
20
96.710900
11
326.320539
21
96.818080
0
LINE
8
Layer 1
10
326.320539
20
96.818080
11
327.099000
21
97.139619
0
LINE
8
Layer 1
10
327.099000
20
97.139619
11
327.766691
21
97.653016
0
LINE
8
Layer 1
10
327.766691
20
97.653016
11
328.270281
21
98.310900
0
LINE
8
Layer 1
10
328.270281
20
98.310900
11
328.588230
21
99.075964
0
LINE
8
Layer 1
10
328.588230
20
99.075964
11
328.699000
21
99.910900
0
LINE
8
Layer 1
10
328.699000
20
99.910900
11
328.699000
21
99.910900
0
LINE
8
Layer 1
10
328.699000
20
136.861000
11
328.588230
21
137.695936
0
LINE
8
Layer 1
10
328.588230
20
137.695936
11
328.270281
21
138.461000
0
LINE
8
Layer 1
10
328.270281
20
138.461000
11
327.766691
21
139.118884
0
LINE
8
Layer 1
10
327.766691
20
139.118884
11
327.099000
21
139.632281
0
LINE
8
Layer 1
10
327.099000
20
139.632281
11
326.320539
21
139.953820
0
LINE
8
Layer 1
10
326.320539
20
139.953820
11
325.499000
21
140.061000
0
LINE
8
Layer 1
10
325.499000
20
140.061000
11
324.677461
21
139.953820
0
LINE
8
Layer 1
10
324.677461
20
139.953820
11
323.899000
21
139.632281
0
LINE
8
Layer 1
10
323.899000
20
139.632281
11
323.231309
21
139.118884
0
LINE
8
Layer 1
10
323.231309
20
139.118884
11
322.727719
21
138.461000
0
LINE
8
Layer 1
10
322.727719
20
138.461000
11
322.409770
21
137.695936
0
LINE
8
Layer 1
10
322.409770
20
137.695936
11
322.299000
21
136.861000
0
LINE
8
Layer 1
10
322.299000
20
136.861000
11
322.409770
21
136.026064
0
LINE
8
Layer 1
10
322.409770
20
136.026064
11
322.727719
21
135.261000
0
LINE
8
Layer 1
10
322.727719
20
135.261000
11
323.231309
21
134.603116
0
LINE
8
Layer 1
10
323.231309
20
134.603116
11
323.899000
21
134.089719
0
LINE
8
Layer 1
10
323.899000
20
134.089719
11
324.677461
21
133.768180
0
LINE
8
Layer 1
10
324.677461
20
133.768180
11
325.499000
21
133.661000
0
LINE
8
Layer 1
10
325.499000
20
133.661000
11
326.320539
21
133.768180
0
LINE
8
Layer 1
10
326.320539
20
133.768180
11
327.099000
21
134.089719
0
LINE
8
Layer 1
10
327.099000
20
134.089719
11
327.766691
21
134.603116
0
LINE
8
Layer 1
10
327.766691
20
134.603116
11
328.270281
21
135.261000
0
LINE
8
Layer 1
10
328.270281
20
135.261000
11
328.588230
21
136.026064
0
LINE
8
Layer 1
10
328.588230
20
136.026064
11
328.699000
21
136.861000
0
LINE
8
Layer 1
10
328.699000
20
136.861000
11
328.699000
21
136.861000
0
LINE
8
Layer 1
10
136.699000
20
26.010100
11
136.588230
21
26.845036
0
LINE
8
Layer 1
10
136.588230
20
26.845036
11
136.270281
21
27.610100
0
LINE
8
Layer 1
10
136.270281
20
27.610100
11
135.766691
21
28.267984
0
LINE
8
Layer 1
10
135.766691
20
28.267984
11
135.099000
21
28.781381
0
LINE
8
Layer 1
10
135.099000
20
28.781381
11
134.320539
21
29.102920
0
LINE
8
Layer 1
10
134.320539
20
29.102920
11
133.499000
21
29.210100
0
LINE
8
Layer 1
10
133.499000
20
29.210100
11
132.677461
21
29.102920
0
LINE
8
Layer 1
10
132.677461
20
29.102920
11
131.899000
21
28.781381
0
LINE
8
Layer 1
10
131.899000
20
28.781381
11
131.231309
21
28.267984
0
LINE
8
Layer 1
10
131.231309
20
28.267984
11
130.727719
21
27.610100
0
LINE
8
Layer 1
10
130.727719
20
27.610100
11
130.409770
21
26.845036
0
LINE
8
Layer 1
10
130.409770
20
26.845036
11
130.299000
21
26.010100
0
LINE
8
Layer 1
10
130.299000
20
26.010100
11
130.409770
21
25.175164
0
LINE
8
Layer 1
10
130.409770
20
25.175164
11
130.727719
21
24.410100
0
LINE
8
Layer 1
10
130.727719
20
24.410100
11
131.231309
21
23.752216
0
LINE
8
Layer 1
10
131.231309
20
23.752216
11
131.899000
21
23.238819
0
LINE
8
Layer 1
10
131.899000
20
23.238819
11
132.677461
21
22.917280
0
LINE
8
Layer 1
10
132.677461
20
22.917280
11
133.499000
21
22.810100
0
LINE
8
Layer 1
10
133.499000
20
22.810100
11
134.320539
21
22.917280
0
LINE
8
Layer 1
10
134.320539
20
22.917280
11
135.099000
21
23.238819
0
LINE
8
Layer 1
10
135.099000
20
23.238819
11
135.766691
21
23.752216
0
LINE
8
Layer 1
10
135.766691
20
23.752216
11
136.270281
21
24.410100
0
LINE
8
Layer 1
10
136.270281
20
24.410100
11
136.588230
21
25.175164
0
LINE
8
Layer 1
10
136.588230
20
25.175164
11
136.699000
21
26.010100
0
LINE
8
Layer 1
10
136.699000
20
26.010100
11
136.699000
21
26.010100
0
LINE
8
Layer 1
10
168.699000
20
7.534880
11
168.589457
21
8.370944
0
LINE
8
Layer 1
10
168.589457
20
8.370944
11
168.272170
21
9.137270
0
LINE
8
Layer 1
10
168.272170
20
9.137270
11
167.768708
21
9.796400
0
LINE
8
Layer 1
10
167.768708
20
9.796400
11
167.100638
21
10.310875
0
LINE
8
Layer 1
10
167.100638
20
10.310875
11
166.321433
21
10.633121
0
LINE
8
Layer 1
10
166.321433
20
10.633121
11
165.499005
21
10.740537
0
LINE
8
Layer 1
10
165.499005
20
10.740537
11
164.676577
21
10.633121
0
LINE
8
Layer 1
10
164.676577
20
10.633121
11
163.897372
21
10.310875
0
LINE
8
Layer 1
10
163.897372
20
10.310875
11
163.229302
21
9.796400
0
LINE
8
Layer 1
10
163.229302
20
9.796400
11
162.725840
21
9.137270
0
LINE
8
Layer 1
10
162.725840
20
9.137270
11
162.408553
21
8.370944
0
LINE
8
Layer 1
10
162.408553
20
8.370944
11
162.299010
21
7.534880
0
LINE
8
Layer 1
10
162.299010
20
7.534880
11
162.408553
21
6.698816
0
LINE
8
Layer 1
10
162.408553
20
6.698816
11
162.725840
21
5.932490
0
LINE
8
Layer 1
10
162.725840
20
5.932490
11
163.229302
21
5.273360
0
LINE
8
Layer 1
10
163.229302
20
5.273360
11
163.897372
21
4.758885
0
LINE
8
Layer 1
10
163.897372
20
4.758885
11
164.676577
21
4.436639
0
LINE
8
Layer 1
10
164.676577
20
4.436639
11
165.499005
21
4.329223
0
LINE
8
Layer 1
10
165.499005
20
4.329223
11
166.321433
21
4.436639
0
LINE
8
Layer 1
10
166.321433
20
4.436639
11
167.100638
21
4.758885
0
LINE
8
Layer 1
10
167.100638
20
4.758885
11
167.768708
21
5.273360
0
LINE
8
Layer 1
10
167.768708
20
5.273360
11
168.272170
21
5.932490
0
LINE
8
Layer 1
10
168.272170
20
5.932490
11
168.589457
21
6.698816
0
LINE
8
Layer 1
10
168.589457
20
6.698816
11
168.699000
21
7.534880
0
LINE
8
Layer 1
10
168.699000
20
7.534880
11
168.699000
21
7.534880
0
LINE
8
Layer 1
10
166.032000
20
7.534880
11
165.765853
21
7.998250
0
LINE
8
Layer 1
10
165.765853
20
7.998250
11
165.231487
21
7.998250
0
LINE
8
Layer 1
10
165.231487
20
7.998250
11
164.965340
21
7.534880
0
LINE
8
Layer 1
10
164.965340
20
7.534880
11
165.231487
21
7.071510
0
LINE
8
Layer 1
10
165.231487
20
7.071510
11
165.765853
21
7.071510
0
LINE
8
Layer 1
10
165.765853
20
7.071510
11
166.032000
21
7.534880
0
LINE
8
Layer 1
10
166.032000
20
7.534880
11
166.032000
21
7.534880
0
LINE
8
Layer 1
10
134.033000
20
26.010100
11
133.766331
21
26.471980
0
LINE
8
Layer 1
10
133.766331
20
26.471980
11
133.232998
21
26.471980
0
LINE
8
Layer 1
10
133.232998
20
26.471980
11
132.966332
21
26.010100
0
LINE
8
Layer 1
10
132.966332
20
26.010100
11
133.233000
21
25.548220
0
LINE
8
Layer 1
10
133.233000
20
25.548220
11
133.766333
21
25.548220
0
LINE
8
Layer 1
10
133.766333
20
25.548220
11
134.032999
21
26.010100
0
LINE
8
Layer 1
10
134.032999
20
26.010100
11
134.033000
21
26.010100
0
LINE
8
Layer 1
10
326.032000
20
136.861000
11
325.765853
21
137.324370
0
LINE
8
Layer 1
10
325.765853
20
137.324370
11
325.231487
21
137.324370
0
LINE
8
Layer 1
10
325.231487
20
137.324370
11
324.965340
21
136.861000
0
LINE
8
Layer 1
10
324.965340
20
136.861000
11
325.231487
21
136.397630
0
LINE
8
Layer 1
10
325.231487
20
136.397630
11
325.765853
21
136.397630
0
LINE
8
Layer 1
10
325.765853
20
136.397630
11
326.032000
21
136.861000
0
LINE
8
Layer 1
10
326.032000
20
136.861000
11
326.032000
21
136.861000
0
LINE
8
Layer 1
10
326.032000
20
99.910900
11
325.765853
21
100.374270
0
LINE
8
Layer 1
10
325.765853
20
100.374270
11
325.231487
21
100.374270
0
LINE
8
Layer 1
10
325.231487
20
100.374270
11
324.965340
21
99.910900
0
LINE
8
Layer 1
10
324.965340
20
99.910900
11
325.231487
21
99.447530
0
LINE
8
Layer 1
10
325.231487
20
99.447530
11
325.765853
21
99.447530
0
LINE
8
Layer 1
10
325.765853
20
99.447530
11
326.032000
21
99.910900
0
LINE
8
Layer 1
10
326.032000
20
99.910900
11
326.032000
21
99.910900
0
LINE
8
Layer 1
10
134.033000
20
210.762000
11
133.766331
21
211.223880
0
LINE
8
Layer 1
10
133.766331
20
211.223880
11
133.232998
21
211.223880
0
LINE
8
Layer 1
10
133.232998
20
211.223880
11
132.966332
21
210.762000
0
LINE
8
Layer 1
10
132.966332
20
210.762000
11
133.233000
21
210.300120
0
LINE
8
Layer 1
10
133.233000
20
210.300120
11
133.766333
21
210.300120
0
LINE
8
Layer 1
10
133.766333
20
210.300120
11
134.032999
21
210.762000
0
LINE
8
Layer 1
10
134.032999
20
210.762000
11
134.033000
21
210.762000
0
LINE
8
Layer 1
10
166.032000
20
229.237000
11
165.765853
21
229.700370
0
LINE
8
Layer 1
10
165.765853
20
229.700370
11
165.231487
21
229.700370
0
LINE
8
Layer 1
10
165.231487
20
229.700370
11
164.965340
21
229.237000
0
LINE
8
Layer 1
10
164.965340
20
229.237000
11
165.231487
21
228.773630
0
LINE
8
Layer 1
10
165.231487
20
228.773630
11
165.765853
21
228.773630
0
LINE
8
Layer 1
10
165.765853
20
228.773630
11
166.032000
21
229.237000
0
LINE
8
Layer 1
10
166.032000
20
229.237000
11
166.032000
21
229.237000
 0 
ENDSEC
 0 
EOF