  0
SECTION
  2
HEADER
  9
$ACADVER
  1
AC1009
  9
$EXTMIN
 10
0.12421142
 20
0.12487824
 30
0.0
  9
$EXTMAX
 10
47.87226337
 20
95.56740797
 30
0.0
  0
ENDSEC
  0
SECTION
  2
TABLES
  0
TABLE
  2
LAYER
 70
1
 0
LAYER
 2
0
 70
0
 62
7
 6
CONTINUOUS
 0
ENDTAB
 0
ENDSEC
  0
SECTION
  2
ENTITIES
  0
POLYLINE
  8
0
 62
256
 66
   1
 39
0.000000
 70
    1
  0
VERTEX
  8
0
 10
18.66751563
 20
95.28814608
 42
0.41421356
  0
VERTEX
  8
0
 10
18.46467075
 20
95.09103201
  0
VERTEX
  8
0
 10
18.41309336
 20
91.49140151
 42
0.41421356
  0
VERTEX
  8
0
 10
18.61020742
 20
91.28855663
  0
VERTEX
  8
0
 10
42.20778517
 20
90.95043817
 42
0.41421356
  0
VERTEX
  8
0
 10
42.41063006
 20
91.14755224
  0
VERTEX
  8
0
 10
42.46220745
 20
94.74718274
 42
0.41421356
  0
VERTEX
  8
0
 10
42.26509339
 20
94.95002762
  0
VERTEX
  8
0
 10
18.66751563
 20
95.28814608
  0
SEQEND
  0
POLYLINE
  8
0
 62
256
 66
   1
 39
0.000000
 70
    1
  0
VERTEX
  8
0
 10
42.08384326
 20
94.51507976
 42
-0.41421356
  0
VERTEX
  8
0
 10
42.02224512
 20
94.57846879
 42
-0.41421356
  0
VERTEX
  8
0
 10
42.08563414
 20
94.64006693
 42
-0.41421356
  0
VERTEX
  8
0
 10
42.14723229
 20
94.57667791
 42
-0.41421356
  0
VERTEX
  8
0
 10
42.08384326
 20
94.51507976
  0
SEQEND
  0
POLYLINE
  8
0
 62
256
 66
   1
 39
0.000000
 70
    1
  0
VERTEX
  8
0
 10
42.03728034
 20
91.26541333
 42
-0.41421356
  0
VERTEX
  8
0
 10
41.97568220
 20
91.32880236
 42
-0.41421356
  0
VERTEX
  8
0
 10
42.03907122
 20
91.39040050
 42
-0.41421356
  0
VERTEX
  8
0
 10
42.10066937
 20
91.32701148
 42
-0.41421356
  0
VERTEX
  8
0
 10
42.03728034
 20
91.26541333
  0
SEQEND
  0
POLYLINE
  8
0
 62
256
 66
   1
 39
0.000000
 70
    1
  0
VERTEX
  8
0
 10
41.31063878
 20
92.90099184
 42
-0.41421356
  0
VERTEX
  8
0
 10
41.24904063
 20
92.96438086
 42
-0.41421356
  0
VERTEX
  8
0
 10
41.31242966
 20
93.02597901
 42
-0.41421356
  0
VERTEX
  8
0
 10
41.37402781
 20
92.96258998
 42
-0.41421356
  0
VERTEX
  8
0
 10
41.31063878
 20
92.90099184
  0
SEQEND
  0
POLYLINE
  8
0
 62
256
 66
   1
 39
0.000000
 70
    1
  0
VERTEX
  8
0
 10
18.78966666
 20
91.59851732
 42
-0.41421356
  0
VERTEX
  8
0
 10
18.72806852
 20
91.66190634
 42
-0.41421356
  0
VERTEX
  8
0
 10
18.79145754
 20
91.72350449
 42
-0.41421356
  0
VERTEX
  8
0
 10
18.85305569
 20
91.66011546
 42
-0.41421356
  0
VERTEX
  8
0
 10
18.78966666
 20
91.59851732
  0
SEQEND
  0
POLYLINE
  8
0
 62
256
 66
   1
 39
0.000000
 70
    1
  0
VERTEX
  8
0
 10
18.83622958
 20
94.84818375
 42
-0.41421356
  0
VERTEX
  8
0
 10
18.77463144
 20
94.91157277
 42
-0.41421356
  0
VERTEX
  8
0
 10
18.83802047
 20
94.97317092
 42
-0.41421356
  0
VERTEX
  8
0
 10
18.89961861
 20
94.90978189
 42
-0.41421356
  0
VERTEX
  8
0
 10
18.83622958
 20
94.84818375
  0
SEQEND
  0
POLYLINE
  8
0
 62
256
 66
   1
 39
0.000000
 70
    1
  0
VERTEX
  8
0
 10
19.56287114
 20
93.21260524
 42
-0.41421356
  0
VERTEX
  8
0
 10
19.50127300
 20
93.27599427
 42
-0.41421356
  0
VERTEX
  8
0
 10
19.56466203
 20
93.33759241
 42
-0.41421356
  0
VERTEX
  8
0
 10
19.62626017
 20
93.27420339
 42
-0.41421356
  0
VERTEX
  8
0
 10
19.56287114
 20
93.21260524
  0
SEQEND
  0
POLYLINE
  8
0
 62
256
 66
   1
 39
0.000000
 70
    1
  0
VERTEX
  8
0
 10
9.77357394
 20
95.53914876
 42
0.41421356
  0
VERTEX
  8
0
 10
9.49928656
 20
95.47010940
  0
VERTEX
  8
0
 10
7.65205439
 20
92.38016874
 42
0.41421356
  0
VERTEX
  8
0
 10
7.72109375
 20
92.10588136
  0
VERTEX
  8
0
 10
27.97737144
 20
79.99624824
 42
0.41421356
  0
VERTEX
  8
0
 10
28.25165882
 20
80.06528760
  0
VERTEX
  8
0
 10
30.09889099
 20
83.15522827
 42
0.41421356
  0
VERTEX
  8
0
 10
30.02985163
 20
83.42951565
  0
VERTEX
  8
0
 10
9.77357394
 20
95.53914876
  0
SEQEND
  0
POLYLINE
  8
0
 62
256
 66
   1
 39
0.000000
 70
    1
  0
VERTEX
  8
0
 10
29.65515616
 20
83.14379803
 42
-0.41421356
  0
VERTEX
  8
0
 10
29.63358136
 20
83.22951284
 42
-0.41421356
  0
VERTEX
  8
0
 10
29.71929617
 20
83.25108764
 42
-0.41421356
  0
VERTEX
  8
0
 10
29.74087097
 20
83.16537283
 42
-0.41421356
  0
VERTEX
  8
0
 10
29.65515616
 20
83.14379803
  0
SEQEND
  0
POLYLINE
  8
0
 62
256
 66
   1
 39
0.000000
 70
    1
  0
VERTEX
  8
0
 10
27.98751601
 20
80.35426827
 42
-0.41421356
  0
VERTEX
  8
0
 10
27.96594121
 20
80.43998307
 42
-0.41421356
  0
VERTEX
  8
0
 10
28.05165602
 20
80.46155787
 42
-0.41421356
  0
VERTEX
  8
0
 10
28.07323082
 20
80.37584307
 42
-0.41421356
  0
VERTEX
  8
0
 10
27.98751601
 20
80.35426827
  0
SEQEND
  0
POLYLINE
  8
0
 62
256
 66
   1
 39
0.000000
 70
    1
  0
VERTEX
  8
0
 10
28.17759845
 20
82.13387319
 42
-0.41421356
  0
VERTEX
  8
0
 10
28.15602365
 20
82.21958799
 42
-0.41421356
  0
VERTEX
  8
0
 10
28.24173845
 20
82.24116279
 42
-0.41421356
  0
VERTEX
  8
0
 10
28.26331325
 20
82.15544799
 42
-0.41421356
  0
VERTEX
  8
0
 10
28.17759845
 20
82.13387319
  0
SEQEND
  0
POLYLINE
  8
0
 62
256
 66
   1
 39
0.000000
 70
    1
  0
VERTEX
  8
0
 10
8.03164922
 20
92.28430937
 42
-0.41421356
  0
VERTEX
  8
0
 10
8.01007442
 20
92.37002417
 42
-0.41421356
  0
VERTEX
  8
0
 10
8.09578922
 20
92.39159897
 42
-0.41421356
  0
VERTEX
  8
0
 10
8.11736402
 20
92.30588417
 42
-0.41421356
  0
VERTEX
  8
0
 10
8.03164922
 20
92.28430937
  0
SEQEND
  0
POLYLINE
  8
0
 62
256
 66
   1
 39
0.000000
 70
    1
  0
VERTEX
  8
0
 10
9.69928937
 20
95.07383913
 42
-0.41421356
  0
VERTEX
  8
0
 10
9.67771457
 20
95.15955394
 42
-0.41421356
  0
VERTEX
  8
0
 10
9.76342938
 20
95.18112874
 42
-0.41421356
  0
VERTEX
  8
0
 10
9.78500418
 20
95.09541393
 42
-0.41421356
  0
VERTEX
  8
0
 10
9.69928937
 20
95.07383913
  0
SEQEND
  0
POLYLINE
  8
0
 62
256
 66
   1
 39
0.000000
 70
    1
  0
VERTEX
  8
0
 10
9.50920693
 20
93.29423421
 42
-0.41421356
  0
VERTEX
  8
0
 10
9.48763213
 20
93.37994902
 42
-0.41421356
  0
VERTEX
  8
0
 10
9.57334694
 20
93.40152382
 42
-0.41421356
  0
VERTEX
  8
0
 10
9.59492174
 20
93.31580901
 42
-0.41421356
  0
VERTEX
  8
0
 10
9.50920693
 20
93.29423421
  0
SEQEND
  0
POLYLINE
  8
0
 62
256
 66
   1
 39
0.000000
 70
    1
  0
VERTEX
  8
0
 10
10.30485534
 20
90.01165739
 42
0.41421356
  0
VERTEX
  8
0
 10
10.03165026
 20
89.93845231
  0
VERTEX
  8
0
 10
8.23165026
 20
86.82076085
 42
0.41421356
  0
VERTEX
  8
0
 10
8.30485534
 20
86.54755577
  0
VERTEX
  8
0
 10
28.74305487
 20
74.74755577
 42
0.41421356
  0
VERTEX
  8
0
 10
29.01625995
 20
74.82076085
  0
VERTEX
  8
0
 10
30.81625995
 20
77.93845231
 42
0.41421356
  0
VERTEX
  8
0
 10
30.74305487
 20
78.21165739
  0
VERTEX
  8
0
 10
10.30485534
 20
90.01165739
  0
SEQEND
  0
POLYLINE
  8
0
 62
256
 66
   1
 39
0.000000
 70
    1
  0
VERTEX
  8
0
 10
30.37275042
 20
77.92027127
 42
-0.41421356
  0
VERTEX
  8
0
 10
30.34987384
 20
78.00564786
 42
-0.41421356
  0
VERTEX
  8
0
 10
30.43525042
 20
78.02852445
 42
-0.41421356
  0
VERTEX
  8
0
 10
30.45812701
 20
77.94314786
 42
-0.41421356
  0
VERTEX
  8
0
 10
30.37275042
 20
77.92027127
  0
SEQEND
  0
POLYLINE
  8
0
 62
256
 66
   1
 39
0.000000
 70
    1
  0
VERTEX
  8
0
 10
28.74775042
 20
75.10568871
 42
-0.41421356
  0
VERTEX
  8
0
 10
28.72487384
 20
75.19106530
 42
-0.41421356
  0
VERTEX
  8
0
 10
28.81025042
 20
75.21394189
 42
-0.41421356
  0
VERTEX
  8
0
 10
28.83312701
 20
75.12856530
 42
-0.41421356
  0
VERTEX
  8
0
 10
28.74775042
 20
75.10568871
  0
SEQEND
  0
POLYLINE
  8
0
 62
256
 66
   1
 39
0.000000
 70
    1
  0
VERTEX
  8
0
 10
28.91073137
 20
76.88797999
 42
-0.41421356
  0
VERTEX
  8
0
 10
28.88785478
 20
76.97335658
 42
-0.41421356
  0
VERTEX
  8
0
 10
28.97323137
 20
76.99623317
 42
-0.41421356
  0
VERTEX
  8
0
 10
28.99610796
 20
76.91085658
 42
-0.41421356
  0
VERTEX
  8
0
 10
28.91073137
 20
76.88797999
  0
SEQEND
  0
POLYLINE
  8
0
 62
256
 66
   1
 39
0.000000
 70
    1
  0
VERTEX
  8
0
 10
8.61265979
 20
86.73068871
 42
-0.41421356
  0
VERTEX
  8
0
 10
8.58978320
 20
86.81606530
 42
-0.41421356
  0
VERTEX
  8
0
 10
8.67515979
 20
86.83894189
 42
-0.41421356
  0
VERTEX
  8
0
 10
8.69803637
 20
86.75356530
 42
-0.41421356
  0
VERTEX
  8
0
 10
8.61265979
 20
86.73068871
  0
SEQEND
  0
POLYLINE
  8
0
 62
256
 66
   1
 39
0.000000
 70
    1
  0
VERTEX
  8
0
 10
10.23765979
 20
89.54527127
 42
-0.41421356
  0
VERTEX
  8
0
 10
10.21478320
 20
89.63064786
 42
-0.41421356
  0
VERTEX
  8
0
 10
10.30015979
 20
89.65352445
 42
-0.41421356
  0
VERTEX
  8
0
 10
10.32303637
 20
89.56814786
 42
-0.41421356
  0
VERTEX
  8
0
 10
10.23765979
 20
89.54527127
  0
SEQEND
  0
POLYLINE
  8
0
 62
256
 66
   1
 39
0.000000
 70
    1
  0
VERTEX
  8
0
 10
10.07467884
 20
87.76297999
 42
-0.41421356
  0
VERTEX
  8
0
 10
10.05180225
 20
87.84835658
 42
-0.41421356
  0
VERTEX
  8
0
 10
10.13717884
 20
87.87123317
 42
-0.41421356
  0
VERTEX
  8
0
 10
10.16005543
 20
87.78585658
 42
-0.41421356
  0
VERTEX
  8
0
 10
10.07467884
 20
87.76297999
  0
SEQEND
  0
POLYLINE
  8
0
 62
256
 66
   1
 39
0.000000
 70
    1
  0
VERTEX
  8
0
 10
32.65578041
 20
90.62006904
 42
0.41421356
  0
VERTEX
  8
0
 10
32.37401400
 20
90.64472041
  0
VERTEX
  8
0
 10
29.61625400
 20
88.33068502
 42
0.41421356
  0
VERTEX
  8
0
 10
29.59160263
 20
88.04891861
  0
VERTEX
  8
0
 10
44.76139022
 20
69.97026975
 42
0.41421356
  0
VERTEX
  8
0
 10
45.04315663
 20
69.94561838
  0
VERTEX
  8
0
 10
47.80091663
 20
72.25965378
 42
0.41421356
  0
VERTEX
  8
0
 10
47.82556799
 20
72.54142019
  0
VERTEX
  8
0
 10
32.65578041
 20
90.62006904
  0
SEQEND
  0
POLYLINE
  8
0
 62
256
 66
   1
 39
0.000000
 70
    1
  0
VERTEX
  8
0
 10
47.37793572
 20
72.39425839
 42
-0.41421356
  0
VERTEX
  8
0
 10
47.38563927
 20
72.48231039
 42
-0.41421356
  0
VERTEX
  8
0
 10
47.47369127
 20
72.47460684
 42
-0.41421356
  0
VERTEX
  8
0
 10
47.46598772
 20
72.38655483
 42
-0.41421356
  0
VERTEX
  8
0
 10
47.37793572
 20
72.39425839
  0
SEQEND
  0
POLYLINE
  8
0
 62
256
 66
   1
 39
0.000000
 70
    1
  0
VERTEX
  8
0
 10
44.88829128
 20
70.30519865
 42
-0.41421356
  0
VERTEX
  8
0
 10
44.89599483
 20
70.39325066
 42
-0.41421356
  0
VERTEX
  8
0
 10
44.98404683
 20
70.38554710
 42
-0.41421356
  0
VERTEX
  8
0
 10
44.97634328
 20
70.29749510
 42
-0.41421356
  0
VERTEX
  8
0
 10
44.88829128
 20
70.30519865
  0
SEQEND
  0
POLYLINE
  8
0
 62
256
 66
   1
 39
0.000000
 70
    1
  0
VERTEX
  8
0
 10
45.65102279
 20
71.92426185
 42
-0.41421356
  0
VERTEX
  8
0
 10
45.65872634
 20
72.01231385
 42
-0.41421356
  0
VERTEX
  8
0
 10
45.74677835
 20
72.00461030
 42
-0.41421356
  0
VERTEX
  8
0
 10
45.73907479
 20
71.91655830
 42
-0.41421356
  0
VERTEX
  8
0
 10
45.65102279
 20
71.92426185
  0
SEQEND
  0
POLYLINE
  8
0
 62
256
 66
   1
 39
0.000000
 70
    1
  0
VERTEX
  8
0
 10
29.94347935
 20
88.11573196
 42
-0.41421356
  0
VERTEX
  8
0
 10
29.95118291
 20
88.20378396
 42
-0.41421356
  0
VERTEX
  8
0
 10
30.03923491
 20
88.19608041
 42
-0.41421356
  0
VERTEX
  8
0
 10
30.03153136
 20
88.10802840
 42
-0.41421356
  0
VERTEX
  8
0
 10
29.94347935
 20
88.11573196
  0
SEQEND
  0
POLYLINE
  8
0
 62
256
 66
   1
 39
0.000000
 70
    1
  0
VERTEX
  8
0
 10
32.43312379
 20
90.20479169
 42
-0.41421356
  0
VERTEX
  8
0
 10
32.44082735
 20
90.29284369
 42
-0.41421356
  0
VERTEX
  8
0
 10
32.52887935
 20
90.28514014
 42
-0.41421356
  0
VERTEX
  8
0
 10
32.52117580
 20
90.19708814
 42
-0.41421356
  0
VERTEX
  8
0
 10
32.43312379
 20
90.20479169
  0
SEQEND
  0
POLYLINE
  8
0
 62
256
 66
   1
 39
0.000000
 70
    1
  0
VERTEX
  8
0
 10
31.67039228
 20
88.58572849
 42
-0.41421356
  0
VERTEX
  8
0
 10
31.67809583
 20
88.67378049
 42
-0.41421356
  0
VERTEX
  8
0
 10
31.76614784
 20
88.66607694
 42
-0.41421356
  0
VERTEX
  8
0
 10
31.75844428
 20
88.57802494
 42
-0.41421356
  0
VERTEX
  8
0
 10
31.67039228
 20
88.58572849
  0
SEQEND
  0
POLYLINE
  8
0
 62
256
 66
   1
 39
0.000000
 70
    1
  0
VERTEX
  8
0
 10
32.65578041
 20
84.32337613
 42
0.41421356
  0
VERTEX
  8
0
 10
32.37401400
 20
84.34802750
  0
VERTEX
  8
0
 10
29.61625400
 20
82.03399210
 42
0.41421356
  0
VERTEX
  8
0
 10
29.59160263
 20
81.75222569
  0
VERTEX
  8
0
 10
44.76139022
 20
63.67357683
 42
0.41421356
  0
VERTEX
  8
0
 10
45.04315663
 20
63.64892547
  0
VERTEX
  8
0
 10
47.80091663
 20
65.96296086
 42
0.41421356
  0
VERTEX
  8
0
 10
47.82556799
 20
66.24472727
  0
VERTEX
  8
0
 10
32.65578041
 20
84.32337613
  0
SEQEND
  0
POLYLINE
  8
0
 62
256
 66
   1
 39
0.000000
 70
    1
  0
VERTEX
  8
0
 10
47.37793572
 20
66.09756547
 42
-0.41421356
  0
VERTEX
  8
0
 10
47.38563927
 20
66.18561747
 42
-0.41421356
  0
VERTEX
  8
0
 10
47.47369127
 20
66.17791392
 42
-0.41421356
  0
VERTEX
  8
0
 10
47.46598772
 20
66.08986192
 42
-0.41421356
  0
VERTEX
  8
0
 10
47.37793572
 20
66.09756547
  0
SEQEND
  0
POLYLINE
  8
0
 62
256
 66
   1
 39
0.000000
 70
    1
  0
VERTEX
  8
0
 10
44.88829128
 20
64.00850574
 42
-0.41421356
  0
VERTEX
  8
0
 10
44.89599483
 20
64.09655774
 42
-0.41421356
  0
VERTEX
  8
0
 10
44.98404683
 20
64.08885419
 42
-0.41421356
  0
VERTEX
  8
0
 10
44.97634328
 20
64.00080219
 42
-0.41421356
  0
VERTEX
  8
0
 10
44.88829128
 20
64.00850574
  0
SEQEND
  0
POLYLINE
  8
0
 62
256
 66
   1
 39
0.000000
 70
    1
  0
VERTEX
  8
0
 10
45.65102279
 20
65.62756894
 42
-0.41421356
  0
VERTEX
  8
0
 10
45.65872634
 20
65.71562094
 42
-0.41421356
  0
VERTEX
  8
0
 10
45.74677835
 20
65.70791739
 42
-0.41421356
  0
VERTEX
  8
0
 10
45.73907479
 20
65.61986539
 42
-0.41421356
  0
VERTEX
  8
0
 10
45.65102279
 20
65.62756894
  0
SEQEND
  0
POLYLINE
  8
0
 62
256
 66
   1
 39
0.000000
 70
    1
  0
VERTEX
  8
0
 10
29.94347935
 20
81.81903904
 42
-0.41421356
  0
VERTEX
  8
0
 10
29.95118291
 20
81.90709105
 42
-0.41421356
  0
VERTEX
  8
0
 10
30.03923491
 20
81.89938749
 42
-0.41421356
  0
VERTEX
  8
0
 10
30.03153136
 20
81.81133549
 42
-0.41421356
  0
VERTEX
  8
0
 10
29.94347935
 20
81.81903904
  0
SEQEND
  0
POLYLINE
  8
0
 62
256
 66
   1
 39
0.000000
 70
    1
  0
VERTEX
  8
0
 10
32.43312379
 20
83.90809877
 42
-0.41421356
  0
VERTEX
  8
0
 10
32.44082735
 20
83.99615078
 42
-0.41421356
  0
VERTEX
  8
0
 10
32.52887935
 20
83.98844723
 42
-0.41421356
  0
VERTEX
  8
0
 10
32.52117580
 20
83.90039522
 42
-0.41421356
  0
VERTEX
  8
0
 10
32.43312379
 20
83.90809877
  0
SEQEND
  0
POLYLINE
  8
0
 62
256
 66
   1
 39
0.000000
 70
    1
  0
VERTEX
  8
0
 10
31.67039228
 20
82.28903558
 42
-0.41421356
  0
VERTEX
  8
0
 10
31.67809583
 20
82.37708758
 42
-0.41421356
  0
VERTEX
  8
0
 10
31.76614784
 20
82.36938403
 42
-0.41421356
  0
VERTEX
  8
0
 10
31.75844428
 20
82.28133202
 42
-0.41421356
  0
VERTEX
  8
0
 10
31.67039228
 20
82.28903558
  0
SEQEND
  0
POLYLINE
  8
0
 62
256
 66
   1
 39
0.000000
 70
    1
  0
VERTEX
  8
0
 10
4.12500000
 20
83.06326772
 42
0.41421356
  0
VERTEX
  8
0
 10
3.92500000
 20
83.26326772
  0
VERTEX
  8
0
 10
0.32500000
 20
83.26326772
 42
0.41421356
  0
VERTEX
  8
0
 10
0.12500000
 20
83.06326772
  0
VERTEX
  8
0
 10
0.12500000
 20
59.46326772
 42
0.41421356
  0
VERTEX
  8
0
 10
0.32500000
 20
59.26326772
  0
VERTEX
  8
0
 10
3.92500000
 20
59.26326772
 42
0.41421356
  0
VERTEX
  8
0
 10
4.12500000
 20
59.46326772
  0
VERTEX
  8
0
 10
4.12500000
 20
83.06326772
  0
SEQEND
  0
POLYLINE
  8
0
 62
256
 66
   1
 39
0.000000
 70
    1
  0
VERTEX
  8
0
 10
3.68750000
 20
59.63826772
 42
-0.41421356
  0
VERTEX
  8
0
 10
3.75000000
 20
59.70076772
 42
-0.41421356
  0
VERTEX
  8
0
 10
3.81250000
 20
59.63826772
 42
-0.41421356
  0
VERTEX
  8
0
 10
3.75000000
 20
59.57576772
 42
-0.41421356
  0
VERTEX
  8
0
 10
3.68750000
 20
59.63826772
  0
SEQEND
  0
POLYLINE
  8
0
 62
256
 66
   1
 39
0.000000
 70
    1
  0
VERTEX
  8
0
 10
0.43750000
 20
59.63826772
 42
-0.41421356
  0
VERTEX
  8
0
 10
0.50000000
 20
59.70076772
 42
-0.41421356
  0
VERTEX
  8
0
 10
0.56250000
 20
59.63826772
 42
-0.41421356
  0
VERTEX
  8
0
 10
0.50000000
 20
59.57576772
 42
-0.41421356
  0
VERTEX
  8
0
 10
0.43750000
 20
59.63826772
  0
SEQEND
  0
POLYLINE
  8
0
 62
256
 66
   1
 39
0.000000
 70
    1
  0
VERTEX
  8
0
 10
2.06250000
 20
60.38826772
 42
-0.41421356
  0
VERTEX
  8
0
 10
2.12500000
 20
60.45076772
 42
-0.41421356
  0
VERTEX
  8
0
 10
2.18750000
 20
60.38826772
 42
-0.41421356
  0
VERTEX
  8
0
 10
2.12500000
 20
60.32576772
 42
-0.41421356
  0
VERTEX
  8
0
 10
2.06250000
 20
60.38826772
  0
SEQEND
  0
POLYLINE
  8
0
 62
256
 66
   1
 39
0.000000
 70
    1
  0
VERTEX
  8
0
 10
0.43750000
 20
82.88826772
 42
-0.41421356
  0
VERTEX
  8
0
 10
0.50000000
 20
82.95076772
 42
-0.41421356
  0
VERTEX
  8
0
 10
0.56250000
 20
82.88826772
 42
-0.41421356
  0
VERTEX
  8
0
 10
0.50000000
 20
82.82576772
 42
-0.41421356
  0
VERTEX
  8
0
 10
0.43750000
 20
82.88826772
  0
SEQEND
  0
POLYLINE
  8
0
 62
256
 66
   1
 39
0.000000
 70
    1
  0
VERTEX
  8
0
 10
3.68750000
 20
82.88826772
 42
-0.41421356
  0
VERTEX
  8
0
 10
3.75000000
 20
82.95076772
 42
-0.41421356
  0
VERTEX
  8
0
 10
3.81250000
 20
82.88826772
 42
-0.41421356
  0
VERTEX
  8
0
 10
3.75000000
 20
82.82576772
 42
-0.41421356
  0
VERTEX
  8
0
 10
3.68750000
 20
82.88826772
  0
SEQEND
  0
POLYLINE
  8
0
 62
256
 66
   1
 39
0.000000
 70
    1
  0
VERTEX
  8
0
 10
2.06250000
 20
82.13826772
 42
-0.41421356
  0
VERTEX
  8
0
 10
2.12500000
 20
82.20076772
 42
-0.41421356
  0
VERTEX
  8
0
 10
2.18750000
 20
82.13826772
 42
-0.41421356
  0
VERTEX
  8
0
 10
2.12500000
 20
82.07576772
 42
-0.41421356
  0
VERTEX
  8
0
 10
2.06250000
 20
82.13826772
  0
SEQEND
  0
POLYLINE
  8
0
 62
256
 66
   1
 39
0.000000
 70
    1
  0
VERTEX
  8
0
 10
32.65578041
 20
78.02668322
 42
0.41421356
  0
VERTEX
  8
0
 10
32.37401400
 20
78.05133458
  0
VERTEX
  8
0
 10
29.61625400
 20
75.73729919
 42
0.41421356
  0
VERTEX
  8
0
 10
29.59160263
 20
75.45553278
  0
VERTEX
  8
0
 10
44.76139022
 20
57.37688392
 42
0.41421356
  0
VERTEX
  8
0
 10
45.04315663
 20
57.35223255
  0
VERTEX
  8
0
 10
47.80091663
 20
59.66626795
 42
0.41421356
  0
VERTEX
  8
0
 10
47.82556799
 20
59.94803436
  0
VERTEX
  8
0
 10
32.65578041
 20
78.02668322
  0
SEQEND
  0
POLYLINE
  8
0
 62
256
 66
   1
 39
0.000000
 70
    1
  0
VERTEX
  8
0
 10
47.37793572
 20
59.80087256
 42
-0.41421356
  0
VERTEX
  8
0
 10
47.38563927
 20
59.88892456
 42
-0.41421356
  0
VERTEX
  8
0
 10
47.47369127
 20
59.88122101
 42
-0.41421356
  0
VERTEX
  8
0
 10
47.46598772
 20
59.79316901
 42
-0.41421356
  0
VERTEX
  8
0
 10
47.37793572
 20
59.80087256
  0
SEQEND
  0
POLYLINE
  8
0
 62
256
 66
   1
 39
0.000000
 70
    1
  0
VERTEX
  8
0
 10
44.88829128
 20
57.71181283
 42
-0.41421356
  0
VERTEX
  8
0
 10
44.89599483
 20
57.79986483
 42
-0.41421356
  0
VERTEX
  8
0
 10
44.98404683
 20
57.79216128
 42
-0.41421356
  0
VERTEX
  8
0
 10
44.97634328
 20
57.70410927
 42
-0.41421356
  0
VERTEX
  8
0
 10
44.88829128
 20
57.71181283
  0
SEQEND
  0
POLYLINE
  8
0
 62
256
 66
   1
 39
0.000000
 70
    1
  0
VERTEX
  8
0
 10
45.65102279
 20
59.33087602
 42
-0.41421356
  0
VERTEX
  8
0
 10
45.65872634
 20
59.41892803
 42
-0.41421356
  0
VERTEX
  8
0
 10
45.74677835
 20
59.41122448
 42
-0.41421356
  0
VERTEX
  8
0
 10
45.73907479
 20
59.32317247
 42
-0.41421356
  0
VERTEX
  8
0
 10
45.65102279
 20
59.33087602
  0
SEQEND
  0
POLYLINE
  8
0
 62
256
 66
   1
 39
0.000000
 70
    1
  0
VERTEX
  8
0
 10
29.94347935
 20
75.52234613
 42
-0.41421356
  0
VERTEX
  8
0
 10
29.95118291
 20
75.61039813
 42
-0.41421356
  0
VERTEX
  8
0
 10
30.03923491
 20
75.60269458
 42
-0.41421356
  0
VERTEX
  8
0
 10
30.03153136
 20
75.51464258
 42
-0.41421356
  0
VERTEX
  8
0
 10
29.94347935
 20
75.52234613
  0
SEQEND
  0
POLYLINE
  8
0
 62
256
 66
   1
 39
0.000000
 70
    1
  0
VERTEX
  8
0
 10
32.43312379
 20
77.61140586
 42
-0.41421356
  0
VERTEX
  8
0
 10
32.44082735
 20
77.69945786
 42
-0.41421356
  0
VERTEX
  8
0
 10
32.52887935
 20
77.69175431
 42
-0.41421356
  0
VERTEX
  8
0
 10
32.52117580
 20
77.60370231
 42
-0.41421356
  0
VERTEX
  8
0
 10
32.43312379
 20
77.61140586
  0
SEQEND
  0
POLYLINE
  8
0
 62
256
 66
   1
 39
0.000000
 70
    1
  0
VERTEX
  8
0
 10
31.67039228
 20
75.99234266
 42
-0.41421356
  0
VERTEX
  8
0
 10
31.67809583
 20
76.08039467
 42
-0.41421356
  0
VERTEX
  8
0
 10
31.76614784
 20
76.07269111
 42
-0.41421356
  0
VERTEX
  8
0
 10
31.75844428
 20
75.98463911
 42
-0.41421356
  0
VERTEX
  8
0
 10
31.67039228
 20
75.99234266
  0
SEQEND
  0
POLYLINE
  8
0
 62
256
 66
   1
 39
0.000000
 70
    1
  0
VERTEX
  8
0
 10
0.15646085
 20
53.20957133
 42
0.41421356
  0
VERTEX
  8
0
 10
0.21526715
 20
52.93290940
  0
VERTEX
  8
0
 10
3.23448120
 20
50.97220888
 42
0.41421356
  0
VERTEX
  8
0
 10
3.51114312
 20
51.03101518
  0
VERTEX
  8
0
 10
16.36462435
 20
70.82364059
 42
0.41421356
  0
VERTEX
  8
0
 10
16.30581804
 20
71.10030251
  0
VERTEX
  8
0
 10
13.28660399
 20
73.06100304
 42
0.41421356
  0
VERTEX
  8
0
 10
13.00994207
 20
73.00219673
  0
VERTEX
  8
0
 10
0.15646085
 20
53.20957133
  0
SEQEND
  0
POLYLINE
  8
0
 62
256
 66
   1
 39
0.000000
 70
    1
  0
VERTEX
  8
0
 10
13.28154862
 20
72.61714980
 42
-0.41421356
  0
VERTEX
  8
0
 10
13.19509177
 20
72.59877283
 42
-0.41421356
  0
VERTEX
  8
0
 10
13.17671479
 20
72.68522968
 42
-0.41421356
  0
VERTEX
  8
0
 10
13.26317164
 20
72.70360665
 42
-0.41421356
  0
VERTEX
  8
0
 10
13.28154862
 20
72.61714980
  0
SEQEND
  0
POLYLINE
  8
0
 62
256
 66
   1
 39
0.000000
 70
    1
  0
VERTEX
  8
0
 10
16.00722796
 20
70.84707294
 42
-0.41421356
  0
VERTEX
  8
0
 10
15.92077111
 20
70.82869597
 42
-0.41421356
  0
VERTEX
  8
0
 10
15.90239414
 20
70.91515282
 42
-0.41421356
  0
VERTEX
  8
0
 10
15.98885099
 20
70.93352979
 42
-0.41421356
  0
VERTEX
  8
0
 10
16.00722796
 20
70.84707294
  0
SEQEND
  0
POLYLINE
  8
0
 62
256
 66
   1
 39
0.000000
 70
    1
  0
VERTEX
  8
0
 10
14.23590901
 20
71.10310844
 42
-0.41421356
  0
VERTEX
  8
0
 10
14.14945216
 20
71.08473147
 42
-0.41421356
  0
VERTEX
  8
0
 10
14.13107519
 20
71.17118832
 42
-0.41421356
  0
VERTEX
  8
0
 10
14.21753204
 20
71.18956529
 42
-0.41421356
  0
VERTEX
  8
0
 10
14.23590901
 20
71.10310844
  0
SEQEND
  0
POLYLINE
  8
0
 62
256
 66
   1
 39
0.000000
 70
    1
  0
VERTEX
  8
0
 10
3.34437040
 20
51.34798223
 42
-0.41421356
  0
VERTEX
  8
0
 10
3.25791355
 20
51.32960526
 42
-0.41421356
  0
VERTEX
  8
0
 10
3.23953658
 20
51.41606211
 42
-0.41421356
  0
VERTEX
  8
0
 10
3.32599343
 20
51.43443908
 42
-0.41421356
  0
VERTEX
  8
0
 10
3.34437040
 20
51.34798223
  0
SEQEND
  0
POLYLINE
  8
0
 62
256
 66
   1
 39
0.000000
 70
    1
  0
VERTEX
  8
0
 10
0.61869105
 20
53.11805910
 42
-0.41421356
  0
VERTEX
  8
0
 10
0.53223420
 20
53.09968213
 42
-0.41421356
  0
VERTEX
  8
0
 10
0.51385723
 20
53.18613898
 42
-0.41421356
  0
VERTEX
  8
0
 10
0.60031408
 20
53.20451595
 42
-0.41421356
  0
VERTEX
  8
0
 10
0.61869105
 20
53.11805910
  0
SEQEND
  0
POLYLINE
  8
0
 62
256
 66
   1
 39
0.000000
 70
    1
  0
VERTEX
  8
0
 10
2.39001000
 20
52.86202359
 42
-0.41421356
  0
VERTEX
  8
0
 10
2.30355315
 20
52.84364662
 42
-0.41421356
  0
VERTEX
  8
0
 10
2.28517618
 20
52.93010347
 42
-0.41421356
  0
VERTEX
  8
0
 10
2.37163303
 20
52.94848044
 42
-0.41421356
  0
VERTEX
  8
0
 10
2.39001000
 20
52.86202359
  0
SEQEND
  0
POLYLINE
  8
0
 62
256
 66
   1
 39
0.000000
 70
    1
  0
VERTEX
  8
0
 10
0.17176011
 20
46.97669578
 42
0.41421356
  0
VERTEX
  8
0
 10
0.19641148
 20
46.69492937
  0
VERTEX
  8
0
 10
2.95417148
 20
44.38089397
 42
0.41421356
  0
VERTEX
  8
0
 10
3.23593789
 20
44.40554534
  0
VERTEX
  8
0
 10
18.40572547
 20
62.48419420
 42
0.41421356
  0
VERTEX
  8
0
 10
18.38107411
 20
62.76596061
  0
VERTEX
  8
0
 10
15.62331411
 20
65.07999600
 42
0.41421356
  0
VERTEX
  8
0
 10
15.34154770
 20
65.05534463
  0
VERTEX
  8
0
 10
0.17176011
 20
46.97669578
  0
SEQEND
  0
POLYLINE
  8
0
 62
256
 66
   1
 39
0.000000
 70
    1
  0
VERTEX
  8
0
 10
15.56420431
 20
64.64006728
 42
-0.41421356
  0
VERTEX
  8
0
 10
15.47615231
 20
64.63236373
 42
-0.41421356
  0
VERTEX
  8
0
 10
15.46844876
 20
64.72041573
 42
-0.41421356
  0
VERTEX
  8
0
 10
15.55650076
 20
64.72811928
 42
-0.41421356
  0
VERTEX
  8
0
 10
15.56420431
 20
64.64006728
  0
SEQEND
  0
POLYLINE
  8
0
 62
256
 66
   1
 39
0.000000
 70
    1
  0
VERTEX
  8
0
 10
18.05384875
 20
62.55100755
 42
-0.41421356
  0
VERTEX
  8
0
 10
17.96579675
 20
62.54330399
 42
-0.41421356
  0
VERTEX
  8
0
 10
17.95809320
 20
62.63135600
 42
-0.41421356
  0
VERTEX
  8
0
 10
18.04614520
 20
62.63905955
 42
-0.41421356
  0
VERTEX
  8
0
 10
18.05384875
 20
62.55100755
  0
SEQEND
  0
POLYLINE
  8
0
 62
256
 66
   1
 39
0.000000
 70
    1
  0
VERTEX
  8
0
 10
16.32693583
 20
63.02100408
 42
-0.41421356
  0
VERTEX
  8
0
 10
16.23888382
 20
63.01330053
 42
-0.41421356
  0
VERTEX
  8
0
 10
16.23118027
 20
63.10135253
 42
-0.41421356
  0
VERTEX
  8
0
 10
16.31923228
 20
63.10905608
 42
-0.41421356
  0
VERTEX
  8
0
 10
16.32693583
 20
63.02100408
  0
SEQEND
  0
POLYLINE
  8
0
 62
256
 66
   1
 39
0.000000
 70
    1
  0
VERTEX
  8
0
 10
3.10903683
 20
44.74047424
 42
-0.41421356
  0
VERTEX
  8
0
 10
3.02098483
 20
44.73277069
 42
-0.41421356
  0
VERTEX
  8
0
 10
3.01328127
 20
44.82082270
 42
-0.41421356
  0
VERTEX
  8
0
 10
3.10133328
 20
44.82852625
 42
-0.41421356
  0
VERTEX
  8
0
 10
3.10903683
 20
44.74047424
  0
SEQEND
  0
POLYLINE
  8
0
 62
256
 66
   1
 39
0.000000
 70
    1
  0
VERTEX
  8
0
 10
0.61939239
 20
46.82953398
 42
-0.41421356
  0
VERTEX
  8
0
 10
0.53134039
 20
46.82183042
 42
-0.41421356
  0
VERTEX
  8
0
 10
0.52363683
 20
46.90988243
 42
-0.41421356
  0
VERTEX
  8
0
 10
0.61168884
 20
46.91758598
 42
-0.41421356
  0
VERTEX
  8
0
 10
0.61939239
 20
46.82953398
  0
SEQEND
  0
POLYLINE
  8
0
 62
256
 66
   1
 39
0.000000
 70
    1
  0
VERTEX
  8
0
 10
2.34630532
 20
46.35953744
 42
-0.41421356
  0
VERTEX
  8
0
 10
2.25825331
 20
46.35183389
 42
-0.41421356
  0
VERTEX
  8
0
 10
2.25054976
 20
46.43988589
 42
-0.41421356
  0
VERTEX
  8
0
 10
2.33860176
 20
46.44758945
 42
-0.41421356
  0
VERTEX
  8
0
 10
2.34630532
 20
46.35953744
  0
SEQEND
  0
POLYLINE
  8
0
 62
256
 66
   1
 39
0.000000
 70
    1
  0
VERTEX
  8
0
 10
0.17176011
 20
40.68000286
 42
0.41421356
  0
VERTEX
  8
0
 10
0.19641148
 20
40.39823645
  0
VERTEX
  8
0
 10
2.95417148
 20
38.08420106
 42
0.41421356
  0
VERTEX
  8
0
 10
3.23593789
 20
38.10885243
  0
VERTEX
  8
0
 10
18.40572547
 20
56.18750128
 42
0.41421356
  0
VERTEX
  8
0
 10
18.38107411
 20
56.46926769
  0
VERTEX
  8
0
 10
15.62331411
 20
58.78330309
 42
0.41421356
  0
VERTEX
  8
0
 10
15.34154770
 20
58.75865172
  0
VERTEX
  8
0
 10
0.17176011
 20
40.68000286
  0
SEQEND
  0
POLYLINE
  8
0
 62
256
 66
   1
 39
0.000000
 70
    1
  0
VERTEX
  8
0
 10
15.56420431
 20
58.34337436
 42
-0.41421356
  0
VERTEX
  8
0
 10
15.47615231
 20
58.33567081
 42
-0.41421356
  0
VERTEX
  8
0
 10
15.46844876
 20
58.42372282
 42
-0.41421356
  0
VERTEX
  8
0
 10
15.55650076
 20
58.43142637
 42
-0.41421356
  0
VERTEX
  8
0
 10
15.56420431
 20
58.34337436
  0
SEQEND
  0
POLYLINE
  8
0
 62
256
 66
   1
 39
0.000000
 70
    1
  0
VERTEX
  8
0
 10
18.05384875
 20
56.25431463
 42
-0.41421356
  0
VERTEX
  8
0
 10
17.96579675
 20
56.24661108
 42
-0.41421356
  0
VERTEX
  8
0
 10
17.95809320
 20
56.33466308
 42
-0.41421356
  0
VERTEX
  8
0
 10
18.04614520
 20
56.34236664
 42
-0.41421356
  0
VERTEX
  8
0
 10
18.05384875
 20
56.25431463
  0
SEQEND
  0
POLYLINE
  8
0
 62
256
 66
   1
 39
0.000000
 70
    1
  0
VERTEX
  8
0
 10
16.32693583
 20
56.72431117
 42
-0.41421356
  0
VERTEX
  8
0
 10
16.23888382
 20
56.71660761
 42
-0.41421356
  0
VERTEX
  8
0
 10
16.23118027
 20
56.80465962
 42
-0.41421356
  0
VERTEX
  8
0
 10
16.31923228
 20
56.81236317
 42
-0.41421356
  0
VERTEX
  8
0
 10
16.32693583
 20
56.72431117
  0
SEQEND
  0
POLYLINE
  8
0
 62
256
 66
   1
 39
0.000000
 70
    1
  0
VERTEX
  8
0
 10
3.10903683
 20
38.44378133
 42
-0.41421356
  0
VERTEX
  8
0
 10
3.02098483
 20
38.43607778
 42
-0.41421356
  0
VERTEX
  8
0
 10
3.01328127
 20
38.52412978
 42
-0.41421356
  0
VERTEX
  8
0
 10
3.10133328
 20
38.53183333
 42
-0.41421356
  0
VERTEX
  8
0
 10
3.10903683
 20
38.44378133
  0
SEQEND
  0
POLYLINE
  8
0
 62
256
 66
   1
 39
0.000000
 70
    1
  0
VERTEX
  8
0
 10
0.61939239
 20
40.53284106
 42
-0.41421356
  0
VERTEX
  8
0
 10
0.53134039
 20
40.52513751
 42
-0.41421356
  0
VERTEX
  8
0
 10
0.52363683
 20
40.61318951
 42
-0.41421356
  0
VERTEX
  8
0
 10
0.61168884
 20
40.62089307
 42
-0.41421356
  0
VERTEX
  8
0
 10
0.61939239
 20
40.53284106
  0
SEQEND
  0
POLYLINE
  8
0
 62
256
 66
   1
 39
0.000000
 70
    1
  0
VERTEX
  8
0
 10
2.34630532
 20
40.06284453
 42
-0.41421356
  0
VERTEX
  8
0
 10
2.25825331
 20
40.05514098
 42
-0.41421356
  0
VERTEX
  8
0
 10
2.25054976
 20
40.14319298
 42
-0.41421356
  0
VERTEX
  8
0
 10
2.33860176
 20
40.15089653
 42
-0.41421356
  0
VERTEX
  8
0
 10
2.34630532
 20
40.06284453
  0
SEQEND
  0
POLYLINE
  8
0
 62
256
 66
   1
 39
0.000000
 70
    1
  0
VERTEX
  8
0
 10
0.17176011
 20
34.38330995
 42
0.41421356
  0
VERTEX
  8
0
 10
0.19641148
 20
34.10154354
  0
VERTEX
  8
0
 10
2.95417148
 20
31.78750815
 42
0.41421356
  0
VERTEX
  8
0
 10
3.23593789
 20
31.81215951
  0
VERTEX
  8
0
 10
18.40572547
 20
49.89080837
 42
0.41421356
  0
VERTEX
  8
0
 10
18.38107411
 20
50.17257478
  0
VERTEX
  8
0
 10
15.62331411
 20
52.48661017
 42
0.41421356
  0
VERTEX
  8
0
 10
15.34154770
 20
52.46195881
  0
VERTEX
  8
0
 10
0.17176011
 20
34.38330995
  0
SEQEND
  0
POLYLINE
  8
0
 62
256
 66
   1
 39
0.000000
 70
    1
  0
VERTEX
  8
0
 10
15.56420431
 20
52.04668145
 42
-0.41421356
  0
VERTEX
  8
0
 10
15.47615231
 20
52.03897790
 42
-0.41421356
  0
VERTEX
  8
0
 10
15.46844876
 20
52.12702990
 42
-0.41421356
  0
VERTEX
  8
0
 10
15.55650076
 20
52.13473345
 42
-0.41421356
  0
VERTEX
  8
0
 10
15.56420431
 20
52.04668145
  0
SEQEND
  0
POLYLINE
  8
0
 62
256
 66
   1
 39
0.000000
 70
    1
  0
VERTEX
  8
0
 10
18.05384875
 20
49.95762172
 42
-0.41421356
  0
VERTEX
  8
0
 10
17.96579675
 20
49.94991817
 42
-0.41421356
  0
VERTEX
  8
0
 10
17.95809320
 20
50.03797017
 42
-0.41421356
  0
VERTEX
  8
0
 10
18.04614520
 20
50.04567372
 42
-0.41421356
  0
VERTEX
  8
0
 10
18.05384875
 20
49.95762172
  0
SEQEND
  0
POLYLINE
  8
0
 62
256
 66
   1
 39
0.000000
 70
    1
  0
VERTEX
  8
0
 10
16.32693583
 20
50.42761825
 42
-0.41421356
  0
VERTEX
  8
0
 10
16.23888382
 20
50.41991470
 42
-0.41421356
  0
VERTEX
  8
0
 10
16.23118027
 20
50.50796670
 42
-0.41421356
  0
VERTEX
  8
0
 10
16.31923228
 20
50.51567026
 42
-0.41421356
  0
VERTEX
  8
0
 10
16.32693583
 20
50.42761825
  0
SEQEND
  0
POLYLINE
  8
0
 62
256
 66
   1
 39
0.000000
 70
    1
  0
VERTEX
  8
0
 10
3.10903683
 20
32.14708842
 42
-0.41421356
  0
VERTEX
  8
0
 10
3.02098483
 20
32.13938487
 42
-0.41421356
  0
VERTEX
  8
0
 10
3.01328127
 20
32.22743687
 42
-0.41421356
  0
VERTEX
  8
0
 10
3.10133328
 20
32.23514042
 42
-0.41421356
  0
VERTEX
  8
0
 10
3.10903683
 20
32.14708842
  0
SEQEND
  0
POLYLINE
  8
0
 62
256
 66
   1
 39
0.000000
 70
    1
  0
VERTEX
  8
0
 10
0.61939239
 20
34.23614815
 42
-0.41421356
  0
VERTEX
  8
0
 10
0.53134039
 20
34.22844460
 42
-0.41421356
  0
VERTEX
  8
0
 10
0.52363683
 20
34.31649660
 42
-0.41421356
  0
VERTEX
  8
0
 10
0.61168884
 20
34.32420015
 42
-0.41421356
  0
VERTEX
  8
0
 10
0.61939239
 20
34.23614815
  0
SEQEND
  0
POLYLINE
  8
0
 62
256
 66
   1
 39
0.000000
 70
    1
  0
VERTEX
  8
0
 10
2.34630532
 20
33.76615162
 42
-0.41421356
  0
VERTEX
  8
0
 10
2.25825331
 20
33.75844806
 42
-0.41421356
  0
VERTEX
  8
0
 10
2.25054976
 20
33.84650007
 42
-0.41421356
  0
VERTEX
  8
0
 10
2.33860176
 20
33.85420362
 42
-0.41421356
  0
VERTEX
  8
0
 10
2.34630532
 20
33.76615162
  0
SEQEND
  0
POLYLINE
  8
0
 62
256
 66
   1
 39
0.000000
 70
    1
  0
VERTEX
  8
0
 10
0.17176011
 20
28.08661704
 42
0.41421356
  0
VERTEX
  8
0
 10
0.19641148
 20
27.80485063
  0
VERTEX
  8
0
 10
2.95417148
 20
25.49081523
 42
0.41421356
  0
VERTEX
  8
0
 10
3.23593789
 20
25.51546660
  0
VERTEX
  8
0
 10
18.40572547
 20
43.59411546
 42
0.41421356
  0
VERTEX
  8
0
 10
18.38107411
 20
43.87588187
  0
VERTEX
  8
0
 10
15.62331411
 20
46.18991726
 42
0.41421356
  0
VERTEX
  8
0
 10
15.34154770
 20
46.16526589
  0
VERTEX
  8
0
 10
0.17176011
 20
28.08661704
  0
SEQEND
  0
POLYLINE
  8
0
 62
256
 66
   1
 39
0.000000
 70
    1
  0
VERTEX
  8
0
 10
15.56420431
 20
45.74998854
 42
-0.41421356
  0
VERTEX
  8
0
 10
15.47615231
 20
45.74228499
 42
-0.41421356
  0
VERTEX
  8
0
 10
15.46844876
 20
45.83033699
 42
-0.41421356
  0
VERTEX
  8
0
 10
15.55650076
 20
45.83804054
 42
-0.41421356
  0
VERTEX
  8
0
 10
15.56420431
 20
45.74998854
  0
SEQEND
  0
POLYLINE
  8
0
 62
256
 66
   1
 39
0.000000
 70
    1
  0
VERTEX
  8
0
 10
18.05384875
 20
43.66092881
 42
-0.41421356
  0
VERTEX
  8
0
 10
17.96579675
 20
43.65322525
 42
-0.41421356
  0
VERTEX
  8
0
 10
17.95809320
 20
43.74127726
 42
-0.41421356
  0
VERTEX
  8
0
 10
18.04614520
 20
43.74898081
 42
-0.41421356
  0
VERTEX
  8
0
 10
18.05384875
 20
43.66092881
  0
SEQEND
  0
POLYLINE
  8
0
 62
256
 66
   1
 39
0.000000
 70
    1
  0
VERTEX
  8
0
 10
16.32693583
 20
44.13092534
 42
-0.41421356
  0
VERTEX
  8
0
 10
16.23888382
 20
44.12322179
 42
-0.41421356
  0
VERTEX
  8
0
 10
16.23118027
 20
44.21127379
 42
-0.41421356
  0
VERTEX
  8
0
 10
16.31923228
 20
44.21897734
 42
-0.41421356
  0
VERTEX
  8
0
 10
16.32693583
 20
44.13092534
  0
SEQEND
  0
POLYLINE
  8
0
 62
256
 66
   1
 39
0.000000
 70
    1
  0
VERTEX
  8
0
 10
3.10903683
 20
25.85039550
 42
-0.41421356
  0
VERTEX
  8
0
 10
3.02098483
 20
25.84269195
 42
-0.41421356
  0
VERTEX
  8
0
 10
3.01328127
 20
25.93074396
 42
-0.41421356
  0
VERTEX
  8
0
 10
3.10133328
 20
25.93844751
 42
-0.41421356
  0
VERTEX
  8
0
 10
3.10903683
 20
25.85039550
  0
SEQEND
  0
POLYLINE
  8
0
 62
256
 66
   1
 39
0.000000
 70
    1
  0
VERTEX
  8
0
 10
0.61939239
 20
27.93945524
 42
-0.41421356
  0
VERTEX
  8
0
 10
0.53134039
 20
27.93175168
 42
-0.41421356
  0
VERTEX
  8
0
 10
0.52363683
 20
28.01980369
 42
-0.41421356
  0
VERTEX
  8
0
 10
0.61168884
 20
28.02750724
 42
-0.41421356
  0
VERTEX
  8
0
 10
0.61939239
 20
27.93945524
  0
SEQEND
  0
POLYLINE
  8
0
 62
256
 66
   1
 39
0.000000
 70
    1
  0
VERTEX
  8
0
 10
2.34630532
 20
27.46945870
 42
-0.41421356
  0
VERTEX
  8
0
 10
2.25825331
 20
27.46175515
 42
-0.41421356
  0
VERTEX
  8
0
 10
2.25054976
 20
27.54980715
 42
-0.41421356
  0
VERTEX
  8
0
 10
2.33860176
 20
27.55751071
 42
-0.41421356
  0
VERTEX
  8
0
 10
2.34630532
 20
27.46945870
  0
SEQEND
  0
POLYLINE
  8
0
 62
256
 66
   1
 39
0.000000
 70
    1
  0
VERTEX
  8
0
 10
0.17176011
 20
21.78992412
 42
0.41421356
  0
VERTEX
  8
0
 10
0.19641148
 20
21.50815771
  0
VERTEX
  8
0
 10
2.95417148
 20
19.19412232
 42
0.41421356
  0
VERTEX
  8
0
 10
3.23593789
 20
19.21877369
  0
VERTEX
  8
0
 10
18.40572547
 20
37.29742254
 42
0.41421356
  0
VERTEX
  8
0
 10
18.38107411
 20
37.57918895
  0
VERTEX
  8
0
 10
15.62331411
 20
39.89322435
 42
0.41421356
  0
VERTEX
  8
0
 10
15.34154770
 20
39.86857298
  0
VERTEX
  8
0
 10
0.17176011
 20
21.78992412
  0
SEQEND
  0
POLYLINE
  8
0
 62
256
 66
   1
 39
0.000000
 70
    1
  0
VERTEX
  8
0
 10
15.56420431
 20
39.45329562
 42
-0.41421356
  0
VERTEX
  8
0
 10
15.47615231
 20
39.44559207
 42
-0.41421356
  0
VERTEX
  8
0
 10
15.46844876
 20
39.53364408
 42
-0.41421356
  0
VERTEX
  8
0
 10
15.55650076
 20
39.54134763
 42
-0.41421356
  0
VERTEX
  8
0
 10
15.56420431
 20
39.45329562
  0
SEQEND
  0
POLYLINE
  8
0
 62
256
 66
   1
 39
0.000000
 70
    1
  0
VERTEX
  8
0
 10
18.05384875
 20
37.36423589
 42
-0.41421356
  0
VERTEX
  8
0
 10
17.96579675
 20
37.35653234
 42
-0.41421356
  0
VERTEX
  8
0
 10
17.95809320
 20
37.44458434
 42
-0.41421356
  0
VERTEX
  8
0
 10
18.04614520
 20
37.45228790
 42
-0.41421356
  0
VERTEX
  8
0
 10
18.05384875
 20
37.36423589
  0
SEQEND
  0
POLYLINE
  8
0
 62
256
 66
   1
 39
0.000000
 70
    1
  0
VERTEX
  8
0
 10
16.32693583
 20
37.83423243
 42
-0.41421356
  0
VERTEX
  8
0
 10
16.23888382
 20
37.82652887
 42
-0.41421356
  0
VERTEX
  8
0
 10
16.23118027
 20
37.91458088
 42
-0.41421356
  0
VERTEX
  8
0
 10
16.31923228
 20
37.92228443
 42
-0.41421356
  0
VERTEX
  8
0
 10
16.32693583
 20
37.83423243
  0
SEQEND
  0
POLYLINE
  8
0
 62
256
 66
   1
 39
0.000000
 70
    1
  0
VERTEX
  8
0
 10
3.10903683
 20
19.55370259
 42
-0.41421356
  0
VERTEX
  8
0
 10
3.02098483
 20
19.54599904
 42
-0.41421356
  0
VERTEX
  8
0
 10
3.01328127
 20
19.63405104
 42
-0.41421356
  0
VERTEX
  8
0
 10
3.10133328
 20
19.64175459
 42
-0.41421356
  0
VERTEX
  8
0
 10
3.10903683
 20
19.55370259
  0
SEQEND
  0
POLYLINE
  8
0
 62
256
 66
   1
 39
0.000000
 70
    1
  0
VERTEX
  8
0
 10
0.61939239
 20
21.64276232
 42
-0.41421356
  0
VERTEX
  8
0
 10
0.53134039
 20
21.63505877
 42
-0.41421356
  0
VERTEX
  8
0
 10
0.52363683
 20
21.72311077
 42
-0.41421356
  0
VERTEX
  8
0
 10
0.61168884
 20
21.73081433
 42
-0.41421356
  0
VERTEX
  8
0
 10
0.61939239
 20
21.64276232
  0
SEQEND
  0
POLYLINE
  8
0
 62
256
 66
   1
 39
0.000000
 70
    1
  0
VERTEX
  8
0
 10
2.34630532
 20
21.17276579
 42
-0.41421356
  0
VERTEX
  8
0
 10
2.25825331
 20
21.16506224
 42
-0.41421356
  0
VERTEX
  8
0
 10
2.25054976
 20
21.25311424
 42
-0.41421356
  0
VERTEX
  8
0
 10
2.33860176
 20
21.26081779
 42
-0.41421356
  0
VERTEX
  8
0
 10
2.34630532
 20
21.17276579
  0
SEQEND
  0
POLYLINE
  8
0
 62
256
 66
   1
 39
0.000000
 70
    1
  0
VERTEX
  8
0
 10
23.89791339
 20
4.12500000
 42
0.41421356
  0
VERTEX
  8
0
 10
23.69791339
 20
3.92500000
  0
VERTEX
  8
0
 10
23.69791339
 20
0.32500000
 42
0.41421356
  0
VERTEX
  8
0
 10
23.89791339
 20
0.12500000
  0
VERTEX
  8
0
 10
47.49791339
 20
0.12500000
 42
0.41421356
  0
VERTEX
  8
0
 10
47.69791339
 20
0.32500000
  0
VERTEX
  8
0
 10
47.69791339
 20
3.92500000
 42
0.41421356
  0
VERTEX
  8
0
 10
47.49791339
 20
4.12500000
  0
VERTEX
  8
0
 10
23.89791339
 20
4.12500000
  0
SEQEND
  0
POLYLINE
  8
0
 62
256
 66
   1
 39
0.000000
 70
    1
  0
VERTEX
  8
0
 10
47.32291339
 20
3.68750000
 42
-0.41421356
  0
VERTEX
  8
0
 10
47.26041339
 20
3.75000000
 42
-0.41421356
  0
VERTEX
  8
0
 10
47.32291339
 20
3.81250000
 42
-0.41421356
  0
VERTEX
  8
0
 10
47.38541339
 20
3.75000000
 42
-0.41421356
  0
VERTEX
  8
0
 10
47.32291339
 20
3.68750000
  0
SEQEND
  0
POLYLINE
  8
0
 62
256
 66
   1
 39
0.000000
 70
    1
  0
VERTEX
  8
0
 10
47.32291339
 20
0.43750000
 42
-0.41421356
  0
VERTEX
  8
0
 10
47.26041339
 20
0.50000000
 42
-0.41421356
  0
VERTEX
  8
0
 10
47.32291339
 20
0.56250000
 42
-0.41421356
  0
VERTEX
  8
0
 10
47.38541339
 20
0.50000000
 42
-0.41421356
  0
VERTEX
  8
0
 10
47.32291339
 20
0.43750000
  0
SEQEND
  0
POLYLINE
  8
0
 62
256
 66
   1
 39
0.000000
 70
    1
  0
VERTEX
  8
0
 10
46.57291339
 20
2.06250000
 42
-0.41421356
  0
VERTEX
  8
0
 10
46.51041339
 20
2.12500000
 42
-0.41421356
  0
VERTEX
  8
0
 10
46.57291339
 20
2.18750000
 42
-0.41421356
  0
VERTEX
  8
0
 10
46.63541339
 20
2.12500000
 42
-0.41421356
  0
VERTEX
  8
0
 10
46.57291339
 20
2.06250000
  0
SEQEND
  0
POLYLINE
  8
0
 62
256
 66
   1
 39
0.000000
 70
    1
  0
VERTEX
  8
0
 10
24.07291339
 20
0.43750000
 42
-0.41421356
  0
VERTEX
  8
0
 10
24.01041339
 20
0.50000000
 42
-0.41421356
  0
VERTEX
  8
0
 10
24.07291339
 20
0.56250000
 42
-0.41421356
  0
VERTEX
  8
0
 10
24.13541339
 20
0.50000000
 42
-0.41421356
  0
VERTEX
  8
0
 10
24.07291339
 20
0.43750000
  0
SEQEND
  0
POLYLINE
  8
0
 62
256
 66
   1
 39
0.000000
 70
    1
  0
VERTEX
  8
0
 10
24.07291339
 20
3.68750000
 42
-0.41421356
  0
VERTEX
  8
0
 10
24.01041339
 20
3.75000000
 42
-0.41421356
  0
VERTEX
  8
0
 10
24.07291339
 20
3.81250000
 42
-0.41421356
  0
VERTEX
  8
0
 10
24.13541339
 20
3.75000000
 42
-0.41421356
  0
VERTEX
  8
0
 10
24.07291339
 20
3.68750000
  0
SEQEND
  0
POLYLINE
  8
0
 62
256
 66
   1
 39
0.000000
 70
    1
  0
VERTEX
  8
0
 10
24.82291339
 20
2.06250000
 42
-0.41421356
  0
VERTEX
  8
0
 10
24.76041339
 20
2.12500000
 42
-0.41421356
  0
VERTEX
  8
0
 10
24.82291339
 20
2.18750000
 42
-0.41421356
  0
VERTEX
  8
0
 10
24.88541339
 20
2.12500000
 42
-0.41421356
  0
VERTEX
  8
0
 10
24.82291339
 20
2.06250000
  0
SEQEND
  0
POLYLINE
  8
0
 62
256
 66
   1
 39
0.000000
 70
    1
  0
VERTEX
  8
0
 10
0.19288418
 20
17.38934582
 42
0.41327811
  0
VERTEX
  8
0
 10
0.13861272
 20
17.22140306
  0
VERTEX
  8
0
 10
1.27359442
 20
14.99387607
 42
0.41509340
  0
VERTEX
  8
0
 10
1.44205325
 20
14.93941998
 42
0.57535000
  0
VERTEX
  8
0
 10
5.22005089
 20
87.02790941
 42
0.41509340
  0
VERTEX
  8
0
 10
5.04682269
 20
86.99136039
  0
VERTEX
  8
0
 10
3.68521857
 20
84.89467391
 42
0.41327811
  0
VERTEX
  8
0
 10
3.72163792
 20
84.72197825
 42
-0.57522230
  0
VERTEX
  8
0
 10
0.19288418
 20
17.38934582
  0
SEQEND
  0
POLYLINE
  8
0
 62
256
 66
   1
 39
0.000000
 70
    1
  0
VERTEX
  8
0
 10
9.44922212
 20
21.96600726
 42
-0.41421356
  0
VERTEX
  8
0
 10
9.28109749
 20
22.02063426
 42
-0.41421356
  0
VERTEX
  8
0
 10
9.33572449
 20
22.18875889
 42
-0.41421356
  0
VERTEX
  8
0
 10
9.50384912
 20
22.13413189
 42
-0.41421356
  0
VERTEX
  8
0
 10
9.44922212
 20
21.96600726
  0
SEQEND
  0
POLYLINE
  8
0
 62
256
 66
   1
 39
0.000000
 70
    1
  0
VERTEX
  8
0
 10
20.83198073
 20
39.49391844
 42
-0.41421356
  0
VERTEX
  8
0
 10
20.66385610
 20
39.54854544
 42
-0.41421356
  0
VERTEX
  8
0
 10
20.71848311
 20
39.71667007
 42
-0.41421356
  0
VERTEX
  8
0
 10
20.88660774
 20
39.66204307
 42
-0.41421356
  0
VERTEX
  8
0
 10
20.83198073
 20
39.49391844
  0
SEQEND
  0
POLYLINE
  8
0
 62
256
 66
   1
 39
0.000000
 70
    1
  0
VERTEX
  8
0
 10
21.92578327
 20
60.36491411
 42
-0.41421356
  0
VERTEX
  8
0
 10
21.75765864
 20
60.41954111
 42
-0.41421356
  0
VERTEX
  8
0
 10
21.81228564
 20
60.58766574
 42
-0.41421356
  0
VERTEX
  8
0
 10
21.98041027
 20
60.53303873
 42
-0.41421356
  0
VERTEX
  8
0
 10
21.92578327
 20
60.36491411
  0
SEQEND
  0
POLYLINE
  8
0
 62
256
 66
   1
 39
0.000000
 70
    1
  0
VERTEX
  8
0
 10
12.43754622
 20
78.98662782
 42
-0.41421356
  0
VERTEX
  8
0
 10
12.26942159
 20
79.04125482
 42
-0.41421356
  0
VERTEX
  8
0
 10
12.32404859
 20
79.20937945
 42
-0.41421356
  0
VERTEX
  8
0
 10
12.49217322
 20
79.15475245
 42
-0.41421356
  0
VERTEX
  8
0
 10
12.43754622
 20
78.98662782
  0
SEQEND
  0
POLYLINE
  8
0
 62
256
 66
   1
 39
0.000000
 70
    1
  0
VERTEX
  8
0
 10
0.20851861
 20
14.43663146
 42
0.41327811
  0
VERTEX
  8
0
 10
0.13140221
 20
14.27787625
  0
VERTEX
  8
0
 10
0.94532650
 20
11.91406847
 42
0.41509340
  0
VERTEX
  8
0
 10
1.10456708
 20
11.83669741
 42
0.57535000
  0
VERTEX
  8
0
 10
14.87857613
 20
82.69783097
 42
0.41509340
  0
VERTEX
  8
0
 10
14.70194712
 20
82.68574634
  0
VERTEX
  8
0
 10
13.06179168
 20
80.79896334
 42
0.41327811
  0
VERTEX
  8
0
 10
13.07382202
 20
80.62287975
 42
-0.57522230
  0
VERTEX
  8
0
 10
0.20851861
 20
14.43663146
  0
SEQEND
  0
POLYLINE
  8
0
 62
256
 66
   1
 39
0.000000
 70
    1
  0
VERTEX
  8
0
 10
10.01172267
 20
17.68051990
 42
-0.41421356
  0
VERTEX
  8
0
 10
9.85283683
 20
17.75801370
 42
-0.41421356
  0
VERTEX
  8
0
 10
9.93033063
 20
17.91689954
 42
-0.41421356
  0
VERTEX
  8
0
 10
10.08921647
 20
17.83940574
 42
-0.41421356
  0
VERTEX
  8
0
 10
10.01172267
 20
17.68051990
  0
SEQEND
  0
POLYLINE
  8
0
 62
256
 66
   1
 39
0.000000
 70
    1
  0
VERTEX
  8
0
 10
23.72311881
 20
33.45367684
 42
-0.41421356
  0
VERTEX
  8
0
 10
23.56423297
 20
33.53117064
 42
-0.41421356
  0
VERTEX
  8
0
 10
23.64172677
 20
33.69005648
 42
-0.41421356
  0
VERTEX
  8
0
 10
23.80061261
 20
33.61256268
 42
-0.41421356
  0
VERTEX
  8
0
 10
23.72311881
 20
33.45367684
  0
SEQEND
  0
POLYLINE
  8
0
 62
256
 66
   1
 39
0.000000
 70
    1
  0
VERTEX
  8
0
 10
27.71095772
 20
53.96932952
 42
-0.41421356
  0
VERTEX
  8
0
 10
27.55207188
 20
54.04682332
 42
-0.41421356
  0
VERTEX
  8
0
 10
27.62956568
 20
54.20570916
 42
-0.41421356
  0
VERTEX
  8
0
 10
27.78845152
 20
54.12821536
 42
-0.41421356
  0
VERTEX
  8
0
 10
27.71095772
 20
53.96932952
  0
SEQEND
  0
POLYLINE
  8
0
 62
256
 66
   1
 39
0.000000
 70
    1
  0
VERTEX
  8
0
 10
20.90670118
 20
73.73032537
 42
-0.41421356
  0
VERTEX
  8
0
 10
20.74781534
 20
73.80781917
 42
-0.41421356
  0
VERTEX
  8
0
 10
20.82530915
 20
73.96670501
 42
-0.41421356
  0
VERTEX
  8
0
 10
20.98419499
 20
73.88921121
 42
-0.41421356
  0
VERTEX
  8
0
 10
20.90670118
 20
73.73032537
  0
SEQEND
  0
POLYLINE
  8
0
 62
256
 66
   1
 39
0.000000
 70
    1
  0
VERTEX
  8
0
 10
0.22563852
 20
11.60266695
 42
0.41327811
  0
VERTEX
  8
0
 10
0.12717815
 20
11.45618925
  0
VERTEX
  8
0
 10
0.60420293
 20
9.00210952
 42
0.41509340
  0
VERTEX
  8
0
 10
0.75112582
 20
8.90332943
 42
0.57535000
  0
VERTEX
  8
0
 10
24.25305086
 20
77.15787575
 42
0.41509340
  0
VERTEX
  8
0
 10
24.07645894
 20
77.17049074
  0
VERTEX
  8
0
 10
22.18967593
 20
75.53033530
 42
0.41327811
  0
VERTEX
  8
0
 10
22.17708309
 20
75.35429104
 42
-0.57522230
  0
VERTEX
  8
0
 10
0.22563852
 20
11.60266695
  0
SEQEND
  0
POLYLINE
  8
0
 62
256
 66
   1
 39
0.000000
 70
    1
  0
VERTEX
  8
0
 10
10.38490049
 20
13.45064378
 42
-0.41421356
  0
VERTEX
  8
0
 10
10.23834596
 20
13.54949605
 42
-0.41421356
  0
VERTEX
  8
0
 10
10.33719824
 20
13.69605057
 42
-0.41421356
  0
VERTEX
  8
0
 10
10.48375276
 20
13.59719830
 42
-0.41421356
  0
VERTEX
  8
0
 10
10.38490049
 20
13.45064378
  0
SEQEND
  0
POLYLINE
  8
0
 62
256
 66
   1
 39
0.000000
 70
    1
  0
VERTEX
  8
0
 10
26.15805743
 20
27.16203992
 42
-0.41421356
  0
VERTEX
  8
0
 10
26.01150290
 20
27.26089219
 42
-0.41421356
  0
VERTEX
  8
0
 10
26.11035518
 20
27.40744671
 42
-0.41421356
  0
VERTEX
  8
0
 10
26.25690970
 20
27.30859444
 42
-0.41421356
  0
VERTEX
  8
0
 10
26.15805743
 20
27.16203992
  0
SEQEND
  0
POLYLINE
  8
0
 62
256
 66
   1
 39
0.000000
 70
    1
  0
VERTEX
  8
0
 10
32.96231396
 20
46.92303577
 42
-0.41421356
  0
VERTEX
  8
0
 10
32.81575944
 20
47.02188804
 42
-0.41421356
  0
VERTEX
  8
0
 10
32.91461171
 20
47.16844256
 42
-0.41421356
  0
VERTEX
  8
0
 10
33.06116624
 20
47.06959029
 42
-0.41421356
  0
VERTEX
  8
0
 10
32.96231396
 20
46.92303577
  0
SEQEND
  0
POLYLINE
  8
0
 62
256
 66
   1
 39
0.000000
 70
    1
  0
VERTEX
  8
0
 10
28.97447505
 20
67.43868845
 42
-0.41421356
  0
VERTEX
  8
0
 10
28.82792053
 20
67.53754072
 42
-0.41421356
  0
VERTEX
  8
0
 10
28.92677280
 20
67.68409524
 42
-0.41421356
  0
VERTEX
  8
0
 10
29.07332733
 20
67.58524297
 42
-0.41421356
  0
VERTEX
  8
0
 10
28.97447505
 20
67.43868845
  0
SEQEND
  0
POLYLINE
  8
0
 62
256
 66
   1
 39
0.000000
 70
    1
  0
VERTEX
  8
0
 10
0.24059622
 20
8.81725436
 42
0.41327811
  0
VERTEX
  8
0
 10
0.12501861
 20
8.68386779
  0
VERTEX
  8
0
 10
0.29941063
 20
6.18994570
 42
0.41509340
  0
VERTEX
  8
0
 10
0.43320012
 20
6.07399650
 42
0.57535000
  0
VERTEX
  8
0
 10
32.07808211
 20
70.95561961
 42
0.41509340
  0
VERTEX
  8
0
 10
31.90434386
 20
70.98966171
  0
VERTEX
  8
0
 10
29.83173999
 20
69.59167275
 42
0.41327811
  0
VERTEX
  8
0
 10
29.79778662
 20
69.41847538
 42
-0.57522230
  0
VERTEX
  8
0
 10
0.24059622
 20
8.81725436
  0
SEQEND
  0
POLYLINE
  8
0
 62
256
 66
   1
 39
0.000000
 70
    1
  0
VERTEX
  8
0
 10
10.54934430
 20
9.41335406
 42
-0.41421356
  0
VERTEX
  8
0
 10
10.41592924
 20
9.52933001
 42
-0.41421356
  0
VERTEX
  8
0
 10
10.53190518
 20
9.66274508
 42
-0.41421356
  0
VERTEX
  8
0
 10
10.66532025
 20
9.54676913
 42
-0.41421356
  0
VERTEX
  8
0
 10
10.54934430
 20
9.41335406
  0
SEQEND
  0
POLYLINE
  8
0
 62
256
 66
   1
 39
0.000000
 70
    1
  0
VERTEX
  8
0
 10
27.87592937
 20
21.10028326
 42
-0.41421356
  0
VERTEX
  8
0
 10
27.74251430
 20
21.21625920
 42
-0.41421356
  0
VERTEX
  8
0
 10
27.85849025
 20
21.34967427
 42
-0.41421356
  0
VERTEX
  8
0
 10
27.99190531
 20
21.23369832
 42
-0.41421356
  0
VERTEX
  8
0
 10
27.87592937
 20
21.10028326
  0
SEQEND
  0
POLYLINE
  8
0
 62
256
 66
   1
 39
0.000000
 70
    1
  0
VERTEX
  8
0
 10
37.03772760
 20
39.88475336
 42
-0.41421356
  0
VERTEX
  8
0
 10
36.90431253
 20
40.00072931
 42
-0.41421356
  0
VERTEX
  8
0
 10
37.02028848
 20
40.13414438
 42
-0.41421356
  0
VERTEX
  8
0
 10
37.15370354
 20
40.01816843
 42
-0.41421356
  0
VERTEX
  8
0
 10
37.03772760
 20
39.88475336
  0
SEQEND
  0
POLYLINE
  8
0
 62
256
 66
   1
 39
0.000000
 70
    1
  0
VERTEX
  8
0
 10
35.57984256
 20
60.73348079
 42
-0.41421356
  0
VERTEX
  8
0
 10
35.44642749
 20
60.84945674
 42
-0.41421356
  0
VERTEX
  8
0
 10
35.56240344
 20
60.98287180
 42
-0.41421356
  0
VERTEX
  8
0
 10
35.69581850
 20
60.86689585
 42
-0.41421356
  0
VERTEX
  8
0
 10
35.57984256
 20
60.73348079
  0
SEQEND
  0
POLYLINE
  8
0
 62
256
 66
   1
 39
0.000000
 70
    1
  0
VERTEX
  8
0
 10
0.50367148
 20
6.03466756
 42
0.41327811
  0
VERTEX
  8
0
 10
0.37478433
 20
5.91409285
  0
VERTEX
  8
0
 10
0.28753517
 20
3.41560379
 42
0.41509340
  0
VERTEX
  8
0
 10
0.40847175
 20
3.28630497
 42
0.57535000
  0
VERTEX
  8
0
 10
38.66197613
 20
64.50470888
 42
0.41509340
  0
VERTEX
  8
0
 10
38.49274800
 20
64.55672508
  0
VERTEX
  8
0
 10
36.28536843
 20
63.38304055
 42
0.41327811
  0
VERTEX
  8
0
 10
36.23349700
 20
63.21434107
 42
-0.57522230
  0
VERTEX
  8
0
 10
0.50367148
 20
6.03466756
  0
SEQEND
  0
POLYLINE
  8
0
 62
256
 66
   1
 39
0.000000
 70
    1
  0
VERTEX
  8
0
 10
10.81825655
 20
5.54994418
 42
-0.41421356
  0
VERTEX
  8
0
 10
10.69769513
 20
5.67923047
 42
-0.41421356
  0
VERTEX
  8
0
 10
10.82698142
 20
5.79979188
 42
-0.41421356
  0
VERTEX
  8
0
 10
10.94754284
 20
5.67050559
 42
-0.41421356
  0
VERTEX
  8
0
 10
10.81825655
 20
5.54994418
  0
SEQEND
  0
POLYLINE
  8
0
 62
256
 66
   1
 39
0.000000
 70
    1
  0
VERTEX
  8
0
 10
29.27154152
 20
15.36172984
 42
-0.41421356
  0
VERTEX
  8
0
 10
29.15098010
 20
15.49101613
 42
-0.41421356
  0
VERTEX
  8
0
 10
29.28026639
 20
15.61157755
 42
-0.41421356
  0
VERTEX
  8
0
 10
29.40082781
 20
15.48229126
 42
-0.41421356
  0
VERTEX
  8
0
 10
29.27154152
 20
15.36172984
  0
SEQEND
  0
POLYLINE
  8
0
 62
256
 66
   1
 39
0.000000
 70
    1
  0
VERTEX
  8
0
 10
40.34666225
 20
33.08562796
 42
-0.41421356
  0
VERTEX
  8
0
 10
40.22610084
 20
33.21491425
 42
-0.41421356
  0
VERTEX
  8
0
 10
40.35538713
 20
33.33547567
 42
-0.41421356
  0
VERTEX
  8
0
 10
40.47594854
 20
33.20618938
 42
-0.41421356
  0
VERTEX
  8
0
 10
40.34666225
 20
33.08562796
  0
SEQEND
  0
POLYLINE
  8
0
 62
256
 66
   1
 39
0.000000
 70
    1
  0
VERTEX
  8
0
 10
41.07604910
 20
53.97253436
 42
-0.41421356
  0
VERTEX
  8
0
 10
40.95548768
 20
54.10182065
 42
-0.41421356
  0
VERTEX
  8
0
 10
41.08477397
 20
54.22238207
 42
-0.41421356
  0
VERTEX
  8
0
 10
41.20533539
 20
54.09309578
 42
-0.41421356
  0
VERTEX
  8
0
 10
41.07604910
 20
53.97253436
  0
SEQEND
  0
POLYLINE
  8
0
 62
256
 66
   1
 39
0.000000
 70
    1
  0
VERTEX
  8
0
 10
0.61423571
 20
3.23723564
 42
0.41327811
  0
VERTEX
  8
0
 10
0.47345113
 20
3.13079382
  0
VERTEX
  8
0
 10
0.12551671
 20
0.65511177
 42
0.41509340
  0
VERTEX
  8
0
 10
0.23227538
 20
0.51387994
 42
0.57535000
  0
VERTEX
  8
0
 10
44.67528874
 20
57.39834300
 42
0.41509340
  0
VERTEX
  8
0
 10
44.51242484
 20
57.46776341
  0
VERTEX
  8
0
 10
42.19445408
 20
56.53124243
 42
0.41327811
  0
VERTEX
  8
0
 10
42.12523291
 20
56.36888915
 42
-0.57522230
  0
VERTEX
  8
0
 10
0.61423571
 20
3.23723564
  0
SEQEND
  0
POLYLINE
  8
0
 62
256
 66
   1
 39
0.000000
 70
    1
  0
VERTEX
  8
0
 10
10.82164902
 20
1.67699989
 42
-0.41421356
  0
VERTEX
  8
0
 10
10.71526215
 20
1.81818003
 42
-0.41421356
  0
VERTEX
  8
0
 10
10.85644229
 20
1.92456690
 42
-0.41421356
  0
VERTEX
  8
0
 10
10.96282916
 20
1.78338676
 42
-0.41421356
  0
VERTEX
  8
0
 10
10.82164902
 20
1.67699989
  0
SEQEND
  0
POLYLINE
  8
0
 62
256
 66
   1
 39
0.000000
 70
    1
  0
VERTEX
  8
0
 10
30.19945584
 20
9.50614204
 42
-0.41421356
  0
VERTEX
  8
0
 10
30.09306897
 20
9.64732219
 42
-0.41421356
  0
VERTEX
  8
0
 10
30.23424911
 20
9.75370906
 42
-0.41421356
  0
VERTEX
  8
0
 10
30.34063598
 20
9.61252891
 42
-0.41421356
  0
VERTEX
  8
0
 10
30.19945584
 20
9.50614204
  0
SEQEND
  0
POLYLINE
  8
0
 62
256
 66
   1
 39
0.000000
 70
    1
  0
VERTEX
  8
0
 10
43.06655774
 20
25.97528145
 42
-0.41421356
  0
VERTEX
  8
0
 10
42.96017086
 20
26.11646159
 42
-0.41421356
  0
VERTEX
  8
0
 10
43.10135101
 20
26.22284846
 42
-0.41421356
  0
VERTEX
  8
0
 10
43.20773788
 20
26.08166832
 42
-0.41421356
  0
VERTEX
  8
0
 10
43.06655774
 20
25.97528145
  0
SEQEND
  0
POLYLINE
  8
0
 62
256
 66
   1
 39
0.000000
 70
    1
  0
VERTEX
  8
0
 10
45.97522515
 20
46.67152550
 42
-0.41421356
  0
VERTEX
  8
0
 10
45.86883828
 20
46.81270565
 42
-0.41421356
  0
VERTEX
  8
0
 10
46.01001842
 20
46.91909252
 42
-0.41421356
  0
VERTEX
  8
0
 10
46.11640530
 20
46.77791237
 42
-0.41421356
  0
VERTEX
  8
0
 10
45.97522515
 20
46.67152550
  0
SEQEND
  0
ENDSEC
  0
EOF
