  0
SECTION
  2
HEADER
  9
$ACADVER
  1
AC1014
  9
$HANDSEED
  5
FFFF
  9
$MEASUREMENT
 70
     1
  0
ENDSEC
  0
SECTION
  2
TABLES
  0
TABLE
  2
VPORT
  5
8
330
0
100
AcDbSymbolTable
 70
     4
  0
VPORT
  5
2E
330
8
100
AcDbSymbolTableRecord
100
AcDbViewportTableRecord
  2
*ACTIVE
 70
     0
 10
0.0
 20
0.0
 11
1.0
 21
1.0
 12
210.0
 22
148.5
 13
0.0
 23
0.0
 14
10.0
 24
10.0
 15
10.0
 25
10.0
 16
0.0
 26
0.0
 36
1.0
 17
0.0
 27
0.0
 37
0.0
 40
341.0
 41
1.24
 42
50.0
 43
0.0
 44
0.0
 50
0.0
 51
0.0
 71
     0
 72
   100
 73
     1
 74
     3
 75
     0
 76
     0
 77
     0
 78
     0
  0
ENDTAB
  0
TABLE
  2
LTYPE
  5
5
330
0
100
AcDbSymbolTable
 70
     1
  0
LTYPE
  5
14
330
5
100
AcDbSymbolTableRecord
100
AcDbLinetypeTableRecord
  2
BYBLOCK
 70
     0
  3

 72
    65
 73
     0
 40
0.0
  0
LTYPE
  5
15
330
5
100
AcDbSymbolTableRecord
100
AcDbLinetypeTableRecord
  2
BYLAYER
 70
     0
  3

 72
    65
 73
     0
 40
0.0
  0
LTYPE
  5
16
330
5
100
AcDbSymbolTableRecord
100
AcDbLinetypeTableRecord
  2
CONTINUOUS
 70
     0
  3
Solid line
 72
    65
 73
     0
 40
0.0
  0
ENDTAB
  0
TABLE
  2
LAYER
  5
2
100
AcDbSymbolTable
 70
2
  0
LAYER
  5
50
100
AcDbSymbolTableRecord
100
AcDbLayerTableRecord
  2
0
 70
0
  6
CONTINUOUS
  0
LAYER
  5
51
100
AcDbSymbolTableRecord
100
AcDbLayerTableRecord
  2
Layer_1
 70
0
  6
CONTINUOUS
  0
ENDTAB
  0
TABLE
  2
STYLE
  5
3
330
0
100
AcDbSymbolTable
 70
     1
  0
STYLE
  5
11
330
3
100
AcDbSymbolTableRecord
100
AcDbTextStyleTableRecord
  2
STANDARD
 70
     0
 40
0.0
 41
1.0
 50
0.0
 71
     0
 42
2.5
  3
txt
  4

  0
ENDTAB
  0
TABLE
  2
VIEW
  5
6
330
0
100
AcDbSymbolTable
 70
     0
  0
ENDTAB
  0
TABLE
  2
UCS
  5
7
330
0
100
AcDbSymbolTable
 70
     0
  0
ENDTAB
  0
TABLE
  2
APPID
  5
9
330
0
100
AcDbSymbolTable
 70
     2
  0
APPID
  5
12
330
9
100
AcDbSymbolTableRecord
100
AcDbRegAppTableRecord
  2
ACAD
 70
     0
  0
ENDTAB
  0
TABLE
  2
DIMSTYLE
  5
A
330
0
100
AcDbSymbolTable
 70
     1
  0
DIMSTYLE
105
27
330
A
100
AcDbSymbolTableRecord
100
AcDbDimStyleTableRecord
  2
ISO-25
 70
     0
  3

  4

  5

  6

  7

 40
1.0
 41
2.5
 42
0.625
 43
3.75
 44
1.25
 45
0.0
 46
0.0
 47
0.0
 48
0.0
140
2.5
141
2.5
142
0.0
143
0.03937007874016
144
1.0
145
0.0
146
1.0
147
0.625
 71
     0
 72
     0
 73
     0
 74
     0
 75
     0
 76
     0
 77
     1
 78
     8
170
     0
171
     3
172
     1
173
     0
174
     0
175
     0
176
     0
177
     0
178
     0
270
     2
271
     2
272
     2
273
     2
274
     3
340
11
275
     0
280
     0
281
     0
282
     0
283
     0
284
     8
285
     0
286
     0
287
     3
288
     0
  0
ENDTAB
  0
TABLE
  2
BLOCK_RECORD
  5
1
330
0
100
AcDbSymbolTable
 70
     1
  0
BLOCK_RECORD
  5
1F
330
1
100
AcDbSymbolTableRecord
100
AcDbBlockTableRecord
  2
*MODEL_SPACE
  0
BLOCK_RECORD
  5
1B
330
1
100
AcDbSymbolTableRecord
100
AcDbBlockTableRecord
  2
*PAPER_SPACE
  0
ENDTAB
  0
ENDSEC
  0
SECTION
  2
BLOCKS
  0
BLOCK
  5
20
330
1F
100
AcDbEntity
  8
0
100
AcDbBlockBegin
  2
*MODEL_SPACE
 70
     0
 10
0.0
 20
0.0
 30
0.0
  3
*MODEL_SPACE
  1

  0
ENDBLK
  5
21
330
1F
100
AcDbEntity
  8
0
100
AcDbBlockEnd
  0
BLOCK
  5
1C
330
1B
100
AcDbEntity
 67
     1
  8
0
100
AcDbBlockBegin
  2
*PAPER_SPACE
  1

  0
ENDBLK
  5
1D
330
1B
100
AcDbEntity
 67
     1
  8
0
100
AcDbBlockEnd
  0
ENDSEC
  0
SECTION
  2
ENTITIES
  0
SPLINE
  5
100
100
AcDbEntity
  8
Layer_1
 62
5
100
AcDbSpline
 70
8
 71
3
 72
8
 73
4
 74
0
 40
0
 40
0
 40
0
 40
0
 40
1
 40
1
 40
1
 40
1
 10
149.953810
 20
281.966150
 30
0.0
 10
150.784811
 20
281.966150
 30
0.0
 10
151.453810
 20
280.628150
 30
0.0
 10
151.453810
 20
278.966153
 30
0.0
  0
LINE
  5
101
100
AcDbEntity
  8
Layer_1
 62
5
100
AcDbLine
 10
151.453810
 20
278.966153
 30
0.0
 11
151.453810
 21
209.703047
 31
0.0
  0
SPLINE
  5
102
100
AcDbEntity
  8
Layer_1
 62
5
100
AcDbSpline
 70
8
 71
3
 72
8
 73
4
 74
0
 40
0
 40
0
 40
0
 40
0
 40
1
 40
1
 40
1
 40
1
 10
151.453810
 20
209.703047
 30
0.0
 10
151.453810
 20
208.041048
 30
0.0
 10
150.784811
 20
206.703048
 30
0.0
 10
149.953810
 20
206.703048
 30
0.0
  0
SPLINE
  5
103
100
AcDbEntity
  8
Layer_1
 62
5
100
AcDbSpline
 70
8
 71
3
 72
8
 73
4
 74
0
 40
0
 40
0
 40
0
 40
0
 40
1
 40
1
 40
1
 40
1
 10
149.953810
 20
206.703048
 30
0.0
 10
149.122809
 20
206.703048
 30
0.0
 10
148.453810
 20
208.041048
 30
0.0
 10
148.453810
 20
209.703047
 30
0.0
  0
LINE
  5
104
100
AcDbEntity
  8
Layer_1
 62
5
100
AcDbLine
 10
148.453810
 20
209.703047
 30
0.0
 11
148.453810
 21
278.966153
 31
0.0
  0
SPLINE
  5
105
100
AcDbEntity
  8
Layer_1
 62
5
100
AcDbSpline
 70
8
 71
3
 72
8
 73
4
 74
0
 40
0
 40
0
 40
0
 40
0
 40
1
 40
1
 40
1
 40
1
 10
148.453810
 20
278.966153
 30
0.0
 10
148.453810
 20
280.628150
 30
0.0
 10
149.122809
 20
281.966150
 30
0.0
 10
149.953810
 20
281.966150
 30
0.0
  0
LINE
  5
106
100
AcDbEntity
  8
Layer_1
 62
5
100
AcDbLine
 10
149.953810
 20
281.966150
 30
0.0
 11
149.953810
 21
281.966150
 31
0.0
  0
LINE
  5
107
100
AcDbEntity
  8
Layer_1
 62
3
100
AcDbLine
 10
129.093909
 20
205.118588
 30
0.0
 11
171.558799
 21
205.118588
 31
0.0
  0
SPLINE
  5
108
100
AcDbEntity
  8
Layer_1
 62
3
100
AcDbSpline
 70
8
 71
3
 72
8
 73
4
 74
0
 40
0
 40
0
 40
0
 40
0
 40
1
 40
1
 40
1
 40
1
 10
171.558799
 20
205.118588
 30
0.0
 10
173.220800
 20
205.118588
 30
0.0
 10
174.558800
 20
203.780598
 30
0.0
 10
174.558800
 20
202.118599
 30
0.0
  0
LINE
  5
109
100
AcDbEntity
  8
Layer_1
 62
3
100
AcDbLine
 10
174.558800
 20
202.118599
 30
0.0
 11
174.558800
 21
134.566008
 31
0.0
  0
SPLINE
  5
10a
100
AcDbEntity
  8
Layer_1
 62
3
100
AcDbSpline
 70
8
 71
3
 72
8
 73
4
 74
0
 40
0
 40
0
 40
0
 40
0
 40
1
 40
1
 40
1
 40
1
 10
174.558800
 20
134.566008
 30
0.0
 10
174.558800
 20
132.904017
 30
0.0
 10
173.220800
 20
131.566019
 30
0.0
 10
171.558799
 20
131.566019
 30
0.0
  0
LINE
  5
10b
100
AcDbEntity
  8
Layer_1
 62
3
100
AcDbLine
 10
171.558799
 20
131.566019
 30
0.0
 11
129.093909
 21
131.566019
 31
0.0
  0
SPLINE
  5
10c
100
AcDbEntity
  8
Layer_1
 62
3
100
AcDbSpline
 70
8
 71
3
 72
8
 73
4
 74
0
 40
0
 40
0
 40
0
 40
0
 40
1
 40
1
 40
1
 40
1
 10
129.093909
 20
131.566019
 30
0.0
 10
127.431918
 20
131.566019
 30
0.0
 10
126.093920
 20
132.904017
 30
0.0
 10
126.093920
 20
134.566008
 30
0.0
  0
LINE
  5
10d
100
AcDbEntity
  8
Layer_1
 62
3
100
AcDbLine
 10
126.093920
 20
134.566008
 30
0.0
 11
126.093920
 21
202.118599
 31
0.0
  0
SPLINE
  5
10e
100
AcDbEntity
  8
Layer_1
 62
3
100
AcDbSpline
 70
8
 71
3
 72
8
 73
4
 74
0
 40
0
 40
0
 40
0
 40
0
 40
1
 40
1
 40
1
 40
1
 10
126.093920
 20
202.118599
 30
0.0
 10
126.093920
 20
203.780598
 30
0.0
 10
127.431918
 20
205.118588
 30
0.0
 10
129.093909
 20
205.118588
 30
0.0
  0
LINE
  5
10f
100
AcDbEntity
  8
Layer_1
 62
3
100
AcDbLine
 10
129.093909
 20
205.118588
 30
0.0
 11
129.093909
 21
205.118588
 31
0.0
  0
LINE
  5
110
100
AcDbEntity
  8
Layer_1
 62
1
100
AcDbLine
 10
164.834580
 20
288.946366
 30
0.0
 11
164.834580
 21
285.931770
 31
0.0
  0
LINE
  5
111
100
AcDbEntity
  8
Layer_1
 62
1
100
AcDbLine
 10
164.834580
 20
285.931770
 30
0.0
 11
166.434208
 21
285.931770
 31
0.0
  0
LINE
  5
112
100
AcDbEntity
  8
Layer_1
 62
1
100
AcDbLine
 10
166.434208
 20
285.931770
 30
0.0
 11
166.434208
 21
282.931504
 31
0.0
  0
LINE
  5
113
100
AcDbEntity
  8
Layer_1
 62
1
100
AcDbLine
 10
166.434208
 20
282.931504
 30
0.0
 11
164.834580
 21
282.931504
 31
0.0
  0
LINE
  5
114
100
AcDbEntity
  8
Layer_1
 62
1
100
AcDbLine
 10
164.834580
 20
282.931504
 30
0.0
 11
164.834580
 21
280.931695
 31
0.0
  0
LINE
  5
115
100
AcDbEntity
  8
Layer_1
 62
1
100
AcDbLine
 10
164.834580
 20
280.931695
 30
0.0
 11
161.634230
 21
280.931695
 31
0.0
  0
LINE
  5
116
100
AcDbEntity
  8
Layer_1
 62
1
100
AcDbLine
 10
161.634230
 20
280.931695
 30
0.0
 11
161.634230
 21
282.931504
 31
0.0
  0
LINE
  5
117
100
AcDbEntity
  8
Layer_1
 62
1
100
AcDbLine
 10
161.634230
 20
282.931504
 30
0.0
 11
160.034599
 21
282.931504
 31
0.0
  0
LINE
  5
118
100
AcDbEntity
  8
Layer_1
 62
1
100
AcDbLine
 10
160.034599
 20
282.931504
 30
0.0
 11
160.034599
 21
285.931770
 31
0.0
  0
LINE
  5
119
100
AcDbEntity
  8
Layer_1
 62
1
100
AcDbLine
 10
160.034599
 20
285.931770
 30
0.0
 11
161.634230
 21
285.931770
 31
0.0
  0
LINE
  5
11a
100
AcDbEntity
  8
Layer_1
 62
1
100
AcDbLine
 10
161.634230
 20
285.931770
 30
0.0
 11
161.634230
 21
288.946366
 31
0.0
  0
LINE
  5
11b
100
AcDbEntity
  8
Layer_1
 62
1
100
AcDbLine
 10
161.634230
 20
288.946366
 30
0.0
 11
141.823550
 21
288.946366
 31
0.0
  0
LINE
  5
11c
100
AcDbEntity
  8
Layer_1
 62
1
100
AcDbLine
 10
141.823550
 20
288.946366
 30
0.0
 11
141.823550
 21
292.129635
 31
0.0
  0
LINE
  5
11d
100
AcDbEntity
  8
Layer_1
 62
1
100
AcDbLine
 10
141.823550
 20
292.129635
 30
0.0
 11
131.823398
 21
292.129635
 31
0.0
  0
LINE
  5
11e
100
AcDbEntity
  8
Layer_1
 62
1
100
AcDbLine
 10
131.823398
 20
292.129635
 30
0.0
 11
131.823398
 21
288.946366
 31
0.0
  0
LINE
  5
11f
100
AcDbEntity
  8
Layer_1
 62
1
100
AcDbLine
 10
131.823398
 20
288.946366
 30
0.0
 11
123.649430
 21
288.936233
 31
0.0
  0
LINE
  5
120
100
AcDbEntity
  8
Layer_1
 62
1
100
AcDbLine
 10
123.649430
 20
288.936236
 30
0.0
 11
123.649430
 21
122.176298
 31
0.0
  0
LINE
  5
121
100
AcDbEntity
  8
Layer_1
 62
1
100
AcDbLine
 10
123.649430
 20
122.176298
 30
0.0
 11
135.072820
 21
122.176298
 31
0.0
  0
LINE
  5
122
100
AcDbEntity
  8
Layer_1
 62
1
100
AcDbLine
 10
135.072820
 20
122.176298
 30
0.0
 11
135.072820
 21
125.190897
 31
0.0
  0
LINE
  5
123
100
AcDbEntity
  8
Layer_1
 62
1
100
AcDbLine
 10
135.072820
 20
125.190897
 30
0.0
 11
133.473189
 21
125.190897
 31
0.0
  0
LINE
  5
124
100
AcDbEntity
  8
Layer_1
 62
3
100
AcDbLine
 10
133.473189
 20
125.190897
 30
0.0
 11
133.473189
 21
128.191169
 31
0.0
  0
LINE
  5
125
100
AcDbEntity
  8
Layer_1
 62
3
100
AcDbLine
 10
133.473189
 20
128.191169
 30
0.0
 11
135.072820
 21
128.191169
 31
0.0
  0
LINE
  5
126
100
AcDbEntity
  8
Layer_1
 62
3
100
AcDbLine
 10
135.072820
 20
128.191169
 30
0.0
 11
135.072820
 21
130.190977
 31
0.0
  0
LINE
  5
127
100
AcDbEntity
  8
Layer_1
 62
3
100
AcDbLine
 10
135.072820
 20
130.190977
 30
0.0
 11
138.273170
 21
130.190977
 31
0.0
  0
LINE
  5
128
100
AcDbEntity
  8
Layer_1
 62
3
100
AcDbLine
 10
138.273170
 20
130.190977
 30
0.0
 11
138.273170
 21
128.191169
 31
0.0
  0
LINE
  5
129
100
AcDbEntity
  8
Layer_1
 62
3
100
AcDbLine
 10
138.273170
 20
128.191169
 30
0.0
 11
139.872799
 21
128.191169
 31
0.0
  0
LINE
  5
12a
100
AcDbEntity
  8
Layer_1
 62
3
100
AcDbLine
 10
139.872799
 20
128.191169
 30
0.0
 11
139.872799
 21
125.190897
 31
0.0
  0
LINE
  5
12b
100
AcDbEntity
  8
Layer_1
 62
1
100
AcDbLine
 10
139.872799
 20
125.190897
 30
0.0
 11
138.273170
 21
125.190897
 31
0.0
  0
LINE
  5
12c
100
AcDbEntity
  8
Layer_1
 62
1
100
AcDbLine
 10
138.273170
 20
125.190897
 30
0.0
 11
138.273170
 21
122.176298
 31
0.0
  0
LINE
  5
12d
100
AcDbEntity
  8
Layer_1
 62
1
100
AcDbLine
 10
138.273170
 20
122.176298
 30
0.0
 11
158.083850
 21
122.176298
 31
0.0
  0
LINE
  5
12e
100
AcDbEntity
  8
Layer_1
 62
1
100
AcDbLine
 10
158.083850
 20
122.176298
 30
0.0
 11
158.083850
 21
118.993038
 31
0.0
  0
LINE
  5
12f
100
AcDbEntity
  8
Layer_1
 62
1
100
AcDbLine
 10
158.083850
 20
118.993038
 30
0.0
 11
168.083999
 21
118.993038
 31
0.0
  0
LINE
  5
130
100
AcDbEntity
  8
Layer_1
 62
1
100
AcDbLine
 10
168.083999
 20
118.993038
 30
0.0
 11
168.083999
 21
122.176298
 31
0.0
  0
LINE
  5
131
100
AcDbEntity
  8
Layer_1
 62
1
100
AcDbLine
 10
168.083999
 20
122.176298
 30
0.0
 11
176.257970
 21
122.176298
 31
0.0
  0
LINE
  5
132
100
AcDbEntity
  8
Layer_1
 62
1
100
AcDbLine
 10
176.257970
 20
122.176298
 30
0.0
 11
176.257970
 21
288.936233
 31
0.0
  0
LINE
  5
133
100
AcDbEntity
  8
Layer_1
 62
1
100
AcDbLine
 10
176.257970
 20
288.936233
 30
0.0
 11
164.834580
 21
288.946366
 31
0.0
  0
SPLINE
  5
134
100
AcDbEntity
  8
Layer_1
 62
5
100
AcDbSpline
 70
8
 71
3
 72
8
 73
4
 74
0
 40
0
 40
0
 40
0
 40
0
 40
1
 40
1
 40
1
 40
1
 10
90.104846
 20
281.966150
 30
0.0
 10
90.935847
 20
281.966150
 30
0.0
 10
91.604846
 20
280.628150
 30
0.0
 10
91.604846
 20
278.966153
 30
0.0
  0
LINE
  5
135
100
AcDbEntity
  8
Layer_1
 62
5
100
AcDbLine
 10
91.604846
 20
278.966153
 30
0.0
 11
91.604846
 21
209.703047
 31
0.0
  0
SPLINE
  5
136
100
AcDbEntity
  8
Layer_1
 62
5
100
AcDbSpline
 70
8
 71
3
 72
8
 73
4
 74
0
 40
0
 40
0
 40
0
 40
0
 40
1
 40
1
 40
1
 40
1
 10
91.604846
 20
209.703047
 30
0.0
 10
91.604846
 20
208.041048
 30
0.0
 10
90.935847
 20
206.703048
 30
0.0
 10
90.104846
 20
206.703048
 30
0.0
  0
SPLINE
  5
137
100
AcDbEntity
  8
Layer_1
 62
5
100
AcDbSpline
 70
8
 71
3
 72
8
 73
4
 74
0
 40
0
 40
0
 40
0
 40
0
 40
1
 40
1
 40
1
 40
1
 10
90.104846
 20
206.703048
 30
0.0
 10
89.273846
 20
206.703048
 30
0.0
 10
88.604847
 20
208.041048
 30
0.0
 10
88.604847
 20
209.703047
 30
0.0
  0
LINE
  5
138
100
AcDbEntity
  8
Layer_1
 62
5
100
AcDbLine
 10
88.604847
 20
209.703047
 30
0.0
 11
88.604847
 21
278.966153
 31
0.0
  0
SPLINE
  5
139
100
AcDbEntity
  8
Layer_1
 62
5
100
AcDbSpline
 70
8
 71
3
 72
8
 73
4
 74
0
 40
0
 40
0
 40
0
 40
0
 40
1
 40
1
 40
1
 40
1
 10
88.604847
 20
278.966153
 30
0.0
 10
88.604847
 20
280.628150
 30
0.0
 10
89.273846
 20
281.966150
 30
0.0
 10
90.104846
 20
281.966150
 30
0.0
  0
LINE
  5
13a
100
AcDbEntity
  8
Layer_1
 62
5
100
AcDbLine
 10
90.104846
 20
281.966150
 30
0.0
 11
90.104846
 21
281.966150
 31
0.0
  0
LINE
  5
13b
100
AcDbEntity
  8
Layer_1
 62
3
100
AcDbLine
 10
69.244946
 20
205.118588
 30
0.0
 11
111.709835
 21
205.118588
 31
0.0
  0
SPLINE
  5
13c
100
AcDbEntity
  8
Layer_1
 62
3
100
AcDbSpline
 70
8
 71
3
 72
8
 73
4
 74
0
 40
0
 40
0
 40
0
 40
0
 40
1
 40
1
 40
1
 40
1
 10
111.709835
 20
205.118588
 30
0.0
 10
113.371836
 20
205.118588
 30
0.0
 10
114.709837
 20
203.780598
 30
0.0
 10
114.709837
 20
202.118599
 30
0.0
  0
LINE
  5
13d
100
AcDbEntity
  8
Layer_1
 62
3
100
AcDbLine
 10
114.709837
 20
202.118599
 30
0.0
 11
114.709837
 21
134.566008
 31
0.0
  0
SPLINE
  5
13e
100
AcDbEntity
  8
Layer_1
 62
3
100
AcDbSpline
 70
8
 71
3
 72
8
 73
4
 74
0
 40
0
 40
0
 40
0
 40
0
 40
1
 40
1
 40
1
 40
1
 10
114.709837
 20
134.566008
 30
0.0
 10
114.709837
 20
132.904017
 30
0.0
 10
113.371836
 20
131.566019
 30
0.0
 10
111.709835
 20
131.566019
 30
0.0
  0
LINE
  5
13f
100
AcDbEntity
  8
Layer_1
 62
3
100
AcDbLine
 10
111.709835
 20
131.566019
 30
0.0
 11
69.244946
 21
131.566019
 31
0.0
  0
SPLINE
  5
140
100
AcDbEntity
  8
Layer_1
 62
3
100
AcDbSpline
 70
8
 71
3
 72
8
 73
4
 74
0
 40
0
 40
0
 40
0
 40
0
 40
1
 40
1
 40
1
 40
1
 10
69.244946
 20
131.566019
 30
0.0
 10
67.582955
 20
131.566019
 30
0.0
 10
66.244957
 20
132.904017
 30
0.0
 10
66.244957
 20
134.566008
 30
0.0
  0
LINE
  5
141
100
AcDbEntity
  8
Layer_1
 62
3
100
AcDbLine
 10
66.244957
 20
134.566008
 30
0.0
 11
66.244957
 21
202.118599
 31
0.0
  0
SPLINE
  5
142
100
AcDbEntity
  8
Layer_1
 62
3
100
AcDbSpline
 70
8
 71
3
 72
8
 73
4
 74
0
 40
0
 40
0
 40
0
 40
0
 40
1
 40
1
 40
1
 40
1
 10
66.244957
 20
202.118599
 30
0.0
 10
66.244957
 20
203.780598
 30
0.0
 10
67.582955
 20
205.118588
 30
0.0
 10
69.244946
 20
205.118588
 30
0.0
  0
LINE
  5
143
100
AcDbEntity
  8
Layer_1
 62
3
100
AcDbLine
 10
69.244946
 20
205.118588
 30
0.0
 11
69.244946
 21
205.118588
 31
0.0
  0
LINE
  5
144
100
AcDbEntity
  8
Layer_1
 62
1
100
AcDbLine
 10
104.985616
 20
288.946366
 30
0.0
 11
104.985616
 21
285.931770
 31
0.0
  0
LINE
  5
145
100
AcDbEntity
  8
Layer_1
 62
1
100
AcDbLine
 10
104.985616
 20
285.931770
 30
0.0
 11
106.585245
 21
285.931770
 31
0.0
  0
LINE
  5
146
100
AcDbEntity
  8
Layer_1
 62
1
100
AcDbLine
 10
106.585245
 20
285.931770
 30
0.0
 11
106.585245
 21
282.931504
 31
0.0
  0
LINE
  5
147
100
AcDbEntity
  8
Layer_1
 62
1
100
AcDbLine
 10
106.585245
 20
282.931504
 30
0.0
 11
104.985616
 21
282.931504
 31
0.0
  0
LINE
  5
148
100
AcDbEntity
  8
Layer_1
 62
1
100
AcDbLine
 10
104.985616
 20
282.931504
 30
0.0
 11
104.985616
 21
280.931695
 31
0.0
  0
LINE
  5
149
100
AcDbEntity
  8
Layer_1
 62
1
100
AcDbLine
 10
104.985616
 20
280.931695
 30
0.0
 11
101.785267
 21
280.931695
 31
0.0
  0
LINE
  5
14a
100
AcDbEntity
  8
Layer_1
 62
1
100
AcDbLine
 10
101.785267
 20
280.931695
 30
0.0
 11
101.785267
 21
282.931504
 31
0.0
  0
LINE
  5
14b
100
AcDbEntity
  8
Layer_1
 62
1
100
AcDbLine
 10
101.785267
 20
282.931504
 30
0.0
 11
100.185635
 21
282.931504
 31
0.0
  0
LINE
  5
14c
100
AcDbEntity
  8
Layer_1
 62
1
100
AcDbLine
 10
100.185635
 20
282.931504
 30
0.0
 11
100.185635
 21
285.931770
 31
0.0
  0
LINE
  5
14d
100
AcDbEntity
  8
Layer_1
 62
1
100
AcDbLine
 10
100.185635
 20
285.931770
 30
0.0
 11
101.785267
 21
285.931770
 31
0.0
  0
LINE
  5
14e
100
AcDbEntity
  8
Layer_1
 62
1
100
AcDbLine
 10
101.785267
 20
285.931770
 30
0.0
 11
101.785267
 21
288.946366
 31
0.0
  0
LINE
  5
14f
100
AcDbEntity
  8
Layer_1
 62
1
100
AcDbLine
 10
101.785267
 20
288.946366
 30
0.0
 11
81.974587
 21
288.946366
 31
0.0
  0
LINE
  5
150
100
AcDbEntity
  8
Layer_1
 62
1
100
AcDbLine
 10
81.974587
 20
288.946366
 30
0.0
 11
81.974587
 21
292.129635
 31
0.0
  0
LINE
  5
151
100
AcDbEntity
  8
Layer_1
 62
1
100
AcDbLine
 10
81.974587
 20
292.129635
 30
0.0
 11
71.974435
 21
292.129635
 31
0.0
  0
LINE
  5
152
100
AcDbEntity
  8
Layer_1
 62
1
100
AcDbLine
 10
71.974435
 20
292.129635
 30
0.0
 11
71.974435
 21
288.946366
 31
0.0
  0
LINE
  5
153
100
AcDbEntity
  8
Layer_1
 62
1
100
AcDbLine
 10
71.974435
 20
288.946366
 30
0.0
 11
63.800466
 21
288.936233
 31
0.0
  0
LINE
  5
154
100
AcDbEntity
  8
Layer_1
 62
1
100
AcDbLine
 10
63.800466
 20
288.936236
 30
0.0
 11
63.800466
 21
122.176298
 31
0.0
  0
LINE
  5
155
100
AcDbEntity
  8
Layer_1
 62
1
100
AcDbLine
 10
63.800466
 20
122.176298
 30
0.0
 11
75.223857
 21
122.176298
 31
0.0
  0
LINE
  5
156
100
AcDbEntity
  8
Layer_1
 62
1
100
AcDbLine
 10
75.223857
 20
122.176298
 30
0.0
 11
75.223857
 21
125.190897
 31
0.0
  0
LINE
  5
157
100
AcDbEntity
  8
Layer_1
 62
1
100
AcDbLine
 10
75.223857
 20
125.190897
 30
0.0
 11
73.624226
 21
125.190897
 31
0.0
  0
LINE
  5
158
100
AcDbEntity
  8
Layer_1
 62
3
100
AcDbLine
 10
73.624226
 20
125.190897
 30
0.0
 11
73.624226
 21
128.191169
 31
0.0
  0
LINE
  5
159
100
AcDbEntity
  8
Layer_1
 62
3
100
AcDbLine
 10
73.624226
 20
128.191169
 30
0.0
 11
75.223857
 21
128.191169
 31
0.0
  0
LINE
  5
15a
100
AcDbEntity
  8
Layer_1
 62
3
100
AcDbLine
 10
75.223857
 20
128.191169
 30
0.0
 11
75.223857
 21
130.190977
 31
0.0
  0
LINE
  5
15b
100
AcDbEntity
  8
Layer_1
 62
3
100
AcDbLine
 10
75.223857
 20
130.190977
 30
0.0
 11
78.424207
 21
130.190977
 31
0.0
  0
LINE
  5
15c
100
AcDbEntity
  8
Layer_1
 62
3
100
AcDbLine
 10
78.424207
 20
130.190977
 30
0.0
 11
78.424207
 21
128.191169
 31
0.0
  0
LINE
  5
15d
100
AcDbEntity
  8
Layer_1
 62
3
100
AcDbLine
 10
78.424207
 20
128.191169
 30
0.0
 11
80.023835
 21
128.191169
 31
0.0
  0
LINE
  5
15e
100
AcDbEntity
  8
Layer_1
 62
3
100
AcDbLine
 10
80.023835
 20
128.191169
 30
0.0
 11
80.023835
 21
125.190897
 31
0.0
  0
LINE
  5
15f
100
AcDbEntity
  8
Layer_1
 62
1
100
AcDbLine
 10
80.023835
 20
125.190897
 30
0.0
 11
78.424207
 21
125.190897
 31
0.0
  0
LINE
  5
160
100
AcDbEntity
  8
Layer_1
 62
1
100
AcDbLine
 10
78.424207
 20
125.190897
 30
0.0
 11
78.424207
 21
122.176298
 31
0.0
  0
LINE
  5
161
100
AcDbEntity
  8
Layer_1
 62
1
100
AcDbLine
 10
78.424207
 20
122.176298
 30
0.0
 11
98.234886
 21
122.176298
 31
0.0
  0
LINE
  5
162
100
AcDbEntity
  8
Layer_1
 62
1
100
AcDbLine
 10
98.234886
 20
122.176298
 30
0.0
 11
98.234886
 21
118.993038
 31
0.0
  0
LINE
  5
163
100
AcDbEntity
  8
Layer_1
 62
1
100
AcDbLine
 10
98.234886
 20
118.993038
 30
0.0
 11
108.235036
 21
118.993038
 31
0.0
  0
LINE
  5
164
100
AcDbEntity
  8
Layer_1
 62
1
100
AcDbLine
 10
108.235036
 20
118.993038
 30
0.0
 11
108.235036
 21
122.176298
 31
0.0
  0
LINE
  5
165
100
AcDbEntity
  8
Layer_1
 62
1
100
AcDbLine
 10
108.235036
 20
122.176298
 30
0.0
 11
116.409007
 21
122.176298
 31
0.0
  0
LINE
  5
166
100
AcDbEntity
  8
Layer_1
 62
1
100
AcDbLine
 10
116.409007
 20
122.176298
 30
0.0
 11
116.409007
 21
288.936233
 31
0.0
  0
LINE
  5
167
100
AcDbEntity
  8
Layer_1
 62
1
100
AcDbLine
 10
116.409007
 20
288.936233
 30
0.0
 11
104.985616
 21
288.946366
 31
0.0
  0
SPLINE
  5
168
100
AcDbEntity
  8
Layer_1
 62
5
100
AcDbSpline
 70
8
 71
3
 72
8
 73
4
 74
0
 40
0
 40
0
 40
0
 40
0
 40
1
 40
1
 40
1
 40
1
 10
209.802759
 20
281.966150
 30
0.0
 10
210.633760
 20
281.966150
 30
0.0
 10
211.302759
 20
280.628150
 30
0.0
 10
211.302759
 20
278.966153
 30
0.0
  0
LINE
  5
169
100
AcDbEntity
  8
Layer_1
 62
5
100
AcDbLine
 10
211.302759
 20
278.966153
 30
0.0
 11
211.302759
 21
209.703047
 31
0.0
  0
SPLINE
  5
16a
100
AcDbEntity
  8
Layer_1
 62
5
100
AcDbSpline
 70
8
 71
3
 72
8
 73
4
 74
0
 40
0
 40
0
 40
0
 40
0
 40
1
 40
1
 40
1
 40
1
 10
211.302759
 20
209.703047
 30
0.0
 10
211.302759
 20
208.041048
 30
0.0
 10
210.633760
 20
206.703048
 30
0.0
 10
209.802759
 20
206.703048
 30
0.0
  0
SPLINE
  5
16b
100
AcDbEntity
  8
Layer_1
 62
5
100
AcDbSpline
 70
8
 71
3
 72
8
 73
4
 74
0
 40
0
 40
0
 40
0
 40
0
 40
1
 40
1
 40
1
 40
1
 10
209.802759
 20
206.703048
 30
0.0
 10
208.971758
 20
206.703048
 30
0.0
 10
208.302759
 20
208.041048
 30
0.0
 10
208.302759
 20
209.703047
 30
0.0
  0
LINE
  5
16c
100
AcDbEntity
  8
Layer_1
 62
5
100
AcDbLine
 10
208.302759
 20
209.703047
 30
0.0
 11
208.302759
 21
278.966153
 31
0.0
  0
SPLINE
  5
16d
100
AcDbEntity
  8
Layer_1
 62
5
100
AcDbSpline
 70
8
 71
3
 72
8
 73
4
 74
0
 40
0
 40
0
 40
0
 40
0
 40
1
 40
1
 40
1
 40
1
 10
208.302759
 20
278.966153
 30
0.0
 10
208.302759
 20
280.628150
 30
0.0
 10
208.971758
 20
281.966150
 30
0.0
 10
209.802759
 20
281.966150
 30
0.0
  0
LINE
  5
16e
100
AcDbEntity
  8
Layer_1
 62
5
100
AcDbLine
 10
209.802759
 20
281.966150
 30
0.0
 11
209.802759
 21
281.966150
 31
0.0
  0
LINE
  5
16f
100
AcDbEntity
  8
Layer_1
 62
3
100
AcDbLine
 10
188.942858
 20
205.118588
 30
0.0
 11
231.407748
 21
205.118588
 31
0.0
  0
SPLINE
  5
170
100
AcDbEntity
  8
Layer_1
 62
3
100
AcDbSpline
 70
8
 71
3
 72
8
 73
4
 74
0
 40
0
 40
0
 40
0
 40
0
 40
1
 40
1
 40
1
 40
1
 10
231.407748
 20
205.118588
 30
0.0
 10
233.069749
 20
205.118588
 30
0.0
 10
234.407750
 20
203.780598
 30
0.0
 10
234.407750
 20
202.118599
 30
0.0
  0
LINE
  5
171
100
AcDbEntity
  8
Layer_1
 62
3
100
AcDbLine
 10
234.407750
 20
202.118599
 30
0.0
 11
234.407750
 21
134.566008
 31
0.0
  0
SPLINE
  5
172
100
AcDbEntity
  8
Layer_1
 62
3
100
AcDbSpline
 70
8
 71
3
 72
8
 73
4
 74
0
 40
0
 40
0
 40
0
 40
0
 40
1
 40
1
 40
1
 40
1
 10
234.407750
 20
134.566008
 30
0.0
 10
234.407750
 20
132.904017
 30
0.0
 10
233.069749
 20
131.566019
 30
0.0
 10
231.407748
 20
131.566019
 30
0.0
  0
LINE
  5
173
100
AcDbEntity
  8
Layer_1
 62
3
100
AcDbLine
 10
231.407748
 20
131.566019
 30
0.0
 11
188.942858
 21
131.566019
 31
0.0
  0
SPLINE
  5
174
100
AcDbEntity
  8
Layer_1
 62
3
100
AcDbSpline
 70
8
 71
3
 72
8
 73
4
 74
0
 40
0
 40
0
 40
0
 40
0
 40
1
 40
1
 40
1
 40
1
 10
188.942858
 20
131.566019
 30
0.0
 10
187.280867
 20
131.566019
 30
0.0
 10
185.942870
 20
132.904017
 30
0.0
 10
185.942870
 20
134.566008
 30
0.0
  0
LINE
  5
175
100
AcDbEntity
  8
Layer_1
 62
3
100
AcDbLine
 10
185.942870
 20
134.566008
 30
0.0
 11
185.942870
 21
202.118599
 31
0.0
  0
SPLINE
  5
176
100
AcDbEntity
  8
Layer_1
 62
3
100
AcDbSpline
 70
8
 71
3
 72
8
 73
4
 74
0
 40
0
 40
0
 40
0
 40
0
 40
1
 40
1
 40
1
 40
1
 10
185.942870
 20
202.118599
 30
0.0
 10
185.942870
 20
203.780598
 30
0.0
 10
187.280867
 20
205.118588
 30
0.0
 10
188.942858
 20
205.118588
 30
0.0
  0
LINE
  5
177
100
AcDbEntity
  8
Layer_1
 62
3
100
AcDbLine
 10
188.942858
 20
205.118588
 30
0.0
 11
188.942858
 21
205.118588
 31
0.0
  0
LINE
  5
178
100
AcDbEntity
  8
Layer_1
 62
1
100
AcDbLine
 10
224.683529
 20
288.946366
 30
0.0
 11
224.683529
 21
285.931770
 31
0.0
  0
LINE
  5
179
100
AcDbEntity
  8
Layer_1
 62
1
100
AcDbLine
 10
224.683529
 20
285.931770
 30
0.0
 11
226.283158
 21
285.931770
 31
0.0
  0
LINE
  5
17a
100
AcDbEntity
  8
Layer_1
 62
1
100
AcDbLine
 10
226.283158
 20
285.931770
 30
0.0
 11
226.283158
 21
282.931504
 31
0.0
  0
LINE
  5
17b
100
AcDbEntity
  8
Layer_1
 62
1
100
AcDbLine
 10
226.283158
 20
282.931504
 30
0.0
 11
224.683529
 21
282.931504
 31
0.0
  0
LINE
  5
17c
100
AcDbEntity
  8
Layer_1
 62
1
100
AcDbLine
 10
224.683529
 20
282.931504
 30
0.0
 11
224.683529
 21
280.931695
 31
0.0
  0
LINE
  5
17d
100
AcDbEntity
  8
Layer_1
 62
1
100
AcDbLine
 10
224.683529
 20
280.931695
 30
0.0
 11
221.483179
 21
280.931695
 31
0.0
  0
LINE
  5
17e
100
AcDbEntity
  8
Layer_1
 62
1
100
AcDbLine
 10
221.483179
 20
280.931695
 30
0.0
 11
221.483179
 21
282.931504
 31
0.0
  0
LINE
  5
17f
100
AcDbEntity
  8
Layer_1
 62
1
100
AcDbLine
 10
221.483179
 20
282.931504
 30
0.0
 11
219.883548
 21
282.931504
 31
0.0
  0
LINE
  5
180
100
AcDbEntity
  8
Layer_1
 62
1
100
AcDbLine
 10
219.883548
 20
282.931504
 30
0.0
 11
219.883548
 21
285.931770
 31
0.0
  0
LINE
  5
181
100
AcDbEntity
  8
Layer_1
 62
1
100
AcDbLine
 10
219.883548
 20
285.931770
 30
0.0
 11
221.483179
 21
285.931770
 31
0.0
  0
LINE
  5
182
100
AcDbEntity
  8
Layer_1
 62
1
100
AcDbLine
 10
221.483179
 20
285.931770
 30
0.0
 11
221.483179
 21
288.946366
 31
0.0
  0
LINE
  5
183
100
AcDbEntity
  8
Layer_1
 62
1
100
AcDbLine
 10
221.483179
 20
288.946366
 30
0.0
 11
201.672500
 21
288.946366
 31
0.0
  0
LINE
  5
184
100
AcDbEntity
  8
Layer_1
 62
1
100
AcDbLine
 10
201.672500
 20
288.946366
 30
0.0
 11
201.672500
 21
292.129635
 31
0.0
  0
LINE
  5
185
100
AcDbEntity
  8
Layer_1
 62
1
100
AcDbLine
 10
201.672500
 20
292.129635
 30
0.0
 11
191.672348
 21
292.129635
 31
0.0
  0
LINE
  5
186
100
AcDbEntity
  8
Layer_1
 62
1
100
AcDbLine
 10
191.672348
 20
292.129635
 30
0.0
 11
191.672348
 21
288.946366
 31
0.0
  0
LINE
  5
187
100
AcDbEntity
  8
Layer_1
 62
1
100
AcDbLine
 10
191.672348
 20
288.946366
 30
0.0
 11
183.498379
 21
288.936233
 31
0.0
  0
LINE
  5
188
100
AcDbEntity
  8
Layer_1
 62
1
100
AcDbLine
 10
183.498379
 20
288.936236
 30
0.0
 11
183.498379
 21
122.176298
 31
0.0
  0
LINE
  5
189
100
AcDbEntity
  8
Layer_1
 62
1
100
AcDbLine
 10
183.498379
 20
122.176298
 30
0.0
 11
194.921770
 21
122.176298
 31
0.0
  0
LINE
  5
18a
100
AcDbEntity
  8
Layer_1
 62
1
100
AcDbLine
 10
194.921770
 20
122.176298
 30
0.0
 11
194.921770
 21
125.190897
 31
0.0
  0
LINE
  5
18b
100
AcDbEntity
  8
Layer_1
 62
1
100
AcDbLine
 10
194.921770
 20
125.190897
 30
0.0
 11
193.322138
 21
125.190897
 31
0.0
  0
LINE
  5
18c
100
AcDbEntity
  8
Layer_1
 62
3
100
AcDbLine
 10
193.322138
 20
125.190897
 30
0.0
 11
193.322138
 21
128.191169
 31
0.0
  0
LINE
  5
18d
100
AcDbEntity
  8
Layer_1
 62
3
100
AcDbLine
 10
193.322138
 20
128.191169
 30
0.0
 11
194.921770
 21
128.191169
 31
0.0
  0
LINE
  5
18e
100
AcDbEntity
  8
Layer_1
 62
3
100
AcDbLine
 10
194.921770
 20
128.191169
 30
0.0
 11
194.921770
 21
130.190977
 31
0.0
  0
LINE
  5
18f
100
AcDbEntity
  8
Layer_1
 62
3
100
AcDbLine
 10
194.921770
 20
130.190977
 30
0.0
 11
198.122119
 21
130.190977
 31
0.0
  0
LINE
  5
190
100
AcDbEntity
  8
Layer_1
 62
3
100
AcDbLine
 10
198.122119
 20
130.190977
 30
0.0
 11
198.122119
 21
128.191169
 31
0.0
  0
LINE
  5
191
100
AcDbEntity
  8
Layer_1
 62
3
100
AcDbLine
 10
198.122119
 20
128.191169
 30
0.0
 11
199.721748
 21
128.191169
 31
0.0
  0
LINE
  5
192
100
AcDbEntity
  8
Layer_1
 62
3
100
AcDbLine
 10
199.721748
 20
128.191169
 30
0.0
 11
199.721748
 21
125.190897
 31
0.0
  0
LINE
  5
193
100
AcDbEntity
  8
Layer_1
 62
1
100
AcDbLine
 10
199.721748
 20
125.190897
 30
0.0
 11
198.122119
 21
125.190897
 31
0.0
  0
LINE
  5
194
100
AcDbEntity
  8
Layer_1
 62
1
100
AcDbLine
 10
198.122119
 20
125.190897
 30
0.0
 11
198.122119
 21
122.176298
 31
0.0
  0
LINE
  5
195
100
AcDbEntity
  8
Layer_1
 62
1
100
AcDbLine
 10
198.122119
 20
122.176298
 30
0.0
 11
217.932799
 21
122.176298
 31
0.0
  0
LINE
  5
196
100
AcDbEntity
  8
Layer_1
 62
1
100
AcDbLine
 10
217.932799
 20
122.176298
 30
0.0
 11
217.932799
 21
118.993038
 31
0.0
  0
LINE
  5
197
100
AcDbEntity
  8
Layer_1
 62
1
100
AcDbLine
 10
217.932799
 20
118.993038
 30
0.0
 11
227.932948
 21
118.993038
 31
0.0
  0
LINE
  5
198
100
AcDbEntity
  8
Layer_1
 62
1
100
AcDbLine
 10
227.932948
 20
118.993038
 30
0.0
 11
227.932948
 21
122.176298
 31
0.0
  0
LINE
  5
199
100
AcDbEntity
  8
Layer_1
 62
1
100
AcDbLine
 10
227.932948
 20
122.176298
 30
0.0
 11
236.106920
 21
122.176298
 31
0.0
  0
LINE
  5
19a
100
AcDbEntity
  8
Layer_1
 62
1
100
AcDbLine
 10
236.106920
 20
122.176298
 30
0.0
 11
236.106920
 21
288.936233
 31
0.0
  0
LINE
  5
19b
100
AcDbEntity
  8
Layer_1
 62
1
100
AcDbLine
 10
236.106920
 20
288.936233
 30
0.0
 11
224.683529
 21
288.946366
 31
0.0
  0
SPLINE
  5
19c
100
AcDbEntity
  8
Layer_1
 62
5
100
AcDbSpline
 70
8
 71
3
 72
8
 73
4
 74
0
 40
0
 40
0
 40
0
 40
0
 40
1
 40
1
 40
1
 40
1
 10
30.255890
 20
281.966150
 30
0.0
 10
31.086891
 20
281.966150
 30
0.0
 10
31.755890
 20
280.628150
 30
0.0
 10
31.755890
 20
278.966153
 30
0.0
  0
LINE
  5
19d
100
AcDbEntity
  8
Layer_1
 62
5
100
AcDbLine
 10
31.755890
 20
278.966153
 30
0.0
 11
31.755890
 21
209.703047
 31
0.0
  0
SPLINE
  5
19e
100
AcDbEntity
  8
Layer_1
 62
5
100
AcDbSpline
 70
8
 71
3
 72
8
 73
4
 74
0
 40
0
 40
0
 40
0
 40
0
 40
1
 40
1
 40
1
 40
1
 10
31.755890
 20
209.703047
 30
0.0
 10
31.755890
 20
208.041048
 30
0.0
 10
31.086891
 20
206.703048
 30
0.0
 10
30.255890
 20
206.703048
 30
0.0
  0
SPLINE
  5
19f
100
AcDbEntity
  8
Layer_1
 62
5
100
AcDbSpline
 70
8
 71
3
 72
8
 73
4
 74
0
 40
0
 40
0
 40
0
 40
0
 40
1
 40
1
 40
1
 40
1
 10
30.255890
 20
206.703048
 30
0.0
 10
29.424889
 20
206.703048
 30
0.0
 10
28.755890
 20
208.041048
 30
0.0
 10
28.755890
 20
209.703047
 30
0.0
  0
LINE
  5
1a0
100
AcDbEntity
  8
Layer_1
 62
5
100
AcDbLine
 10
28.755890
 20
209.703047
 30
0.0
 11
28.755890
 21
278.966153
 31
0.0
  0
SPLINE
  5
1a1
100
AcDbEntity
  8
Layer_1
 62
5
100
AcDbSpline
 70
8
 71
3
 72
8
 73
4
 74
0
 40
0
 40
0
 40
0
 40
0
 40
1
 40
1
 40
1
 40
1
 10
28.755890
 20
278.966153
 30
0.0
 10
28.755890
 20
280.628150
 30
0.0
 10
29.424889
 20
281.966150
 30
0.0
 10
30.255890
 20
281.966150
 30
0.0
  0
LINE
  5
1a2
100
AcDbEntity
  8
Layer_1
 62
5
100
AcDbLine
 10
30.255890
 20
281.966150
 30
0.0
 11
30.255890
 21
281.966150
 31
0.0
  0
LINE
  5
1a3
100
AcDbEntity
  8
Layer_1
 62
3
100
AcDbLine
 10
9.395989
 20
205.118588
 30
0.0
 11
51.860879
 21
205.118588
 31
0.0
  0
SPLINE
  5
1a4
100
AcDbEntity
  8
Layer_1
 62
3
100
AcDbSpline
 70
8
 71
3
 72
8
 73
4
 74
0
 40
0
 40
0
 40
0
 40
0
 40
1
 40
1
 40
1
 40
1
 10
51.860879
 20
205.118588
 30
0.0
 10
53.522880
 20
205.118588
 30
0.0
 10
54.860881
 20
203.780598
 30
0.0
 10
54.860881
 20
202.118599
 30
0.0
  0
LINE
  5
1a5
100
AcDbEntity
  8
Layer_1
 62
3
100
AcDbLine
 10
54.860881
 20
202.118599
 30
0.0
 11
54.860881
 21
134.566008
 31
0.0
  0
SPLINE
  5
1a6
100
AcDbEntity
  8
Layer_1
 62
3
100
AcDbSpline
 70
8
 71
3
 72
8
 73
4
 74
0
 40
0
 40
0
 40
0
 40
0
 40
1
 40
1
 40
1
 40
1
 10
54.860881
 20
134.566008
 30
0.0
 10
54.860881
 20
132.904017
 30
0.0
 10
53.522880
 20
131.566019
 30
0.0
 10
51.860879
 20
131.566019
 30
0.0
  0
LINE
  5
1a7
100
AcDbEntity
  8
Layer_1
 62
3
100
AcDbLine
 10
51.860879
 20
131.566019
 30
0.0
 11
9.395989
 21
131.566019
 31
0.0
  0
SPLINE
  5
1a8
100
AcDbEntity
  8
Layer_1
 62
3
100
AcDbSpline
 70
8
 71
3
 72
8
 73
4
 74
0
 40
0
 40
0
 40
0
 40
0
 40
1
 40
1
 40
1
 40
1
 10
9.395989
 20
131.566019
 30
0.0
 10
7.733998
 20
131.566019
 30
0.0
 10
6.396000
 20
132.904017
 30
0.0
 10
6.396000
 20
134.566008
 30
0.0
  0
LINE
  5
1a9
100
AcDbEntity
  8
Layer_1
 62
3
100
AcDbLine
 10
6.396000
 20
134.566008
 30
0.0
 11
6.396000
 21
202.118599
 31
0.0
  0
SPLINE
  5
1aa
100
AcDbEntity
  8
Layer_1
 62
3
100
AcDbSpline
 70
8
 71
3
 72
8
 73
4
 74
0
 40
0
 40
0
 40
0
 40
0
 40
1
 40
1
 40
1
 40
1
 10
6.396000
 20
202.118599
 30
0.0
 10
6.396000
 20
203.780598
 30
0.0
 10
7.733998
 20
205.118588
 30
0.0
 10
9.395989
 20
205.118588
 30
0.0
  0
LINE
  5
1ab
100
AcDbEntity
  8
Layer_1
 62
3
100
AcDbLine
 10
9.395989
 20
205.118588
 30
0.0
 11
9.395989
 21
205.118588
 31
0.0
  0
LINE
  5
1ac
100
AcDbEntity
  8
Layer_1
 62
1
100
AcDbLine
 10
45.136660
 20
288.946366
 30
0.0
 11
45.136660
 21
285.931770
 31
0.0
  0
LINE
  5
1ad
100
AcDbEntity
  8
Layer_1
 62
1
100
AcDbLine
 10
45.136660
 20
285.931770
 30
0.0
 11
46.736288
 21
285.931770
 31
0.0
  0
LINE
  5
1ae
100
AcDbEntity
  8
Layer_1
 62
1
100
AcDbLine
 10
46.736288
 20
285.931770
 30
0.0
 11
46.736288
 21
282.931504
 31
0.0
  0
LINE
  5
1af
100
AcDbEntity
  8
Layer_1
 62
1
100
AcDbLine
 10
46.736288
 20
282.931504
 30
0.0
 11
45.136660
 21
282.931504
 31
0.0
  0
LINE
  5
1b0
100
AcDbEntity
  8
Layer_1
 62
1
100
AcDbLine
 10
45.136660
 20
282.931504
 30
0.0
 11
45.136660
 21
280.931695
 31
0.0
  0
LINE
  5
1b1
100
AcDbEntity
  8
Layer_1
 62
1
100
AcDbLine
 10
45.136660
 20
280.931695
 30
0.0
 11
41.936310
 21
280.931695
 31
0.0
  0
LINE
  5
1b2
100
AcDbEntity
  8
Layer_1
 62
1
100
AcDbLine
 10
41.936310
 20
280.931695
 30
0.0
 11
41.936310
 21
282.931504
 31
0.0
  0
LINE
  5
1b3
100
AcDbEntity
  8
Layer_1
 62
1
100
AcDbLine
 10
41.936310
 20
282.931504
 30
0.0
 11
40.336679
 21
282.931504
 31
0.0
  0
LINE
  5
1b4
100
AcDbEntity
  8
Layer_1
 62
1
100
AcDbLine
 10
40.336679
 20
282.931504
 30
0.0
 11
40.336679
 21
285.931770
 31
0.0
  0
LINE
  5
1b5
100
AcDbEntity
  8
Layer_1
 62
1
100
AcDbLine
 10
40.336679
 20
285.931770
 30
0.0
 11
41.936310
 21
285.931770
 31
0.0
  0
LINE
  5
1b6
100
AcDbEntity
  8
Layer_1
 62
1
100
AcDbLine
 10
41.936310
 20
285.931770
 30
0.0
 11
41.936310
 21
288.946366
 31
0.0
  0
LINE
  5
1b7
100
AcDbEntity
  8
Layer_1
 62
1
100
AcDbLine
 10
41.936310
 20
288.946366
 30
0.0
 11
22.125630
 21
288.946366
 31
0.0
  0
LINE
  5
1b8
100
AcDbEntity
  8
Layer_1
 62
1
100
AcDbLine
 10
22.125630
 20
288.946366
 30
0.0
 11
22.125630
 21
292.129635
 31
0.0
  0
LINE
  5
1b9
100
AcDbEntity
  8
Layer_1
 62
1
100
AcDbLine
 10
22.125630
 20
292.129635
 30
0.0
 11
12.125478
 21
292.129635
 31
0.0
  0
LINE
  5
1ba
100
AcDbEntity
  8
Layer_1
 62
1
100
AcDbLine
 10
12.125478
 20
292.129635
 30
0.0
 11
12.125478
 21
288.946366
 31
0.0
  0
LINE
  5
1bb
100
AcDbEntity
  8
Layer_1
 62
1
100
AcDbLine
 10
12.125478
 20
288.946366
 30
0.0
 11
3.951510
 21
288.936233
 31
0.0
  0
LINE
  5
1bc
100
AcDbEntity
  8
Layer_1
 62
1
100
AcDbLine
 10
3.951510
 20
288.936236
 30
0.0
 11
3.951510
 21
122.176298
 31
0.0
  0
LINE
  5
1bd
100
AcDbEntity
  8
Layer_1
 62
1
100
AcDbLine
 10
3.951510
 20
122.176298
 30
0.0
 11
15.374900
 21
122.176298
 31
0.0
  0
LINE
  5
1be
100
AcDbEntity
  8
Layer_1
 62
1
100
AcDbLine
 10
15.374900
 20
122.176298
 30
0.0
 11
15.374900
 21
125.190897
 31
0.0
  0
LINE
  5
1bf
100
AcDbEntity
  8
Layer_1
 62
1
100
AcDbLine
 10
15.374900
 20
125.190897
 30
0.0
 11
13.775269
 21
125.190897
 31
0.0
  0
LINE
  5
1c0
100
AcDbEntity
  8
Layer_1
 62
3
100
AcDbLine
 10
13.775269
 20
125.190897
 30
0.0
 11
13.775269
 21
128.191169
 31
0.0
  0
LINE
  5
1c1
100
AcDbEntity
  8
Layer_1
 62
3
100
AcDbLine
 10
13.775269
 20
128.191169
 30
0.0
 11
15.374900
 21
128.191169
 31
0.0
  0
LINE
  5
1c2
100
AcDbEntity
  8
Layer_1
 62
3
100
AcDbLine
 10
15.374900
 20
128.191169
 30
0.0
 11
15.374900
 21
130.190977
 31
0.0
  0
LINE
  5
1c3
100
AcDbEntity
  8
Layer_1
 62
3
100
AcDbLine
 10
15.374900
 20
130.190977
 30
0.0
 11
18.575250
 21
130.190977
 31
0.0
  0
LINE
  5
1c4
100
AcDbEntity
  8
Layer_1
 62
3
100
AcDbLine
 10
18.575250
 20
130.190977
 30
0.0
 11
18.575250
 21
128.191169
 31
0.0
  0
LINE
  5
1c5
100
AcDbEntity
  8
Layer_1
 62
3
100
AcDbLine
 10
18.575250
 20
128.191169
 30
0.0
 11
20.174879
 21
128.191169
 31
0.0
  0
LINE
  5
1c6
100
AcDbEntity
  8
Layer_1
 62
3
100
AcDbLine
 10
20.174879
 20
128.191169
 30
0.0
 11
20.174879
 21
125.190897
 31
0.0
  0
LINE
  5
1c7
100
AcDbEntity
  8
Layer_1
 62
1
100
AcDbLine
 10
20.174879
 20
125.190897
 30
0.0
 11
18.575250
 21
125.190897
 31
0.0
  0
LINE
  5
1c8
100
AcDbEntity
  8
Layer_1
 62
1
100
AcDbLine
 10
18.575250
 20
125.190897
 30
0.0
 11
18.575250
 21
122.176298
 31
0.0
  0
LINE
  5
1c9
100
AcDbEntity
  8
Layer_1
 62
1
100
AcDbLine
 10
18.575250
 20
122.176298
 30
0.0
 11
38.385930
 21
122.176298
 31
0.0
  0
LINE
  5
1ca
100
AcDbEntity
  8
Layer_1
 62
1
100
AcDbLine
 10
38.385930
 20
122.176298
 30
0.0
 11
38.385930
 21
118.993038
 31
0.0
  0
LINE
  5
1cb
100
AcDbEntity
  8
Layer_1
 62
1
100
AcDbLine
 10
38.385930
 20
118.993038
 30
0.0
 11
48.386079
 21
118.993038
 31
0.0
  0
LINE
  5
1cc
100
AcDbEntity
  8
Layer_1
 62
1
100
AcDbLine
 10
48.386079
 20
118.993038
 30
0.0
 11
48.386079
 21
122.176298
 31
0.0
  0
LINE
  5
1cd
100
AcDbEntity
  8
Layer_1
 62
1
100
AcDbLine
 10
48.386079
 20
122.176298
 30
0.0
 11
56.560051
 21
122.176298
 31
0.0
  0
LINE
  5
1ce
100
AcDbEntity
  8
Layer_1
 62
1
100
AcDbLine
 10
56.560051
 20
122.176298
 30
0.0
 11
56.560051
 21
288.936233
 31
0.0
  0
LINE
  5
1cf
100
AcDbEntity
  8
Layer_1
 62
1
100
AcDbLine
 10
56.560051
 20
288.936233
 30
0.0
 11
45.136660
 21
288.946366
 31
0.0
  0
SPLINE
  5
1d0
100
AcDbEntity
  8
Layer_1
 62
5
100
AcDbSpline
 70
8
 71
3
 72
8
 73
4
 74
0
 40
0
 40
0
 40
0
 40
0
 40
1
 40
1
 40
1
 40
1
 10
389.350228
 20
281.521214
 30
0.0
 10
390.181229
 20
281.521214
 30
0.0
 10
390.850228
 20
280.183213
 30
0.0
 10
390.850228
 20
278.521217
 30
0.0
  0
LINE
  5
1d1
100
AcDbEntity
  8
Layer_1
 62
5
100
AcDbLine
 10
390.850228
 20
278.521217
 30
0.0
 11
390.850228
 21
209.258111
 31
0.0
  0
SPLINE
  5
1d2
100
AcDbEntity
  8
Layer_1
 62
5
100
AcDbSpline
 70
8
 71
3
 72
8
 73
4
 74
0
 40
0
 40
0
 40
0
 40
0
 40
1
 40
1
 40
1
 40
1
 10
390.850228
 20
209.258111
 30
0.0
 10
390.850228
 20
207.596112
 30
0.0
 10
390.181229
 20
206.258111
 30
0.0
 10
389.350228
 20
206.258111
 30
0.0
  0
SPLINE
  5
1d3
100
AcDbEntity
  8
Layer_1
 62
5
100
AcDbSpline
 70
8
 71
3
 72
8
 73
4
 74
0
 40
0
 40
0
 40
0
 40
0
 40
1
 40
1
 40
1
 40
1
 10
389.350228
 20
206.258111
 30
0.0
 10
388.519227
 20
206.258111
 30
0.0
 10
387.850228
 20
207.596112
 30
0.0
 10
387.850228
 20
209.258111
 30
0.0
  0
LINE
  5
1d4
100
AcDbEntity
  8
Layer_1
 62
5
100
AcDbLine
 10
387.850228
 20
209.258111
 30
0.0
 11
387.850228
 21
278.521217
 31
0.0
  0
SPLINE
  5
1d5
100
AcDbEntity
  8
Layer_1
 62
5
100
AcDbSpline
 70
8
 71
3
 72
8
 73
4
 74
0
 40
0
 40
0
 40
0
 40
0
 40
1
 40
1
 40
1
 40
1
 10
387.850228
 20
278.521217
 30
0.0
 10
387.850228
 20
280.183213
 30
0.0
 10
388.519227
 20
281.521214
 30
0.0
 10
389.350228
 20
281.521214
 30
0.0
  0
LINE
  5
1d6
100
AcDbEntity
  8
Layer_1
 62
5
100
AcDbLine
 10
389.350228
 20
281.521214
 30
0.0
 11
389.350228
 21
281.521214
 31
0.0
  0
LINE
  5
1d7
100
AcDbEntity
  8
Layer_1
 62
3
100
AcDbLine
 10
368.490327
 20
204.673651
 30
0.0
 11
410.955217
 21
204.673651
 31
0.0
  0
SPLINE
  5
1d8
100
AcDbEntity
  8
Layer_1
 62
3
100
AcDbSpline
 70
8
 71
3
 72
8
 73
4
 74
0
 40
0
 40
0
 40
0
 40
0
 40
1
 40
1
 40
1
 40
1
 10
410.955217
 20
204.673651
 30
0.0
 10
412.617218
 20
204.673651
 30
0.0
 10
413.955219
 20
203.335661
 30
0.0
 10
413.955219
 20
201.673663
 30
0.0
  0
LINE
  5
1d9
100
AcDbEntity
  8
Layer_1
 62
3
100
AcDbLine
 10
413.955219
 20
201.673663
 30
0.0
 11
413.955219
 21
134.121071
 31
0.0
  0
SPLINE
  5
1da
100
AcDbEntity
  8
Layer_1
 62
3
100
AcDbSpline
 70
8
 71
3
 72
8
 73
4
 74
0
 40
0
 40
0
 40
0
 40
0
 40
1
 40
1
 40
1
 40
1
 10
413.955219
 20
134.121071
 30
0.0
 10
413.955219
 20
132.459081
 30
0.0
 10
412.617218
 20
131.121083
 30
0.0
 10
410.955217
 20
131.121083
 30
0.0
  0
LINE
  5
1db
100
AcDbEntity
  8
Layer_1
 62
3
100
AcDbLine
 10
410.955217
 20
131.121083
 30
0.0
 11
368.490327
 21
131.121083
 31
0.0
  0
SPLINE
  5
1dc
100
AcDbEntity
  8
Layer_1
 62
3
100
AcDbSpline
 70
8
 71
3
 72
8
 73
4
 74
0
 40
0
 40
0
 40
0
 40
0
 40
1
 40
1
 40
1
 40
1
 10
368.490327
 20
131.121083
 30
0.0
 10
366.828336
 20
131.121083
 30
0.0
 10
365.490339
 20
132.459081
 30
0.0
 10
365.490339
 20
134.121071
 30
0.0
  0
LINE
  5
1dd
100
AcDbEntity
  8
Layer_1
 62
3
100
AcDbLine
 10
365.490339
 20
134.121071
 30
0.0
 11
365.490339
 21
201.673663
 31
0.0
  0
SPLINE
  5
1de
100
AcDbEntity
  8
Layer_1
 62
3
100
AcDbSpline
 70
8
 71
3
 72
8
 73
4
 74
0
 40
0
 40
0
 40
0
 40
0
 40
1
 40
1
 40
1
 40
1
 10
365.490339
 20
201.673663
 30
0.0
 10
365.490339
 20
203.335661
 30
0.0
 10
366.828336
 20
204.673651
 30
0.0
 10
368.490327
 20
204.673651
 30
0.0
  0
LINE
  5
1df
100
AcDbEntity
  8
Layer_1
 62
3
100
AcDbLine
 10
368.490327
 20
204.673651
 30
0.0
 11
368.490327
 21
204.673651
 31
0.0
  0
LINE
  5
1e0
100
AcDbEntity
  8
Layer_1
 62
1
100
AcDbLine
 10
404.230998
 20
288.501430
 30
0.0
 11
404.230998
 21
285.486834
 31
0.0
  0
LINE
  5
1e1
100
AcDbEntity
  8
Layer_1
 62
1
100
AcDbLine
 10
404.230998
 20
285.486834
 30
0.0
 11
405.830626
 21
285.486834
 31
0.0
  0
LINE
  5
1e2
100
AcDbEntity
  8
Layer_1
 62
1
100
AcDbLine
 10
405.830626
 20
285.486834
 30
0.0
 11
405.830626
 21
282.486567
 31
0.0
  0
LINE
  5
1e3
100
AcDbEntity
  8
Layer_1
 62
1
100
AcDbLine
 10
405.830626
 20
282.486567
 30
0.0
 11
404.230998
 21
282.486567
 31
0.0
  0
LINE
  5
1e4
100
AcDbEntity
  8
Layer_1
 62
1
100
AcDbLine
 10
404.230998
 20
282.486567
 30
0.0
 11
404.230998
 21
280.486759
 31
0.0
  0
LINE
  5
1e5
100
AcDbEntity
  8
Layer_1
 62
1
100
AcDbLine
 10
404.230998
 20
280.486759
 30
0.0
 11
401.030648
 21
280.486759
 31
0.0
  0
LINE
  5
1e6
100
AcDbEntity
  8
Layer_1
 62
1
100
AcDbLine
 10
401.030648
 20
280.486759
 30
0.0
 11
401.030648
 21
282.486567
 31
0.0
  0
LINE
  5
1e7
100
AcDbEntity
  8
Layer_1
 62
1
100
AcDbLine
 10
401.030648
 20
282.486567
 30
0.0
 11
399.431017
 21
282.486567
 31
0.0
  0
LINE
  5
1e8
100
AcDbEntity
  8
Layer_1
 62
1
100
AcDbLine
 10
399.431017
 20
282.486567
 30
0.0
 11
399.431017
 21
285.486834
 31
0.0
  0
LINE
  5
1e9
100
AcDbEntity
  8
Layer_1
 62
1
100
AcDbLine
 10
399.431017
 20
285.486834
 30
0.0
 11
401.030648
 21
285.486834
 31
0.0
  0
LINE
  5
1ea
100
AcDbEntity
  8
Layer_1
 62
1
100
AcDbLine
 10
401.030648
 20
285.486834
 30
0.0
 11
401.030648
 21
288.501430
 31
0.0
  0
LINE
  5
1eb
100
AcDbEntity
  8
Layer_1
 62
1
100
AcDbLine
 10
401.030648
 20
288.501430
 30
0.0
 11
381.219968
 21
288.501430
 31
0.0
  0
LINE
  5
1ec
100
AcDbEntity
  8
Layer_1
 62
1
100
AcDbLine
 10
381.219968
 20
288.501430
 30
0.0
 11
381.219968
 21
291.684698
 31
0.0
  0
LINE
  5
1ed
100
AcDbEntity
  8
Layer_1
 62
1
100
AcDbLine
 10
381.219968
 20
291.684698
 30
0.0
 11
371.219817
 21
291.684698
 31
0.0
  0
LINE
  5
1ee
100
AcDbEntity
  8
Layer_1
 62
1
100
AcDbLine
 10
371.219817
 20
291.684698
 30
0.0
 11
371.219817
 21
288.501430
 31
0.0
  0
LINE
  5
1ef
100
AcDbEntity
  8
Layer_1
 62
1
100
AcDbLine
 10
371.219817
 20
288.501430
 30
0.0
 11
363.045848
 21
288.491297
 31
0.0
  0
LINE
  5
1f0
100
AcDbEntity
  8
Layer_1
 62
1
100
AcDbLine
 10
363.045848
 20
288.491299
 30
0.0
 11
363.045848
 21
121.731362
 31
0.0
  0
LINE
  5
1f1
100
AcDbEntity
  8
Layer_1
 62
1
100
AcDbLine
 10
363.045848
 20
121.731362
 30
0.0
 11
374.469239
 21
121.731362
 31
0.0
  0
LINE
  5
1f2
100
AcDbEntity
  8
Layer_1
 62
1
100
AcDbLine
 10
374.469239
 20
121.731362
 30
0.0
 11
374.469239
 21
124.745961
 31
0.0
  0
LINE
  5
1f3
100
AcDbEntity
  8
Layer_1
 62
1
100
AcDbLine
 10
374.469239
 20
124.745961
 30
0.0
 11
372.869607
 21
124.745961
 31
0.0
  0
LINE
  5
1f4
100
AcDbEntity
  8
Layer_1
 62
1
100
AcDbLine
 10
372.869607
 20
124.745961
 30
0.0
 11
372.869607
 21
127.746232
 31
0.0
  0
LINE
  5
1f5
100
AcDbEntity
  8
Layer_1
 62
3
100
AcDbLine
 10
372.869607
 20
127.746232
 30
0.0
 11
374.469239
 21
127.746232
 31
0.0
  0
LINE
  5
1f6
100
AcDbEntity
  8
Layer_1
 62
3
100
AcDbLine
 10
374.469239
 20
127.746232
 30
0.0
 11
374.469239
 21
129.746041
 31
0.0
  0
LINE
  5
1f7
100
AcDbEntity
  8
Layer_1
 62
3
100
AcDbLine
 10
374.469239
 20
129.746041
 30
0.0
 11
377.669588
 21
129.746041
 31
0.0
  0
LINE
  5
1f8
100
AcDbEntity
  8
Layer_1
 62
3
100
AcDbLine
 10
377.669588
 20
129.746041
 30
0.0
 11
377.669588
 21
127.746232
 31
0.0
  0
LINE
  5
1f9
100
AcDbEntity
  8
Layer_1
 62
3
100
AcDbLine
 10
377.669588
 20
127.746232
 30
0.0
 11
379.269217
 21
127.746232
 31
0.0
  0
LINE
  5
1fa
100
AcDbEntity
  8
Layer_1
 62
1
100
AcDbLine
 10
379.269217
 20
127.746232
 30
0.0
 11
379.269217
 21
124.745961
 31
0.0
  0
LINE
  5
1fb
100
AcDbEntity
  8
Layer_1
 62
1
100
AcDbLine
 10
379.269217
 20
124.745961
 30
0.0
 11
377.669588
 21
124.745961
 31
0.0
  0
LINE
  5
1fc
100
AcDbEntity
  8
Layer_1
 62
1
100
AcDbLine
 10
377.669588
 20
124.745961
 30
0.0
 11
377.669588
 21
121.731362
 31
0.0
  0
LINE
  5
1fd
100
AcDbEntity
  8
Layer_1
 62
1
100
AcDbLine
 10
377.669588
 20
121.731362
 30
0.0
 11
397.480268
 21
121.731362
 31
0.0
  0
LINE
  5
1fe
100
AcDbEntity
  8
Layer_1
 62
1
100
AcDbLine
 10
397.480268
 20
121.731362
 30
0.0
 11
397.480268
 21
118.548101
 31
0.0
  0
LINE
  5
1ff
100
AcDbEntity
  8
Layer_1
 62
1
100
AcDbLine
 10
397.480268
 20
118.548101
 30
0.0
 11
407.480417
 21
118.548101
 31
0.0
  0
LINE
  5
200
100
AcDbEntity
  8
Layer_1
 62
1
100
AcDbLine
 10
407.480417
 20
118.548101
 30
0.0
 11
407.480417
 21
121.731362
 31
0.0
  0
LINE
  5
201
100
AcDbEntity
  8
Layer_1
 62
1
100
AcDbLine
 10
407.480417
 20
121.731362
 30
0.0
 11
415.654389
 21
121.731362
 31
0.0
  0
LINE
  5
202
100
AcDbEntity
  8
Layer_1
 62
1
100
AcDbLine
 10
415.654389
 20
121.731362
 30
0.0
 11
415.654389
 21
288.491297
 31
0.0
  0
LINE
  5
203
100
AcDbEntity
  8
Layer_1
 62
1
100
AcDbLine
 10
415.654389
 20
288.491297
 30
0.0
 11
404.230998
 21
288.501430
 31
0.0
  0
SPLINE
  5
204
100
AcDbEntity
  8
Layer_1
 62
5
100
AcDbSpline
 70
8
 71
3
 72
8
 73
4
 74
0
 40
0
 40
0
 40
0
 40
0
 40
1
 40
1
 40
1
 40
1
 10
329.501265
 20
281.521214
 30
0.0
 10
330.332265
 20
281.521214
 30
0.0
 10
331.001264
 20
280.183213
 30
0.0
 10
331.001264
 20
278.521217
 30
0.0
  0
LINE
  5
205
100
AcDbEntity
  8
Layer_1
 62
5
100
AcDbLine
 10
331.001264
 20
278.521217
 30
0.0
 11
331.001264
 21
209.258111
 31
0.0
  0
SPLINE
  5
206
100
AcDbEntity
  8
Layer_1
 62
5
100
AcDbSpline
 70
8
 71
3
 72
8
 73
4
 74
0
 40
0
 40
0
 40
0
 40
0
 40
1
 40
1
 40
1
 40
1
 10
331.001264
 20
209.258111
 30
0.0
 10
331.001264
 20
207.596112
 30
0.0
 10
330.332265
 20
206.258111
 30
0.0
 10
329.501265
 20
206.258111
 30
0.0
  0
SPLINE
  5
207
100
AcDbEntity
  8
Layer_1
 62
5
100
AcDbSpline
 70
8
 71
3
 72
8
 73
4
 74
0
 40
0
 40
0
 40
0
 40
0
 40
1
 40
1
 40
1
 40
1
 10
329.501265
 20
206.258111
 30
0.0
 10
328.670264
 20
206.258111
 30
0.0
 10
328.001265
 20
207.596112
 30
0.0
 10
328.001265
 20
209.258111
 30
0.0
  0
LINE
  5
208
100
AcDbEntity
  8
Layer_1
 62
5
100
AcDbLine
 10
328.001265
 20
209.258111
 30
0.0
 11
328.001265
 21
278.521217
 31
0.0
  0
SPLINE
  5
209
100
AcDbEntity
  8
Layer_1
 62
5
100
AcDbSpline
 70
8
 71
3
 72
8
 73
4
 74
0
 40
0
 40
0
 40
0
 40
0
 40
1
 40
1
 40
1
 40
1
 10
328.001265
 20
278.521217
 30
0.0
 10
328.001265
 20
280.183213
 30
0.0
 10
328.670264
 20
281.521214
 30
0.0
 10
329.501265
 20
281.521214
 30
0.0
  0
LINE
  5
20a
100
AcDbEntity
  8
Layer_1
 62
5
100
AcDbLine
 10
329.501265
 20
281.521214
 30
0.0
 11
329.501265
 21
281.521214
 31
0.0
  0
LINE
  5
20b
100
AcDbEntity
  8
Layer_1
 62
3
100
AcDbLine
 10
308.641364
 20
204.673651
 30
0.0
 11
351.106253
 21
204.673651
 31
0.0
  0
SPLINE
  5
20c
100
AcDbEntity
  8
Layer_1
 62
3
100
AcDbSpline
 70
8
 71
3
 72
8
 73
4
 74
0
 40
0
 40
0
 40
0
 40
0
 40
1
 40
1
 40
1
 40
1
 10
351.106253
 20
204.673651
 30
0.0
 10
352.768255
 20
204.673651
 30
0.0
 10
354.106255
 20
203.335661
 30
0.0
 10
354.106255
 20
201.673663
 30
0.0
  0
LINE
  5
20d
100
AcDbEntity
  8
Layer_1
 62
3
100
AcDbLine
 10
354.106255
 20
201.673663
 30
0.0
 11
354.106255
 21
134.121071
 31
0.0
  0
SPLINE
  5
20e
100
AcDbEntity
  8
Layer_1
 62
3
100
AcDbSpline
 70
8
 71
3
 72
8
 73
4
 74
0
 40
0
 40
0
 40
0
 40
0
 40
1
 40
1
 40
1
 40
1
 10
354.106255
 20
134.121071
 30
0.0
 10
354.106255
 20
132.459081
 30
0.0
 10
352.768255
 20
131.121083
 30
0.0
 10
351.106253
 20
131.121083
 30
0.0
  0
LINE
  5
20f
100
AcDbEntity
  8
Layer_1
 62
3
100
AcDbLine
 10
351.106253
 20
131.121083
 30
0.0
 11
308.641364
 21
131.121083
 31
0.0
  0
SPLINE
  5
210
100
AcDbEntity
  8
Layer_1
 62
3
100
AcDbSpline
 70
8
 71
3
 72
8
 73
4
 74
0
 40
0
 40
0
 40
0
 40
0
 40
1
 40
1
 40
1
 40
1
 10
308.641364
 20
131.121083
 30
0.0
 10
306.979373
 20
131.121083
 30
0.0
 10
305.641375
 20
132.459081
 30
0.0
 10
305.641375
 20
134.121071
 30
0.0
  0
LINE
  5
211
100
AcDbEntity
  8
Layer_1
 62
3
100
AcDbLine
 10
305.641375
 20
134.121071
 30
0.0
 11
305.641375
 21
201.673663
 31
0.0
  0
SPLINE
  5
212
100
AcDbEntity
  8
Layer_1
 62
3
100
AcDbSpline
 70
8
 71
3
 72
8
 73
4
 74
0
 40
0
 40
0
 40
0
 40
0
 40
1
 40
1
 40
1
 40
1
 10
305.641375
 20
201.673663
 30
0.0
 10
305.641375
 20
203.335661
 30
0.0
 10
306.979373
 20
204.673651
 30
0.0
 10
308.641364
 20
204.673651
 30
0.0
  0
LINE
  5
213
100
AcDbEntity
  8
Layer_1
 62
3
100
AcDbLine
 10
308.641364
 20
204.673651
 30
0.0
 11
308.641364
 21
204.673651
 31
0.0
  0
LINE
  5
214
100
AcDbEntity
  8
Layer_1
 62
1
100
AcDbLine
 10
344.382034
 20
288.501430
 30
0.0
 11
344.382034
 21
285.486834
 31
0.0
  0
LINE
  5
215
100
AcDbEntity
  8
Layer_1
 62
1
100
AcDbLine
 10
344.382034
 20
285.486834
 30
0.0
 11
345.981663
 21
285.486834
 31
0.0
  0
LINE
  5
216
100
AcDbEntity
  8
Layer_1
 62
1
100
AcDbLine
 10
345.981663
 20
285.486834
 30
0.0
 11
345.981663
 21
282.486567
 31
0.0
  0
LINE
  5
217
100
AcDbEntity
  8
Layer_1
 62
1
100
AcDbLine
 10
345.981663
 20
282.486567
 30
0.0
 11
344.382034
 21
282.486567
 31
0.0
  0
LINE
  5
218
100
AcDbEntity
  8
Layer_1
 62
1
100
AcDbLine
 10
344.382034
 20
282.486567
 30
0.0
 11
344.382034
 21
280.486759
 31
0.0
  0
LINE
  5
219
100
AcDbEntity
  8
Layer_1
 62
1
100
AcDbLine
 10
344.382034
 20
280.486759
 30
0.0
 11
341.181685
 21
280.486759
 31
0.0
  0
LINE
  5
21a
100
AcDbEntity
  8
Layer_1
 62
1
100
AcDbLine
 10
341.181685
 20
280.486759
 30
0.0
 11
341.181685
 21
282.486567
 31
0.0
  0
LINE
  5
21b
100
AcDbEntity
  8
Layer_1
 62
1
100
AcDbLine
 10
341.181685
 20
282.486567
 30
0.0
 11
339.582054
 21
282.486567
 31
0.0
  0
LINE
  5
21c
100
AcDbEntity
  8
Layer_1
 62
1
100
AcDbLine
 10
339.582054
 20
282.486567
 30
0.0
 11
339.582054
 21
285.486834
 31
0.0
  0
LINE
  5
21d
100
AcDbEntity
  8
Layer_1
 62
1
100
AcDbLine
 10
339.582054
 20
285.486834
 30
0.0
 11
341.181685
 21
285.486834
 31
0.0
  0
LINE
  5
21e
100
AcDbEntity
  8
Layer_1
 62
1
100
AcDbLine
 10
341.181685
 20
285.486834
 30
0.0
 11
341.181685
 21
288.501430
 31
0.0
  0
LINE
  5
21f
100
AcDbEntity
  8
Layer_1
 62
1
100
AcDbLine
 10
341.181685
 20
288.501430
 30
0.0
 11
321.371005
 21
288.501430
 31
0.0
  0
LINE
  5
220
100
AcDbEntity
  8
Layer_1
 62
1
100
AcDbLine
 10
321.371005
 20
288.501430
 30
0.0
 11
321.371005
 21
291.684698
 31
0.0
  0
LINE
  5
221
100
AcDbEntity
  8
Layer_1
 62
1
100
AcDbLine
 10
321.371005
 20
291.684698
 30
0.0
 11
311.370853
 21
291.684698
 31
0.0
  0
LINE
  5
222
100
AcDbEntity
  8
Layer_1
 62
1
100
AcDbLine
 10
311.370853
 20
291.684698
 30
0.0
 11
311.370853
 21
288.501430
 31
0.0
  0
LINE
  5
223
100
AcDbEntity
  8
Layer_1
 62
1
100
AcDbLine
 10
311.370853
 20
288.501430
 30
0.0
 11
303.196884
 21
288.491297
 31
0.0
  0
LINE
  5
224
100
AcDbEntity
  8
Layer_1
 62
1
100
AcDbLine
 10
303.196884
 20
288.491299
 30
0.0
 11
303.196884
 21
121.731362
 31
0.0
  0
LINE
  5
225
100
AcDbEntity
  8
Layer_1
 62
1
100
AcDbLine
 10
303.196884
 20
121.731362
 30
0.0
 11
314.620275
 21
121.731362
 31
0.0
  0
LINE
  5
226
100
AcDbEntity
  8
Layer_1
 62
1
100
AcDbLine
 10
314.620275
 20
121.731362
 30
0.0
 11
314.620275
 21
124.745961
 31
0.0
  0
LINE
  5
227
100
AcDbEntity
  8
Layer_1
 62
1
100
AcDbLine
 10
314.620275
 20
124.745961
 30
0.0
 11
313.020644
 21
124.745961
 31
0.0
  0
LINE
  5
228
100
AcDbEntity
  8
Layer_1
 62
1
100
AcDbLine
 10
313.020644
 20
124.745961
 30
0.0
 11
313.020644
 21
127.746232
 31
0.0
  0
LINE
  5
229
100
AcDbEntity
  8
Layer_1
 62
3
100
AcDbLine
 10
313.020644
 20
127.746232
 30
0.0
 11
314.620275
 21
127.746232
 31
0.0
  0
LINE
  5
22a
100
AcDbEntity
  8
Layer_1
 62
3
100
AcDbLine
 10
314.620275
 20
127.746232
 30
0.0
 11
314.620275
 21
129.746041
 31
0.0
  0
LINE
  5
22b
100
AcDbEntity
  8
Layer_1
 62
3
100
AcDbLine
 10
314.620275
 20
129.746041
 30
0.0
 11
317.820625
 21
129.746041
 31
0.0
  0
LINE
  5
22c
100
AcDbEntity
  8
Layer_1
 62
3
100
AcDbLine
 10
317.820625
 20
129.746041
 30
0.0
 11
317.820625
 21
127.746232
 31
0.0
  0
LINE
  5
22d
100
AcDbEntity
  8
Layer_1
 62
3
100
AcDbLine
 10
317.820625
 20
127.746232
 30
0.0
 11
319.420253
 21
127.746232
 31
0.0
  0
LINE
  5
22e
100
AcDbEntity
  8
Layer_1
 62
1
100
AcDbLine
 10
319.420253
 20
127.746232
 30
0.0
 11
319.420253
 21
124.745961
 31
0.0
  0
LINE
  5
22f
100
AcDbEntity
  8
Layer_1
 62
1
100
AcDbLine
 10
319.420253
 20
124.745961
 30
0.0
 11
317.820625
 21
124.745961
 31
0.0
  0
LINE
  5
230
100
AcDbEntity
  8
Layer_1
 62
1
100
AcDbLine
 10
317.820625
 20
124.745961
 30
0.0
 11
317.820625
 21
121.731362
 31
0.0
  0
LINE
  5
231
100
AcDbEntity
  8
Layer_1
 62
1
100
AcDbLine
 10
317.820625
 20
121.731362
 30
0.0
 11
337.631304
 21
121.731362
 31
0.0
  0
LINE
  5
232
100
AcDbEntity
  8
Layer_1
 62
1
100
AcDbLine
 10
337.631304
 20
121.731362
 30
0.0
 11
337.631304
 21
118.548101
 31
0.0
  0
LINE
  5
233
100
AcDbEntity
  8
Layer_1
 62
1
100
AcDbLine
 10
337.631304
 20
118.548101
 30
0.0
 11
347.631454
 21
118.548101
 31
0.0
  0
LINE
  5
234
100
AcDbEntity
  8
Layer_1
 62
1
100
AcDbLine
 10
347.631454
 20
118.548101
 30
0.0
 11
347.631454
 21
121.731362
 31
0.0
  0
LINE
  5
235
100
AcDbEntity
  8
Layer_1
 62
1
100
AcDbLine
 10
347.631454
 20
121.731362
 30
0.0
 11
355.805425
 21
121.731362
 31
0.0
  0
LINE
  5
236
100
AcDbEntity
  8
Layer_1
 62
1
100
AcDbLine
 10
355.805425
 20
121.731362
 30
0.0
 11
355.805425
 21
288.491297
 31
0.0
  0
LINE
  5
237
100
AcDbEntity
  8
Layer_1
 62
1
100
AcDbLine
 10
355.805425
 20
288.491297
 30
0.0
 11
344.382034
 21
288.501430
 31
0.0
  0
SPLINE
  5
238
100
AcDbEntity
  8
Layer_1
 62
5
100
AcDbSpline
 70
8
 71
3
 72
8
 73
4
 74
0
 40
0
 40
0
 40
0
 40
0
 40
1
 40
1
 40
1
 40
1
 10
449.199177
 20
281.521214
 30
0.0
 10
450.030178
 20
281.521214
 30
0.0
 10
450.699177
 20
280.183213
 30
0.0
 10
450.699177
 20
278.521217
 30
0.0
  0
LINE
  5
239
100
AcDbEntity
  8
Layer_1
 62
5
100
AcDbLine
 10
450.699177
 20
278.521217
 30
0.0
 11
450.699177
 21
209.258111
 31
0.0
  0
SPLINE
  5
23a
100
AcDbEntity
  8
Layer_1
 62
5
100
AcDbSpline
 70
8
 71
3
 72
8
 73
4
 74
0
 40
0
 40
0
 40
0
 40
0
 40
1
 40
1
 40
1
 40
1
 10
450.699177
 20
209.258111
 30
0.0
 10
450.699177
 20
207.596112
 30
0.0
 10
450.030178
 20
206.258111
 30
0.0
 10
449.199177
 20
206.258111
 30
0.0
  0
SPLINE
  5
23b
100
AcDbEntity
  8
Layer_1
 62
5
100
AcDbSpline
 70
8
 71
3
 72
8
 73
4
 74
0
 40
0
 40
0
 40
0
 40
0
 40
1
 40
1
 40
1
 40
1
 10
449.199177
 20
206.258111
 30
0.0
 10
448.368177
 20
206.258111
 30
0.0
 10
447.699178
 20
207.596112
 30
0.0
 10
447.699178
 20
209.258111
 30
0.0
  0
LINE
  5
23c
100
AcDbEntity
  8
Layer_1
 62
5
100
AcDbLine
 10
447.699178
 20
209.258111
 30
0.0
 11
447.699178
 21
278.521217
 31
0.0
  0
SPLINE
  5
23d
100
AcDbEntity
  8
Layer_1
 62
5
100
AcDbSpline
 70
8
 71
3
 72
8
 73
4
 74
0
 40
0
 40
0
 40
0
 40
0
 40
1
 40
1
 40
1
 40
1
 10
447.699178
 20
278.521217
 30
0.0
 10
447.699178
 20
280.183213
 30
0.0
 10
448.368177
 20
281.521214
 30
0.0
 10
449.199177
 20
281.521214
 30
0.0
  0
LINE
  5
23e
100
AcDbEntity
  8
Layer_1
 62
5
100
AcDbLine
 10
449.199177
 20
281.521214
 30
0.0
 11
449.199177
 21
281.521214
 31
0.0
  0
LINE
  5
23f
100
AcDbEntity
  8
Layer_1
 62
3
100
AcDbLine
 10
428.339276
 20
204.673651
 30
0.0
 11
470.804166
 21
204.673651
 31
0.0
  0
SPLINE
  5
240
100
AcDbEntity
  8
Layer_1
 62
3
100
AcDbSpline
 70
8
 71
3
 72
8
 73
4
 74
0
 40
0
 40
0
 40
0
 40
0
 40
1
 40
1
 40
1
 40
1
 10
470.804166
 20
204.673651
 30
0.0
 10
472.466167
 20
204.673651
 30
0.0
 10
473.804168
 20
203.335661
 30
0.0
 10
473.804168
 20
201.673663
 30
0.0
  0
LINE
  5
241
100
AcDbEntity
  8
Layer_1
 62
3
100
AcDbLine
 10
473.804168
 20
201.673663
 30
0.0
 11
473.804168
 21
134.121071
 31
0.0
  0
SPLINE
  5
242
100
AcDbEntity
  8
Layer_1
 62
3
100
AcDbSpline
 70
8
 71
3
 72
8
 73
4
 74
0
 40
0
 40
0
 40
0
 40
0
 40
1
 40
1
 40
1
 40
1
 10
473.804168
 20
134.121071
 30
0.0
 10
473.804168
 20
132.459081
 30
0.0
 10
472.466167
 20
131.121083
 30
0.0
 10
470.804166
 20
131.121083
 30
0.0
  0
LINE
  5
243
100
AcDbEntity
  8
Layer_1
 62
3
100
AcDbLine
 10
470.804166
 20
131.121083
 30
0.0
 11
428.339276
 21
131.121083
 31
0.0
  0
SPLINE
  5
244
100
AcDbEntity
  8
Layer_1
 62
3
100
AcDbSpline
 70
8
 71
3
 72
8
 73
4
 74
0
 40
0
 40
0
 40
0
 40
0
 40
1
 40
1
 40
1
 40
1
 10
428.339276
 20
131.121083
 30
0.0
 10
426.677286
 20
131.121083
 30
0.0
 10
425.339288
 20
132.459081
 30
0.0
 10
425.339288
 20
134.121071
 30
0.0
  0
LINE
  5
245
100
AcDbEntity
  8
Layer_1
 62
3
100
AcDbLine
 10
425.339288
 20
134.121071
 30
0.0
 11
425.339288
 21
201.673663
 31
0.0
  0
SPLINE
  5
246
100
AcDbEntity
  8
Layer_1
 62
3
100
AcDbSpline
 70
8
 71
3
 72
8
 73
4
 74
0
 40
0
 40
0
 40
0
 40
0
 40
1
 40
1
 40
1
 40
1
 10
425.339288
 20
201.673663
 30
0.0
 10
425.339288
 20
203.335661
 30
0.0
 10
426.677286
 20
204.673651
 30
0.0
 10
428.339276
 20
204.673651
 30
0.0
  0
LINE
  5
247
100
AcDbEntity
  8
Layer_1
 62
3
100
AcDbLine
 10
428.339276
 20
204.673651
 30
0.0
 11
428.339276
 21
204.673651
 31
0.0
  0
LINE
  5
248
100
AcDbEntity
  8
Layer_1
 62
1
100
AcDbLine
 10
464.079947
 20
288.501430
 30
0.0
 11
464.079947
 21
285.486834
 31
0.0
  0
LINE
  5
249
100
AcDbEntity
  8
Layer_1
 62
1
100
AcDbLine
 10
464.079947
 20
285.486834
 30
0.0
 11
465.679576
 21
285.486834
 31
0.0
  0
LINE
  5
24a
100
AcDbEntity
  8
Layer_1
 62
1
100
AcDbLine
 10
465.679576
 20
285.486834
 30
0.0
 11
465.679576
 21
282.486567
 31
0.0
  0
LINE
  5
24b
100
AcDbEntity
  8
Layer_1
 62
1
100
AcDbLine
 10
465.679576
 20
282.486567
 30
0.0
 11
464.079947
 21
282.486567
 31
0.0
  0
LINE
  5
24c
100
AcDbEntity
  8
Layer_1
 62
1
100
AcDbLine
 10
464.079947
 20
282.486567
 30
0.0
 11
464.079947
 21
280.486759
 31
0.0
  0
LINE
  5
24d
100
AcDbEntity
  8
Layer_1
 62
1
100
AcDbLine
 10
464.079947
 20
280.486759
 30
0.0
 11
460.879597
 21
280.486759
 31
0.0
  0
LINE
  5
24e
100
AcDbEntity
  8
Layer_1
 62
1
100
AcDbLine
 10
460.879597
 20
280.486759
 30
0.0
 11
460.879597
 21
282.486567
 31
0.0
  0
LINE
  5
24f
100
AcDbEntity
  8
Layer_1
 62
1
100
AcDbLine
 10
460.879597
 20
282.486567
 30
0.0
 11
459.279966
 21
282.486567
 31
0.0
  0
LINE
  5
250
100
AcDbEntity
  8
Layer_1
 62
1
100
AcDbLine
 10
459.279966
 20
282.486567
 30
0.0
 11
459.279966
 21
285.486834
 31
0.0
  0
LINE
  5
251
100
AcDbEntity
  8
Layer_1
 62
1
100
AcDbLine
 10
459.279966
 20
285.486834
 30
0.0
 11
460.879597
 21
285.486834
 31
0.0
  0
LINE
  5
252
100
AcDbEntity
  8
Layer_1
 62
1
100
AcDbLine
 10
460.879597
 20
285.486834
 30
0.0
 11
460.879597
 21
288.501430
 31
0.0
  0
LINE
  5
253
100
AcDbEntity
  8
Layer_1
 62
1
100
AcDbLine
 10
460.879597
 20
288.501430
 30
0.0
 11
441.068918
 21
288.501430
 31
0.0
  0
LINE
  5
254
100
AcDbEntity
  8
Layer_1
 62
1
100
AcDbLine
 10
441.068918
 20
288.501430
 30
0.0
 11
441.068918
 21
291.684698
 31
0.0
  0
LINE
  5
255
100
AcDbEntity
  8
Layer_1
 62
1
100
AcDbLine
 10
441.068918
 20
291.684698
 30
0.0
 11
431.068766
 21
291.684698
 31
0.0
  0
LINE
  5
256
100
AcDbEntity
  8
Layer_1
 62
1
100
AcDbLine
 10
431.068766
 20
291.684698
 30
0.0
 11
431.068766
 21
288.501430
 31
0.0
  0
LINE
  5
257
100
AcDbEntity
  8
Layer_1
 62
1
100
AcDbLine
 10
431.068766
 20
288.501430
 30
0.0
 11
422.894797
 21
288.491297
 31
0.0
  0
LINE
  5
258
100
AcDbEntity
  8
Layer_1
 62
1
100
AcDbLine
 10
422.894797
 20
288.491299
 30
0.0
 11
422.894797
 21
121.731362
 31
0.0
  0
LINE
  5
259
100
AcDbEntity
  8
Layer_1
 62
1
100
AcDbLine
 10
422.894797
 20
121.731362
 30
0.0
 11
434.318188
 21
121.731362
 31
0.0
  0
LINE
  5
25a
100
AcDbEntity
  8
Layer_1
 62
1
100
AcDbLine
 10
434.318188
 20
121.731362
 30
0.0
 11
434.318188
 21
124.745961
 31
0.0
  0
LINE
  5
25b
100
AcDbEntity
  8
Layer_1
 62
1
100
AcDbLine
 10
434.318188
 20
124.745961
 30
0.0
 11
432.718557
 21
124.745961
 31
0.0
  0
LINE
  5
25c
100
AcDbEntity
  8
Layer_1
 62
1
100
AcDbLine
 10
432.718557
 20
124.745961
 30
0.0
 11
432.718557
 21
127.746232
 31
0.0
  0
LINE
  5
25d
100
AcDbEntity
  8
Layer_1
 62
3
100
AcDbLine
 10
432.718557
 20
127.746232
 30
0.0
 11
434.318188
 21
127.746232
 31
0.0
  0
LINE
  5
25e
100
AcDbEntity
  8
Layer_1
 62
3
100
AcDbLine
 10
434.318188
 20
127.746232
 30
0.0
 11
434.318188
 21
129.746041
 31
0.0
  0
LINE
  5
25f
100
AcDbEntity
  8
Layer_1
 62
3
100
AcDbLine
 10
434.318188
 20
129.746041
 30
0.0
 11
437.518537
 21
129.746041
 31
0.0
  0
LINE
  5
260
100
AcDbEntity
  8
Layer_1
 62
3
100
AcDbLine
 10
437.518537
 20
129.746041
 30
0.0
 11
437.518537
 21
127.746232
 31
0.0
  0
LINE
  5
261
100
AcDbEntity
  8
Layer_1
 62
3
100
AcDbLine
 10
437.518537
 20
127.746232
 30
0.0
 11
439.118166
 21
127.746232
 31
0.0
  0
LINE
  5
262
100
AcDbEntity
  8
Layer_1
 62
1
100
AcDbLine
 10
439.118166
 20
127.746232
 30
0.0
 11
439.118166
 21
124.745961
 31
0.0
  0
LINE
  5
263
100
AcDbEntity
  8
Layer_1
 62
1
100
AcDbLine
 10
439.118166
 20
124.745961
 30
0.0
 11
437.518537
 21
124.745961
 31
0.0
  0
LINE
  5
264
100
AcDbEntity
  8
Layer_1
 62
1
100
AcDbLine
 10
437.518537
 20
124.745961
 30
0.0
 11
437.518537
 21
121.731362
 31
0.0
  0
LINE
  5
265
100
AcDbEntity
  8
Layer_1
 62
1
100
AcDbLine
 10
437.518537
 20
121.731362
 30
0.0
 11
457.329217
 21
121.731362
 31
0.0
  0
LINE
  5
266
100
AcDbEntity
  8
Layer_1
 62
1
100
AcDbLine
 10
457.329217
 20
121.731362
 30
0.0
 11
457.329217
 21
118.548101
 31
0.0
  0
LINE
  5
267
100
AcDbEntity
  8
Layer_1
 62
1
100
AcDbLine
 10
457.329217
 20
118.548101
 30
0.0
 11
467.329367
 21
118.548101
 31
0.0
  0
LINE
  5
268
100
AcDbEntity
  8
Layer_1
 62
1
100
AcDbLine
 10
467.329367
 20
118.548101
 30
0.0
 11
467.329367
 21
121.731362
 31
0.0
  0
LINE
  5
269
100
AcDbEntity
  8
Layer_1
 62
1
100
AcDbLine
 10
467.329367
 20
121.731362
 30
0.0
 11
475.503338
 21
121.731362
 31
0.0
  0
LINE
  5
26a
100
AcDbEntity
  8
Layer_1
 62
1
100
AcDbLine
 10
475.503338
 20
121.731362
 30
0.0
 11
475.503338
 21
288.491297
 31
0.0
  0
LINE
  5
26b
100
AcDbEntity
  8
Layer_1
 62
1
100
AcDbLine
 10
475.503338
 20
288.491297
 30
0.0
 11
464.079947
 21
288.501430
 31
0.0
  0
SPLINE
  5
26c
100
AcDbEntity
  8
Layer_1
 62
5
100
AcDbSpline
 70
8
 71
3
 72
8
 73
4
 74
0
 40
0
 40
0
 40
0
 40
0
 40
1
 40
1
 40
1
 40
1
 10
269.652308
 20
281.521214
 30
0.0
 10
270.483309
 20
281.521214
 30
0.0
 10
271.152308
 20
280.183213
 30
0.0
 10
271.152308
 20
278.521217
 30
0.0
  0
LINE
  5
26d
100
AcDbEntity
  8
Layer_1
 62
5
100
AcDbLine
 10
271.152308
 20
278.521217
 30
0.0
 11
271.152308
 21
209.258111
 31
0.0
  0
SPLINE
  5
26e
100
AcDbEntity
  8
Layer_1
 62
5
100
AcDbSpline
 70
8
 71
3
 72
8
 73
4
 74
0
 40
0
 40
0
 40
0
 40
0
 40
1
 40
1
 40
1
 40
1
 10
271.152308
 20
209.258111
 30
0.0
 10
271.152308
 20
207.596112
 30
0.0
 10
270.483309
 20
206.258111
 30
0.0
 10
269.652308
 20
206.258111
 30
0.0
  0
SPLINE
  5
26f
100
AcDbEntity
  8
Layer_1
 62
5
100
AcDbSpline
 70
8
 71
3
 72
8
 73
4
 74
0
 40
0
 40
0
 40
0
 40
0
 40
1
 40
1
 40
1
 40
1
 10
269.652308
 20
206.258111
 30
0.0
 10
268.821307
 20
206.258111
 30
0.0
 10
268.152308
 20
207.596112
 30
0.0
 10
268.152308
 20
209.258111
 30
0.0
  0
LINE
  5
270
100
AcDbEntity
  8
Layer_1
 62
5
100
AcDbLine
 10
268.152309
 20
209.258111
 30
0.0
 11
268.152309
 21
278.521217
 31
0.0
  0
SPLINE
  5
271
100
AcDbEntity
  8
Layer_1
 62
5
100
AcDbSpline
 70
8
 71
3
 72
8
 73
4
 74
0
 40
0
 40
0
 40
0
 40
0
 40
1
 40
1
 40
1
 40
1
 10
268.152309
 20
278.521217
 30
0.0
 10
268.152309
 20
280.183213
 30
0.0
 10
268.821307
 20
281.521214
 30
0.0
 10
269.652308
 20
281.521214
 30
0.0
  0
LINE
  5
272
100
AcDbEntity
  8
Layer_1
 62
5
100
AcDbLine
 10
269.652308
 20
281.521214
 30
0.0
 11
269.652308
 21
281.521214
 31
0.0
  0
LINE
  5
273
100
AcDbEntity
  8
Layer_1
 62
3
100
AcDbLine
 10
248.792407
 20
204.673651
 30
0.0
 11
291.257297
 21
204.673651
 31
0.0
  0
SPLINE
  5
274
100
AcDbEntity
  8
Layer_1
 62
3
100
AcDbSpline
 70
8
 71
3
 72
8
 73
4
 74
0
 40
0
 40
0
 40
0
 40
0
 40
1
 40
1
 40
1
 40
1
 10
291.257297
 20
204.673651
 30
0.0
 10
292.919298
 20
204.673651
 30
0.0
 10
294.257299
 20
203.335661
 30
0.0
 10
294.257299
 20
201.673663
 30
0.0
  0
LINE
  5
275
100
AcDbEntity
  8
Layer_1
 62
3
100
AcDbLine
 10
294.257299
 20
201.673663
 30
0.0
 11
294.257299
 21
134.121071
 31
0.0
  0
SPLINE
  5
276
100
AcDbEntity
  8
Layer_1
 62
3
100
AcDbSpline
 70
8
 71
3
 72
8
 73
4
 74
0
 40
0
 40
0
 40
0
 40
0
 40
1
 40
1
 40
1
 40
1
 10
294.257299
 20
134.121071
 30
0.0
 10
294.257299
 20
132.459081
 30
0.0
 10
292.919298
 20
131.121083
 30
0.0
 10
291.257297
 20
131.121083
 30
0.0
  0
LINE
  5
277
100
AcDbEntity
  8
Layer_1
 62
3
100
AcDbLine
 10
291.257297
 20
131.121083
 30
0.0
 11
248.792407
 21
131.121083
 31
0.0
  0
SPLINE
  5
278
100
AcDbEntity
  8
Layer_1
 62
3
100
AcDbSpline
 70
8
 71
3
 72
8
 73
4
 74
0
 40
0
 40
0
 40
0
 40
0
 40
1
 40
1
 40
1
 40
1
 10
248.792407
 20
131.121083
 30
0.0
 10
247.130417
 20
131.121083
 30
0.0
 10
245.792419
 20
132.459081
 30
0.0
 10
245.792419
 20
134.121071
 30
0.0
  0
LINE
  5
279
100
AcDbEntity
  8
Layer_1
 62
3
100
AcDbLine
 10
245.792419
 20
134.121071
 30
0.0
 11
245.792419
 21
201.673663
 31
0.0
  0
SPLINE
  5
27a
100
AcDbEntity
  8
Layer_1
 62
3
100
AcDbSpline
 70
8
 71
3
 72
8
 73
4
 74
0
 40
0
 40
0
 40
0
 40
0
 40
1
 40
1
 40
1
 40
1
 10
245.792419
 20
201.673663
 30
0.0
 10
245.792419
 20
203.335661
 30
0.0
 10
247.130417
 20
204.673651
 30
0.0
 10
248.792407
 20
204.673651
 30
0.0
  0
LINE
  5
27b
100
AcDbEntity
  8
Layer_1
 62
3
100
AcDbLine
 10
248.792407
 20
204.673651
 30
0.0
 11
248.792407
 21
204.673651
 31
0.0
  0
LINE
  5
27c
100
AcDbEntity
  8
Layer_1
 62
1
100
AcDbLine
 10
284.533078
 20
288.501430
 30
0.0
 11
284.533078
 21
285.486834
 31
0.0
  0
LINE
  5
27d
100
AcDbEntity
  8
Layer_1
 62
1
100
AcDbLine
 10
284.533078
 20
285.486834
 30
0.0
 11
286.132707
 21
285.486834
 31
0.0
  0
LINE
  5
27e
100
AcDbEntity
  8
Layer_1
 62
1
100
AcDbLine
 10
286.132707
 20
285.486834
 30
0.0
 11
286.132707
 21
282.486567
 31
0.0
  0
LINE
  5
27f
100
AcDbEntity
  8
Layer_1
 62
1
100
AcDbLine
 10
286.132707
 20
282.486567
 30
0.0
 11
284.533078
 21
282.486567
 31
0.0
  0
LINE
  5
280
100
AcDbEntity
  8
Layer_1
 62
1
100
AcDbLine
 10
284.533078
 20
282.486567
 30
0.0
 11
284.533078
 21
280.486759
 31
0.0
  0
LINE
  5
281
100
AcDbEntity
  8
Layer_1
 62
1
100
AcDbLine
 10
284.533078
 20
280.486759
 30
0.0
 11
281.332728
 21
280.486759
 31
0.0
  0
LINE
  5
282
100
AcDbEntity
  8
Layer_1
 62
1
100
AcDbLine
 10
281.332728
 20
280.486759
 30
0.0
 11
281.332728
 21
282.486567
 31
0.0
  0
LINE
  5
283
100
AcDbEntity
  8
Layer_1
 62
1
100
AcDbLine
 10
281.332728
 20
282.486567
 30
0.0
 11
279.733097
 21
282.486567
 31
0.0
  0
LINE
  5
284
100
AcDbEntity
  8
Layer_1
 62
1
100
AcDbLine
 10
279.733097
 20
282.486567
 30
0.0
 11
279.733097
 21
285.486834
 31
0.0
  0
LINE
  5
285
100
AcDbEntity
  8
Layer_1
 62
1
100
AcDbLine
 10
279.733097
 20
285.486834
 30
0.0
 11
281.332728
 21
285.486834
 31
0.0
  0
LINE
  5
286
100
AcDbEntity
  8
Layer_1
 62
1
100
AcDbLine
 10
281.332728
 20
285.486834
 30
0.0
 11
281.332728
 21
288.501430
 31
0.0
  0
LINE
  5
287
100
AcDbEntity
  8
Layer_1
 62
1
100
AcDbLine
 10
281.332728
 20
288.501430
 30
0.0
 11
261.522049
 21
288.501430
 31
0.0
  0
LINE
  5
288
100
AcDbEntity
  8
Layer_1
 62
1
100
AcDbLine
 10
261.522049
 20
288.501430
 30
0.0
 11
261.522049
 21
291.684698
 31
0.0
  0
LINE
  5
289
100
AcDbEntity
  8
Layer_1
 62
1
100
AcDbLine
 10
261.522049
 20
291.684698
 30
0.0
 11
251.521897
 21
291.684698
 31
0.0
  0
LINE
  5
28a
100
AcDbEntity
  8
Layer_1
 62
1
100
AcDbLine
 10
251.521897
 20
291.684698
 30
0.0
 11
251.521897
 21
288.501430
 31
0.0
  0
LINE
  5
28b
100
AcDbEntity
  8
Layer_1
 62
1
100
AcDbLine
 10
251.521897
 20
288.501430
 30
0.0
 11
243.347928
 21
288.491297
 31
0.0
  0
LINE
  5
28c
100
AcDbEntity
  8
Layer_1
 62
1
100
AcDbLine
 10
243.347928
 20
288.491299
 30
0.0
 11
243.347928
 21
121.731362
 31
0.0
  0
LINE
  5
28d
100
AcDbEntity
  8
Layer_1
 62
1
100
AcDbLine
 10
243.347928
 20
121.731362
 30
0.0
 11
254.771319
 21
121.731362
 31
0.0
  0
LINE
  5
28e
100
AcDbEntity
  8
Layer_1
 62
1
100
AcDbLine
 10
254.771319
 20
121.731362
 30
0.0
 11
254.771319
 21
124.745961
 31
0.0
  0
LINE
  5
28f
100
AcDbEntity
  8
Layer_1
 62
1
100
AcDbLine
 10
254.771319
 20
124.745961
 30
0.0
 11
253.171687
 21
124.745961
 31
0.0
  0
LINE
  5
290
100
AcDbEntity
  8
Layer_1
 62
1
100
AcDbLine
 10
253.171687
 20
124.745961
 30
0.0
 11
253.171687
 21
127.746232
 31
0.0
  0
LINE
  5
291
100
AcDbEntity
  8
Layer_1
 62
3
100
AcDbLine
 10
253.171687
 20
127.746232
 30
0.0
 11
254.771319
 21
127.746232
 31
0.0
  0
LINE
  5
292
100
AcDbEntity
  8
Layer_1
 62
3
100
AcDbLine
 10
254.771319
 20
127.746232
 30
0.0
 11
254.771319
 21
129.746041
 31
0.0
  0
LINE
  5
293
100
AcDbEntity
  8
Layer_1
 62
3
100
AcDbLine
 10
254.771319
 20
129.746041
 30
0.0
 11
257.971668
 21
129.746041
 31
0.0
  0
LINE
  5
294
100
AcDbEntity
  8
Layer_1
 62
3
100
AcDbLine
 10
257.971668
 20
129.746041
 30
0.0
 11
257.971668
 21
127.746232
 31
0.0
  0
LINE
  5
295
100
AcDbEntity
  8
Layer_1
 62
3
100
AcDbLine
 10
257.971668
 20
127.746232
 30
0.0
 11
259.571297
 21
127.746232
 31
0.0
  0
LINE
  5
296
100
AcDbEntity
  8
Layer_1
 62
1
100
AcDbLine
 10
259.571297
 20
127.746232
 30
0.0
 11
259.571297
 21
124.745961
 31
0.0
  0
LINE
  5
297
100
AcDbEntity
  8
Layer_1
 62
1
100
AcDbLine
 10
259.571297
 20
124.745961
 30
0.0
 11
257.971668
 21
124.745961
 31
0.0
  0
LINE
  5
298
100
AcDbEntity
  8
Layer_1
 62
1
100
AcDbLine
 10
257.971668
 20
124.745961
 30
0.0
 11
257.971668
 21
121.731362
 31
0.0
  0
LINE
  5
299
100
AcDbEntity
  8
Layer_1
 62
1
100
AcDbLine
 10
257.971668
 20
121.731362
 30
0.0
 11
277.782348
 21
121.731362
 31
0.0
  0
LINE
  5
29a
100
AcDbEntity
  8
Layer_1
 62
1
100
AcDbLine
 10
277.782348
 20
121.731362
 30
0.0
 11
277.782348
 21
118.548101
 31
0.0
  0
LINE
  5
29b
100
AcDbEntity
  8
Layer_1
 62
1
100
AcDbLine
 10
277.782348
 20
118.548101
 30
0.0
 11
287.782497
 21
118.548101
 31
0.0
  0
LINE
  5
29c
100
AcDbEntity
  8
Layer_1
 62
1
100
AcDbLine
 10
287.782497
 20
118.548101
 30
0.0
 11
287.782497
 21
121.731362
 31
0.0
  0
LINE
  5
29d
100
AcDbEntity
  8
Layer_1
 62
1
100
AcDbLine
 10
287.782497
 20
121.731362
 30
0.0
 11
295.956469
 21
121.731362
 31
0.0
  0
LINE
  5
29e
100
AcDbEntity
  8
Layer_1
 62
1
100
AcDbLine
 10
295.956469
 20
121.731362
 30
0.0
 11
295.956469
 21
288.491297
 31
0.0
  0
LINE
  5
29f
100
AcDbEntity
  8
Layer_1
 62
1
100
AcDbLine
 10
295.956469
 20
288.491297
 30
0.0
 11
284.533078
 21
288.501430
 31
0.0
  0
SPLINE
  5
2a0
100
AcDbEntity
  8
Layer_1
 62
5
100
AcDbSpline
 70
8
 71
3
 72
8
 73
4
 74
0
 40
0
 40
0
 40
0
 40
0
 40
1
 40
1
 40
1
 40
1
 10
151.382752
 20
101.988751
 30
0.0
 10
152.213752
 20
101.988751
 30
0.0
 10
152.882751
 20
100.650750
 30
0.0
 10
152.882751
 20
98.988754
 30
0.0
  0
LINE
  5
2a1
100
AcDbEntity
  8
Layer_1
 62
5
100
AcDbLine
 10
152.882751
 20
98.988754
 30
0.0
 11
152.882751
 21
29.725648
 31
0.0
  0
SPLINE
  5
2a2
100
AcDbEntity
  8
Layer_1
 62
5
100
AcDbSpline
 70
8
 71
3
 72
8
 73
4
 74
0
 40
0
 40
0
 40
0
 40
0
 40
1
 40
1
 40
1
 40
1
 10
152.882751
 20
29.725648
 30
0.0
 10
152.882751
 20
28.063649
 30
0.0
 10
152.213752
 20
26.725649
 30
0.0
 10
151.382752
 20
26.725649
 30
0.0
  0
SPLINE
  5
2a3
100
AcDbEntity
  8
Layer_1
 62
5
100
AcDbSpline
 70
8
 71
3
 72
8
 73
4
 74
0
 40
0
 40
0
 40
0
 40
0
 40
1
 40
1
 40
1
 40
1
 10
151.382752
 20
26.725649
 30
0.0
 10
150.551751
 20
26.725649
 30
0.0
 10
149.882752
 20
28.063649
 30
0.0
 10
149.882752
 20
29.725648
 30
0.0
  0
LINE
  5
2a4
100
AcDbEntity
  8
Layer_1
 62
5
100
AcDbLine
 10
149.882752
 20
29.725648
 30
0.0
 11
149.882752
 21
98.988754
 31
0.0
  0
SPLINE
  5
2a5
100
AcDbEntity
  8
Layer_1
 62
5
100
AcDbSpline
 70
8
 71
3
 72
8
 73
4
 74
0
 40
0
 40
0
 40
0
 40
0
 40
1
 40
1
 40
1
 40
1
 10
149.882752
 20
98.988754
 30
0.0
 10
149.882752
 20
100.650750
 30
0.0
 10
150.551751
 20
101.988751
 30
0.0
 10
151.382752
 20
101.988751
 30
0.0
  0
LINE
  5
2a6
100
AcDbEntity
  8
Layer_1
 62
5
100
AcDbLine
 10
151.382752
 20
101.988751
 30
0.0
 11
151.382752
 21
101.988751
 31
0.0
  0
LINE
  5
2a7
100
AcDbEntity
  8
Layer_1
 62
3
100
AcDbLine
 10
130.522851
 20
25.141189
 30
0.0
 11
172.987740
 21
25.141189
 31
0.0
  0
SPLINE
  5
2a8
100
AcDbEntity
  8
Layer_1
 62
3
100
AcDbSpline
 70
8
 71
3
 72
8
 73
4
 74
0
 40
0
 40
0
 40
0
 40
0
 40
1
 40
1
 40
1
 40
1
 10
172.987740
 20
25.141189
 30
0.0
 10
174.649742
 20
25.141189
 30
0.0
 10
175.987742
 20
23.803199
 30
0.0
 10
175.987742
 20
22.141200
 30
0.0
  0
LINE
  5
2a9
100
AcDbEntity
  8
Layer_1
 62
3
100
AcDbLine
 10
175.987742
 20
22.141200
 30
0.0
 11
175.987742
 21
-45.411391
 31
0.0
  0
SPLINE
  5
2aa
100
AcDbEntity
  8
Layer_1
 62
5
100
AcDbSpline
 70
8
 71
3
 72
8
 73
4
 74
0
 40
0
 40
0
 40
0
 40
0
 40
1
 40
1
 40
1
 40
1
 10
175.987742
 20
-45.411391
 30
0.0
 10
175.987742
 20
-47.073382
 30
0.0
 10
174.649742
 20
-48.411380
 30
0.0
 10
172.987740
 20
-48.411380
 30
0.0
  0
LINE
  5
2ab
100
AcDbEntity
  8
Layer_1
 62
3
100
AcDbLine
 10
172.987740
 20
-48.411380
 30
0.0
 11
130.522851
 21
-48.411380
 31
0.0
  0
SPLINE
  5
2ac
100
AcDbEntity
  8
Layer_1
 62
5
100
AcDbSpline
 70
8
 71
3
 72
8
 73
4
 74
0
 40
0
 40
0
 40
0
 40
0
 40
1
 40
1
 40
1
 40
1
 10
130.522851
 20
-48.411380
 30
0.0
 10
128.860860
 20
-48.411380
 30
0.0
 10
127.522862
 20
-47.073382
 30
0.0
 10
127.522862
 20
-45.411391
 30
0.0
  0
LINE
  5
2ad
100
AcDbEntity
  8
Layer_1
 62
3
100
AcDbLine
 10
127.522862
 20
-45.411391
 30
0.0
 11
127.522862
 21
22.141200
 31
0.0
  0
SPLINE
  5
2ae
100
AcDbEntity
  8
Layer_1
 62
3
100
AcDbSpline
 70
8
 71
3
 72
8
 73
4
 74
0
 40
0
 40
0
 40
0
 40
0
 40
1
 40
1
 40
1
 40
1
 10
127.522862
 20
22.141200
 30
0.0
 10
127.522862
 20
23.803199
 30
0.0
 10
128.860860
 20
25.141189
 30
0.0
 10
130.522851
 20
25.141189
 30
0.0
  0
LINE
  5
2af
100
AcDbEntity
  8
Layer_1
 62
3
100
AcDbLine
 10
130.522851
 20
25.141189
 30
0.0
 11
130.522851
 21
25.141189
 31
0.0
  0
LINE
  5
2b0
100
AcDbEntity
  8
Layer_1
 62
1
100
AcDbLine
 10
166.263521
 20
108.968967
 30
0.0
 11
166.263521
 21
105.954371
 31
0.0
  0
LINE
  5
2b1
100
AcDbEntity
  8
Layer_1
 62
1
100
AcDbLine
 10
166.263521
 20
105.954371
 30
0.0
 11
167.863150
 21
105.954371
 31
0.0
  0
LINE
  5
2b2
100
AcDbEntity
  8
Layer_1
 62
1
100
AcDbLine
 10
167.863150
 20
105.954371
 30
0.0
 11
167.863150
 21
102.954104
 31
0.0
  0
LINE
  5
2b3
100
AcDbEntity
  8
Layer_1
 62
1
100
AcDbLine
 10
167.863150
 20
102.954104
 30
0.0
 11
166.263521
 21
102.954104
 31
0.0
  0
LINE
  5
2b4
100
AcDbEntity
  8
Layer_1
 62
1
100
AcDbLine
 10
166.263521
 20
102.954104
 30
0.0
 11
166.263521
 21
100.954296
 31
0.0
  0
LINE
  5
2b5
100
AcDbEntity
  8
Layer_1
 62
1
100
AcDbLine
 10
166.263521
 20
100.954296
 30
0.0
 11
163.063172
 21
100.954296
 31
0.0
  0
LINE
  5
2b6
100
AcDbEntity
  8
Layer_1
 62
1
100
AcDbLine
 10
163.063172
 20
100.954296
 30
0.0
 11
163.063172
 21
102.954104
 31
0.0
  0
LINE
  5
2b7
100
AcDbEntity
  8
Layer_1
 62
1
100
AcDbLine
 10
163.063172
 20
102.954104
 30
0.0
 11
161.463541
 21
102.954104
 31
0.0
  0
LINE
  5
2b8
100
AcDbEntity
  8
Layer_1
 62
1
100
AcDbLine
 10
161.463541
 20
102.954104
 30
0.0
 11
161.463541
 21
105.954371
 31
0.0
  0
LINE
  5
2b9
100
AcDbEntity
  8
Layer_1
 62
1
100
AcDbLine
 10
161.463541
 20
105.954371
 30
0.0
 11
163.063172
 21
105.954371
 31
0.0
  0
LINE
  5
2ba
100
AcDbEntity
  8
Layer_1
 62
1
100
AcDbLine
 10
163.063172
 20
105.954371
 30
0.0
 11
163.063172
 21
108.968967
 31
0.0
  0
LINE
  5
2bb
100
AcDbEntity
  8
Layer_1
 62
1
100
AcDbLine
 10
163.063172
 20
108.968967
 30
0.0
 11
143.252492
 21
108.968967
 31
0.0
  0
LINE
  5
2bc
100
AcDbEntity
  8
Layer_1
 62
1
100
AcDbLine
 10
143.252492
 20
108.968967
 30
0.0
 11
143.252492
 21
112.152236
 31
0.0
  0
LINE
  5
2bd
100
AcDbEntity
  8
Layer_1
 62
1
100
AcDbLine
 10
143.252492
 20
112.152236
 30
0.0
 11
133.252340
 21
112.152236
 31
0.0
  0
LINE
  5
2be
100
AcDbEntity
  8
Layer_1
 62
1
100
AcDbLine
 10
133.252340
 20
112.152236
 30
0.0
 11
133.252340
 21
108.968967
 31
0.0
  0
LINE
  5
2bf
100
AcDbEntity
  8
Layer_1
 62
1
100
AcDbLine
 10
133.252340
 20
108.968967
 30
0.0
 11
125.078371
 21
108.958834
 31
0.0
  0
LINE
  5
2c0
100
AcDbEntity
  8
Layer_1
 62
1
100
AcDbLine
 10
125.078371
 20
108.958836
 30
0.0
 11
125.078371
 21
-57.801101
 31
0.0
  0
LINE
  5
2c1
100
AcDbEntity
  8
Layer_1
 62
1
100
AcDbLine
 10
125.078371
 20
-57.801101
 30
0.0
 11
136.501762
 21
-57.801101
 31
0.0
  0
LINE
  5
2c2
100
AcDbEntity
  8
Layer_1
 62
1
100
AcDbLine
 10
136.501762
 20
-57.801101
 30
0.0
 11
136.501762
 21
-54.786502
 31
0.0
  0
LINE
  5
2c3
100
AcDbEntity
  8
Layer_1
 62
1
100
AcDbLine
 10
136.501762
 20
-54.786502
 30
0.0
 11
134.902131
 21
-54.786502
 31
0.0
  0
LINE
  5
2c4
100
AcDbEntity
  8
Layer_1
 62
1
100
AcDbLine
 10
134.902131
 20
-54.786502
 30
0.0
 11
134.902131
 21
-51.786230
 31
0.0
  0
LINE
  5
2c5
100
AcDbEntity
  8
Layer_1
 62
1
100
AcDbLine
 10
134.902131
 20
-51.786230
 30
0.0
 11
136.501762
 21
-51.786230
 31
0.0
  0
LINE
  5
2c6
100
AcDbEntity
  8
Layer_1
 62
1
100
AcDbLine
 10
136.501762
 20
-51.786230
 30
0.0
 11
136.501762
 21
-49.786422
 31
0.0
  0
LINE
  5
2c7
100
AcDbEntity
  8
Layer_1
 62
1
100
AcDbLine
 10
136.501762
 20
-49.786422
 30
0.0
 11
139.702112
 21
-49.786422
 31
0.0
  0
LINE
  5
2c8
100
AcDbEntity
  8
Layer_1
 62
1
100
AcDbLine
 10
139.702112
 20
-49.786422
 30
0.0
 11
139.702112
 21
-51.786230
 31
0.0
  0
LINE
  5
2c9
100
AcDbEntity
  8
Layer_1
 62
1
100
AcDbLine
 10
139.702112
 20
-51.786230
 30
0.0
 11
141.301740
 21
-51.786230
 31
0.0
  0
LINE
  5
2ca
100
AcDbEntity
  8
Layer_1
 62
1
100
AcDbLine
 10
141.301740
 20
-51.786230
 30
0.0
 11
141.301740
 21
-54.786502
 31
0.0
  0
LINE
  5
2cb
100
AcDbEntity
  8
Layer_1
 62
1
100
AcDbLine
 10
141.301740
 20
-54.786502
 30
0.0
 11
139.702112
 21
-54.786502
 31
0.0
  0
LINE
  5
2cc
100
AcDbEntity
  8
Layer_1
 62
1
100
AcDbLine
 10
139.702112
 20
-54.786502
 30
0.0
 11
139.702112
 21
-57.801101
 31
0.0
  0
LINE
  5
2cd
100
AcDbEntity
  8
Layer_1
 62
1
100
AcDbLine
 10
139.702112
 20
-57.801101
 30
0.0
 11
159.512791
 21
-57.801101
 31
0.0
  0
LINE
  5
2ce
100
AcDbEntity
  8
Layer_1
 62
1
100
AcDbLine
 10
159.512791
 20
-57.801101
 30
0.0
 11
159.512791
 21
-60.984361
 31
0.0
  0
LINE
  5
2cf
100
AcDbEntity
  8
Layer_1
 62
1
100
AcDbLine
 10
159.512791
 20
-60.984361
 30
0.0
 11
169.512941
 21
-60.984361
 31
0.0
  0
LINE
  5
2d0
100
AcDbEntity
  8
Layer_1
 62
1
100
AcDbLine
 10
169.512941
 20
-60.984361
 30
0.0
 11
169.512941
 21
-57.801101
 31
0.0
  0
LINE
  5
2d1
100
AcDbEntity
  8
Layer_1
 62
1
100
AcDbLine
 10
169.512941
 20
-57.801101
 30
0.0
 11
177.686912
 21
-57.801101
 31
0.0
  0
LINE
  5
2d2
100
AcDbEntity
  8
Layer_1
 62
1
100
AcDbLine
 10
177.686912
 20
-57.801101
 30
0.0
 11
177.686912
 21
108.958834
 31
0.0
  0
LINE
  5
2d3
100
AcDbEntity
  8
Layer_1
 62
1
100
AcDbLine
 10
177.686912
 20
108.958834
 30
0.0
 11
166.263521
 21
108.968967
 31
0.0
  0
SPLINE
  5
2d4
100
AcDbEntity
  8
Layer_1
 62
5
100
AcDbSpline
 70
8
 71
3
 72
8
 73
4
 74
0
 40
0
 40
0
 40
0
 40
0
 40
1
 40
1
 40
1
 40
1
 10
91.533788
 20
101.988751
 30
0.0
 10
92.364789
 20
101.988751
 30
0.0
 10
93.033788
 20
100.650750
 30
0.0
 10
93.033788
 20
98.988754
 30
0.0
  0
LINE
  5
2d5
100
AcDbEntity
  8
Layer_1
 62
5
100
AcDbLine
 10
93.033788
 20
98.988754
 30
0.0
 11
93.033788
 21
29.725648
 31
0.0
  0
SPLINE
  5
2d6
100
AcDbEntity
  8
Layer_1
 62
5
100
AcDbSpline
 70
8
 71
3
 72
8
 73
4
 74
0
 40
0
 40
0
 40
0
 40
0
 40
1
 40
1
 40
1
 40
1
 10
93.033788
 20
29.725648
 30
0.0
 10
93.033788
 20
28.063649
 30
0.0
 10
92.364789
 20
26.725649
 30
0.0
 10
91.533788
 20
26.725649
 30
0.0
  0
SPLINE
  5
2d7
100
AcDbEntity
  8
Layer_1
 62
5
100
AcDbSpline
 70
8
 71
3
 72
8
 73
4
 74
0
 40
0
 40
0
 40
0
 40
0
 40
1
 40
1
 40
1
 40
1
 10
91.533788
 20
26.725649
 30
0.0
 10
90.702787
 20
26.725649
 30
0.0
 10
90.033788
 20
28.063649
 30
0.0
 10
90.033788
 20
29.725648
 30
0.0
  0
LINE
  5
2d8
100
AcDbEntity
  8
Layer_1
 62
5
100
AcDbLine
 10
90.033788
 20
29.725648
 30
0.0
 11
90.033788
 21
98.988754
 31
0.0
  0
SPLINE
  5
2d9
100
AcDbEntity
  8
Layer_1
 62
5
100
AcDbSpline
 70
8
 71
3
 72
8
 73
4
 74
0
 40
0
 40
0
 40
0
 40
0
 40
1
 40
1
 40
1
 40
1
 10
90.033788
 20
98.988754
 30
0.0
 10
90.033788
 20
100.650750
 30
0.0
 10
90.702787
 20
101.988751
 30
0.0
 10
91.533788
 20
101.988751
 30
0.0
  0
LINE
  5
2da
100
AcDbEntity
  8
Layer_1
 62
5
100
AcDbLine
 10
91.533788
 20
101.988751
 30
0.0
 11
91.533788
 21
101.988751
 31
0.0
  0
LINE
  5
2db
100
AcDbEntity
  8
Layer_1
 62
3
100
AcDbLine
 10
70.673887
 20
25.141189
 30
0.0
 11
113.138777
 21
25.141189
 31
0.0
  0
SPLINE
  5
2dc
100
AcDbEntity
  8
Layer_1
 62
3
100
AcDbSpline
 70
8
 71
3
 72
8
 73
4
 74
0
 40
0
 40
0
 40
0
 40
0
 40
1
 40
1
 40
1
 40
1
 10
113.138777
 20
25.141189
 30
0.0
 10
114.800778
 20
25.141189
 30
0.0
 10
116.138779
 20
23.803199
 30
0.0
 10
116.138779
 20
22.141200
 30
0.0
  0
LINE
  5
2dd
100
AcDbEntity
  8
Layer_1
 62
3
100
AcDbLine
 10
116.138779
 20
22.141200
 30
0.0
 11
116.138779
 21
-45.411391
 31
0.0
  0
SPLINE
  5
2de
100
AcDbEntity
  8
Layer_1
 62
5
100
AcDbSpline
 70
8
 71
3
 72
8
 73
4
 74
0
 40
0
 40
0
 40
0
 40
0
 40
1
 40
1
 40
1
 40
1
 10
116.138779
 20
-45.411391
 30
0.0
 10
116.138779
 20
-47.073382
 30
0.0
 10
114.800778
 20
-48.411380
 30
0.0
 10
113.138777
 20
-48.411380
 30
0.0
  0
LINE
  5
2df
100
AcDbEntity
  8
Layer_1
 62
3
100
AcDbLine
 10
113.138777
 20
-48.411380
 30
0.0
 11
70.673887
 21
-48.411380
 31
0.0
  0
SPLINE
  5
2e0
100
AcDbEntity
  8
Layer_1
 62
5
100
AcDbSpline
 70
8
 71
3
 72
8
 73
4
 74
0
 40
0
 40
0
 40
0
 40
0
 40
1
 40
1
 40
1
 40
1
 10
70.673887
 20
-48.411380
 30
0.0
 10
69.011896
 20
-48.411380
 30
0.0
 10
67.673898
 20
-47.073382
 30
0.0
 10
67.673898
 20
-45.411391
 30
0.0
  0
LINE
  5
2e1
100
AcDbEntity
  8
Layer_1
 62
3
100
AcDbLine
 10
67.673898
 20
-45.411391
 30
0.0
 11
67.673898
 21
22.141200
 31
0.0
  0
SPLINE
  5
2e2
100
AcDbEntity
  8
Layer_1
 62
3
100
AcDbSpline
 70
8
 71
3
 72
8
 73
4
 74
0
 40
0
 40
0
 40
0
 40
0
 40
1
 40
1
 40
1
 40
1
 10
67.673898
 20
22.141200
 30
0.0
 10
67.673898
 20
23.803199
 30
0.0
 10
69.011896
 20
25.141189
 30
0.0
 10
70.673887
 20
25.141189
 30
0.0
  0
LINE
  5
2e3
100
AcDbEntity
  8
Layer_1
 62
3
100
AcDbLine
 10
70.673887
 20
25.141189
 30
0.0
 11
70.673887
 21
25.141189
 31
0.0
  0
LINE
  5
2e4
100
AcDbEntity
  8
Layer_1
 62
1
100
AcDbLine
 10
106.414558
 20
108.968967
 30
0.0
 11
106.414558
 21
105.954371
 31
0.0
  0
LINE
  5
2e5
100
AcDbEntity
  8
Layer_1
 62
1
100
AcDbLine
 10
106.414558
 20
105.954371
 30
0.0
 11
108.014186
 21
105.954371
 31
0.0
  0
LINE
  5
2e6
100
AcDbEntity
  8
Layer_1
 62
1
100
AcDbLine
 10
108.014186
 20
105.954371
 30
0.0
 11
108.014186
 21
102.954104
 31
0.0
  0
LINE
  5
2e7
100
AcDbEntity
  8
Layer_1
 62
1
100
AcDbLine
 10
108.014186
 20
102.954104
 30
0.0
 11
106.414558
 21
102.954104
 31
0.0
  0
LINE
  5
2e8
100
AcDbEntity
  8
Layer_1
 62
1
100
AcDbLine
 10
106.414558
 20
102.954104
 30
0.0
 11
106.414558
 21
100.954296
 31
0.0
  0
LINE
  5
2e9
100
AcDbEntity
  8
Layer_1
 62
1
100
AcDbLine
 10
106.414558
 20
100.954296
 30
0.0
 11
103.214208
 21
100.954296
 31
0.0
  0
LINE
  5
2ea
100
AcDbEntity
  8
Layer_1
 62
1
100
AcDbLine
 10
103.214208
 20
100.954296
 30
0.0
 11
103.214208
 21
102.954104
 31
0.0
  0
LINE
  5
2eb
100
AcDbEntity
  8
Layer_1
 62
1
100
AcDbLine
 10
103.214208
 20
102.954104
 30
0.0
 11
101.614577
 21
102.954104
 31
0.0
  0
LINE
  5
2ec
100
AcDbEntity
  8
Layer_1
 62
1
100
AcDbLine
 10
101.614577
 20
102.954104
 30
0.0
 11
101.614577
 21
105.954371
 31
0.0
  0
LINE
  5
2ed
100
AcDbEntity
  8
Layer_1
 62
1
100
AcDbLine
 10
101.614577
 20
105.954371
 30
0.0
 11
103.214208
 21
105.954371
 31
0.0
  0
LINE
  5
2ee
100
AcDbEntity
  8
Layer_1
 62
1
100
AcDbLine
 10
103.214208
 20
105.954371
 30
0.0
 11
103.214208
 21
108.968967
 31
0.0
  0
LINE
  5
2ef
100
AcDbEntity
  8
Layer_1
 62
1
100
AcDbLine
 10
103.214208
 20
108.968967
 30
0.0
 11
83.403528
 21
108.968967
 31
0.0
  0
LINE
  5
2f0
100
AcDbEntity
  8
Layer_1
 62
1
100
AcDbLine
 10
83.403528
 20
108.968967
 30
0.0
 11
83.403528
 21
112.152236
 31
0.0
  0
LINE
  5
2f1
100
AcDbEntity
  8
Layer_1
 62
1
100
AcDbLine
 10
83.403528
 20
112.152236
 30
0.0
 11
73.403376
 21
112.152236
 31
0.0
  0
LINE
  5
2f2
100
AcDbEntity
  8
Layer_1
 62
1
100
AcDbLine
 10
73.403376
 20
112.152236
 30
0.0
 11
73.403376
 21
108.968967
 31
0.0
  0
LINE
  5
2f3
100
AcDbEntity
  8
Layer_1
 62
1
100
AcDbLine
 10
73.403376
 20
108.968967
 30
0.0
 11
65.229408
 21
108.958834
 31
0.0
  0
LINE
  5
2f4
100
AcDbEntity
  8
Layer_1
 62
1
100
AcDbLine
 10
65.229408
 20
108.958836
 30
0.0
 11
65.229408
 21
-57.801101
 31
0.0
  0
LINE
  5
2f5
100
AcDbEntity
  8
Layer_1
 62
1
100
AcDbLine
 10
65.229408
 20
-57.801101
 30
0.0
 11
76.652798
 21
-57.801101
 31
0.0
  0
LINE
  5
2f6
100
AcDbEntity
  8
Layer_1
 62
1
100
AcDbLine
 10
76.652798
 20
-57.801101
 30
0.0
 11
76.652798
 21
-54.786502
 31
0.0
  0
LINE
  5
2f7
100
AcDbEntity
  8
Layer_1
 62
1
100
AcDbLine
 10
76.652798
 20
-54.786502
 30
0.0
 11
75.053167
 21
-54.786502
 31
0.0
  0
LINE
  5
2f8
100
AcDbEntity
  8
Layer_1
 62
1
100
AcDbLine
 10
75.053167
 20
-54.786502
 30
0.0
 11
75.053167
 21
-51.786230
 31
0.0
  0
LINE
  5
2f9
100
AcDbEntity
  8
Layer_1
 62
1
100
AcDbLine
 10
75.053167
 20
-51.786230
 30
0.0
 11
76.652798
 21
-51.786230
 31
0.0
  0
LINE
  5
2fa
100
AcDbEntity
  8
Layer_1
 62
1
100
AcDbLine
 10
76.652798
 20
-51.786230
 30
0.0
 11
76.652798
 21
-49.786422
 31
0.0
  0
LINE
  5
2fb
100
AcDbEntity
  8
Layer_1
 62
1
100
AcDbLine
 10
76.652798
 20
-49.786422
 30
0.0
 11
79.853148
 21
-49.786422
 31
0.0
  0
LINE
  5
2fc
100
AcDbEntity
  8
Layer_1
 62
1
100
AcDbLine
 10
79.853148
 20
-49.786422
 30
0.0
 11
79.853148
 21
-51.786230
 31
0.0
  0
LINE
  5
2fd
100
AcDbEntity
  8
Layer_1
 62
1
100
AcDbLine
 10
79.853148
 20
-51.786230
 30
0.0
 11
81.452777
 21
-51.786230
 31
0.0
  0
LINE
  5
2fe
100
AcDbEntity
  8
Layer_1
 62
1
100
AcDbLine
 10
81.452777
 20
-51.786230
 30
0.0
 11
81.452777
 21
-54.786502
 31
0.0
  0
LINE
  5
2ff
100
AcDbEntity
  8
Layer_1
 62
1
100
AcDbLine
 10
81.452777
 20
-54.786502
 30
0.0
 11
79.853148
 21
-54.786502
 31
0.0
  0
LINE
  5
300
100
AcDbEntity
  8
Layer_1
 62
1
100
AcDbLine
 10
79.853148
 20
-54.786502
 30
0.0
 11
79.853148
 21
-57.801101
 31
0.0
  0
LINE
  5
301
100
AcDbEntity
  8
Layer_1
 62
1
100
AcDbLine
 10
79.853148
 20
-57.801101
 30
0.0
 11
99.663828
 21
-57.801101
 31
0.0
  0
LINE
  5
302
100
AcDbEntity
  8
Layer_1
 62
1
100
AcDbLine
 10
99.663828
 20
-57.801101
 30
0.0
 11
99.663828
 21
-60.984361
 31
0.0
  0
LINE
  5
303
100
AcDbEntity
  8
Layer_1
 62
1
100
AcDbLine
 10
99.663828
 20
-60.984361
 30
0.0
 11
109.663977
 21
-60.984361
 31
0.0
  0
LINE
  5
304
100
AcDbEntity
  8
Layer_1
 62
1
100
AcDbLine
 10
109.663977
 20
-60.984361
 30
0.0
 11
109.663977
 21
-57.801101
 31
0.0
  0
LINE
  5
305
100
AcDbEntity
  8
Layer_1
 62
1
100
AcDbLine
 10
109.663977
 20
-57.801101
 30
0.0
 11
117.837949
 21
-57.801101
 31
0.0
  0
LINE
  5
306
100
AcDbEntity
  8
Layer_1
 62
1
100
AcDbLine
 10
117.837949
 20
-57.801101
 30
0.0
 11
117.837949
 21
108.958834
 31
0.0
  0
LINE
  5
307
100
AcDbEntity
  8
Layer_1
 62
1
100
AcDbLine
 10
117.837949
 20
108.958834
 30
0.0
 11
106.414558
 21
108.968967
 31
0.0
  0
SPLINE
  5
308
100
AcDbEntity
  8
Layer_1
 62
5
100
AcDbSpline
 70
8
 71
3
 72
8
 73
4
 74
0
 40
0
 40
0
 40
0
 40
0
 40
1
 40
1
 40
1
 40
1
 10
211.231701
 20
101.988751
 30
0.0
 10
212.062701
 20
101.988751
 30
0.0
 10
212.731700
 20
100.650750
 30
0.0
 10
212.731700
 20
98.988754
 30
0.0
  0
LINE
  5
309
100
AcDbEntity
  8
Layer_1
 62
5
100
AcDbLine
 10
212.731700
 20
98.988754
 30
0.0
 11
212.731700
 21
29.725648
 31
0.0
  0
SPLINE
  5
30a
100
AcDbEntity
  8
Layer_1
 62
5
100
AcDbSpline
 70
8
 71
3
 72
8
 73
4
 74
0
 40
0
 40
0
 40
0
 40
0
 40
1
 40
1
 40
1
 40
1
 10
212.731700
 20
29.725648
 30
0.0
 10
212.731700
 20
28.063649
 30
0.0
 10
212.062701
 20
26.725649
 30
0.0
 10
211.231701
 20
26.725649
 30
0.0
  0
SPLINE
  5
30b
100
AcDbEntity
  8
Layer_1
 62
5
100
AcDbSpline
 70
8
 71
3
 72
8
 73
4
 74
0
 40
0
 40
0
 40
0
 40
0
 40
1
 40
1
 40
1
 40
1
 10
211.231701
 20
26.725649
 30
0.0
 10
210.400700
 20
26.725649
 30
0.0
 10
209.731701
 20
28.063649
 30
0.0
 10
209.731701
 20
29.725648
 30
0.0
  0
LINE
  5
30c
100
AcDbEntity
  8
Layer_1
 62
5
100
AcDbLine
 10
209.731701
 20
29.725648
 30
0.0
 11
209.731701
 21
98.988754
 31
0.0
  0
SPLINE
  5
30d
100
AcDbEntity
  8
Layer_1
 62
5
100
AcDbSpline
 70
8
 71
3
 72
8
 73
4
 74
0
 40
0
 40
0
 40
0
 40
0
 40
1
 40
1
 40
1
 40
1
 10
209.731701
 20
98.988754
 30
0.0
 10
209.731701
 20
100.650750
 30
0.0
 10
210.400700
 20
101.988751
 30
0.0
 10
211.231701
 20
101.988751
 30
0.0
  0
LINE
  5
30e
100
AcDbEntity
  8
Layer_1
 62
5
100
AcDbLine
 10
211.231701
 20
101.988751
 30
0.0
 11
211.231701
 21
101.988751
 31
0.0
  0
LINE
  5
30f
100
AcDbEntity
  8
Layer_1
 62
3
100
AcDbLine
 10
190.371800
 20
25.141189
 30
0.0
 11
232.836689
 21
25.141189
 31
0.0
  0
SPLINE
  5
310
100
AcDbEntity
  8
Layer_1
 62
3
100
AcDbSpline
 70
8
 71
3
 72
8
 73
4
 74
0
 40
0
 40
0
 40
0
 40
0
 40
1
 40
1
 40
1
 40
1
 10
232.836689
 20
25.141189
 30
0.0
 10
234.498691
 20
25.141189
 30
0.0
 10
235.836691
 20
23.803199
 30
0.0
 10
235.836691
 20
22.141200
 30
0.0
  0
LINE
  5
311
100
AcDbEntity
  8
Layer_1
 62
3
100
AcDbLine
 10
235.836691
 20
22.141200
 30
0.0
 11
235.836691
 21
-45.411391
 31
0.0
  0
SPLINE
  5
312
100
AcDbEntity
  8
Layer_1
 62
5
100
AcDbSpline
 70
8
 71
3
 72
8
 73
4
 74
0
 40
0
 40
0
 40
0
 40
0
 40
1
 40
1
 40
1
 40
1
 10
235.836691
 20
-45.411391
 30
0.0
 10
235.836691
 20
-47.073382
 30
0.0
 10
234.498691
 20
-48.411380
 30
0.0
 10
232.836689
 20
-48.411380
 30
0.0
  0
LINE
  5
313
100
AcDbEntity
  8
Layer_1
 62
3
100
AcDbLine
 10
232.836689
 20
-48.411380
 30
0.0
 11
190.371800
 21
-48.411380
 31
0.0
  0
SPLINE
  5
314
100
AcDbEntity
  8
Layer_1
 62
5
100
AcDbSpline
 70
8
 71
3
 72
8
 73
4
 74
0
 40
0
 40
0
 40
0
 40
0
 40
1
 40
1
 40
1
 40
1
 10
190.371800
 20
-48.411380
 30
0.0
 10
188.709809
 20
-48.411380
 30
0.0
 10
187.371811
 20
-47.073382
 30
0.0
 10
187.371811
 20
-45.411391
 30
0.0
  0
LINE
  5
315
100
AcDbEntity
  8
Layer_1
 62
3
100
AcDbLine
 10
187.371811
 20
-45.411391
 30
0.0
 11
187.371811
 21
22.141200
 31
0.0
  0
SPLINE
  5
316
100
AcDbEntity
  8
Layer_1
 62
3
100
AcDbSpline
 70
8
 71
3
 72
8
 73
4
 74
0
 40
0
 40
0
 40
0
 40
0
 40
1
 40
1
 40
1
 40
1
 10
187.371811
 20
22.141200
 30
0.0
 10
187.371811
 20
23.803199
 30
0.0
 10
188.709809
 20
25.141189
 30
0.0
 10
190.371800
 20
25.141189
 30
0.0
  0
LINE
  5
317
100
AcDbEntity
  8
Layer_1
 62
3
100
AcDbLine
 10
190.371800
 20
25.141189
 30
0.0
 11
190.371800
 21
25.141189
 31
0.0
  0
LINE
  5
318
100
AcDbEntity
  8
Layer_1
 62
1
100
AcDbLine
 10
226.112471
 20
108.968967
 30
0.0
 11
226.112471
 21
105.954371
 31
0.0
  0
LINE
  5
319
100
AcDbEntity
  8
Layer_1
 62
1
100
AcDbLine
 10
226.112471
 20
105.954371
 30
0.0
 11
227.712099
 21
105.954371
 31
0.0
  0
LINE
  5
31a
100
AcDbEntity
  8
Layer_1
 62
1
100
AcDbLine
 10
227.712099
 20
105.954371
 30
0.0
 11
227.712099
 21
102.954104
 31
0.0
  0
LINE
  5
31b
100
AcDbEntity
  8
Layer_1
 62
1
100
AcDbLine
 10
227.712099
 20
102.954104
 30
0.0
 11
226.112471
 21
102.954104
 31
0.0
  0
LINE
  5
31c
100
AcDbEntity
  8
Layer_1
 62
1
100
AcDbLine
 10
226.112471
 20
102.954104
 30
0.0
 11
226.112471
 21
100.954296
 31
0.0
  0
LINE
  5
31d
100
AcDbEntity
  8
Layer_1
 62
1
100
AcDbLine
 10
226.112471
 20
100.954296
 30
0.0
 11
222.912121
 21
100.954296
 31
0.0
  0
LINE
  5
31e
100
AcDbEntity
  8
Layer_1
 62
1
100
AcDbLine
 10
222.912121
 20
100.954296
 30
0.0
 11
222.912121
 21
102.954104
 31
0.0
  0
LINE
  5
31f
100
AcDbEntity
  8
Layer_1
 62
1
100
AcDbLine
 10
222.912121
 20
102.954104
 30
0.0
 11
221.312490
 21
102.954104
 31
0.0
  0
LINE
  5
320
100
AcDbEntity
  8
Layer_1
 62
1
100
AcDbLine
 10
221.312490
 20
102.954104
 30
0.0
 11
221.312490
 21
105.954371
 31
0.0
  0
LINE
  5
321
100
AcDbEntity
  8
Layer_1
 62
1
100
AcDbLine
 10
221.312490
 20
105.954371
 30
0.0
 11
222.912121
 21
105.954371
 31
0.0
  0
LINE
  5
322
100
AcDbEntity
  8
Layer_1
 62
1
100
AcDbLine
 10
222.912121
 20
105.954371
 30
0.0
 11
222.912121
 21
108.968967
 31
0.0
  0
LINE
  5
323
100
AcDbEntity
  8
Layer_1
 62
1
100
AcDbLine
 10
222.912121
 20
108.968967
 30
0.0
 11
203.101441
 21
108.968967
 31
0.0
  0
LINE
  5
324
100
AcDbEntity
  8
Layer_1
 62
1
100
AcDbLine
 10
203.101441
 20
108.968967
 30
0.0
 11
203.101441
 21
112.152236
 31
0.0
  0
LINE
  5
325
100
AcDbEntity
  8
Layer_1
 62
1
100
AcDbLine
 10
203.101441
 20
112.152236
 30
0.0
 11
193.101289
 21
112.152236
 31
0.0
  0
LINE
  5
326
100
AcDbEntity
  8
Layer_1
 62
1
100
AcDbLine
 10
193.101289
 20
112.152236
 30
0.0
 11
193.101289
 21
108.968967
 31
0.0
  0
LINE
  5
327
100
AcDbEntity
  8
Layer_1
 62
1
100
AcDbLine
 10
193.101289
 20
108.968967
 30
0.0
 11
184.927321
 21
108.958834
 31
0.0
  0
LINE
  5
328
100
AcDbEntity
  8
Layer_1
 62
1
100
AcDbLine
 10
184.927321
 20
108.958836
 30
0.0
 11
184.927321
 21
-57.801101
 31
0.0
  0
LINE
  5
329
100
AcDbEntity
  8
Layer_1
 62
1
100
AcDbLine
 10
184.927321
 20
-57.801101
 30
0.0
 11
196.350711
 21
-57.801101
 31
0.0
  0
LINE
  5
32a
100
AcDbEntity
  8
Layer_1
 62
1
100
AcDbLine
 10
196.350711
 20
-57.801101
 30
0.0
 11
196.350711
 21
-54.786502
 31
0.0
  0
LINE
  5
32b
100
AcDbEntity
  8
Layer_1
 62
1
100
AcDbLine
 10
196.350711
 20
-54.786502
 30
0.0
 11
194.751080
 21
-54.786502
 31
0.0
  0
LINE
  5
32c
100
AcDbEntity
  8
Layer_1
 62
1
100
AcDbLine
 10
194.751080
 20
-54.786502
 30
0.0
 11
194.751080
 21
-51.786230
 31
0.0
  0
LINE
  5
32d
100
AcDbEntity
  8
Layer_1
 62
1
100
AcDbLine
 10
194.751080
 20
-51.786230
 30
0.0
 11
196.350711
 21
-51.786230
 31
0.0
  0
LINE
  5
32e
100
AcDbEntity
  8
Layer_1
 62
1
100
AcDbLine
 10
196.350711
 20
-51.786230
 30
0.0
 11
196.350711
 21
-49.786422
 31
0.0
  0
LINE
  5
32f
100
AcDbEntity
  8
Layer_1
 62
1
100
AcDbLine
 10
196.350711
 20
-49.786422
 30
0.0
 11
199.551061
 21
-49.786422
 31
0.0
  0
LINE
  5
330
100
AcDbEntity
  8
Layer_1
 62
1
100
AcDbLine
 10
199.551061
 20
-49.786422
 30
0.0
 11
199.551061
 21
-51.786230
 31
0.0
  0
LINE
  5
331
100
AcDbEntity
  8
Layer_1
 62
1
100
AcDbLine
 10
199.551061
 20
-51.786230
 30
0.0
 11
201.150689
 21
-51.786230
 31
0.0
  0
LINE
  5
332
100
AcDbEntity
  8
Layer_1
 62
1
100
AcDbLine
 10
201.150689
 20
-51.786230
 30
0.0
 11
201.150689
 21
-54.786502
 31
0.0
  0
LINE
  5
333
100
AcDbEntity
  8
Layer_1
 62
1
100
AcDbLine
 10
201.150689
 20
-54.786502
 30
0.0
 11
199.551061
 21
-54.786502
 31
0.0
  0
LINE
  5
334
100
AcDbEntity
  8
Layer_1
 62
1
100
AcDbLine
 10
199.551061
 20
-54.786502
 30
0.0
 11
199.551061
 21
-57.801101
 31
0.0
  0
LINE
  5
335
100
AcDbEntity
  8
Layer_1
 62
1
100
AcDbLine
 10
199.551061
 20
-57.801101
 30
0.0
 11
219.361741
 21
-57.801101
 31
0.0
  0
LINE
  5
336
100
AcDbEntity
  8
Layer_1
 62
1
100
AcDbLine
 10
219.361741
 20
-57.801101
 30
0.0
 11
219.361741
 21
-60.984361
 31
0.0
  0
LINE
  5
337
100
AcDbEntity
  8
Layer_1
 62
1
100
AcDbLine
 10
219.361741
 20
-60.984361
 30
0.0
 11
229.361890
 21
-60.984361
 31
0.0
  0
LINE
  5
338
100
AcDbEntity
  8
Layer_1
 62
1
100
AcDbLine
 10
229.361890
 20
-60.984361
 30
0.0
 11
229.361890
 21
-57.801101
 31
0.0
  0
LINE
  5
339
100
AcDbEntity
  8
Layer_1
 62
1
100
AcDbLine
 10
229.361890
 20
-57.801101
 30
0.0
 11
237.535861
 21
-57.801101
 31
0.0
  0
LINE
  5
33a
100
AcDbEntity
  8
Layer_1
 62
1
100
AcDbLine
 10
237.535861
 20
-57.801101
 30
0.0
 11
237.535861
 21
108.958834
 31
0.0
  0
LINE
  5
33b
100
AcDbEntity
  8
Layer_1
 62
1
100
AcDbLine
 10
237.535861
 20
108.958834
 30
0.0
 11
226.112471
 21
108.968967
 31
0.0
  0
SPLINE
  5
33c
100
AcDbEntity
  8
Layer_1
 62
5
100
AcDbSpline
 70
8
 71
3
 72
8
 73
4
 74
0
 40
0
 40
0
 40
0
 40
0
 40
1
 40
1
 40
1
 40
1
 10
31.684832
 20
101.988751
 30
0.0
 10
32.515832
 20
101.988751
 30
0.0
 10
33.184831
 20
100.650750
 30
0.0
 10
33.184831
 20
98.988754
 30
0.0
  0
LINE
  5
33d
100
AcDbEntity
  8
Layer_1
 62
5
100
AcDbLine
 10
33.184831
 20
98.988754
 30
0.0
 11
33.184831
 21
29.725648
 31
0.0
  0
SPLINE
  5
33e
100
AcDbEntity
  8
Layer_1
 62
5
100
AcDbSpline
 70
8
 71
3
 72
8
 73
4
 74
0
 40
0
 40
0
 40
0
 40
0
 40
1
 40
1
 40
1
 40
1
 10
33.184831
 20
29.725648
 30
0.0
 10
33.184831
 20
28.063649
 30
0.0
 10
32.515832
 20
26.725649
 30
0.0
 10
31.684832
 20
26.725649
 30
0.0
  0
SPLINE
  5
33f
100
AcDbEntity
  8
Layer_1
 62
5
100
AcDbSpline
 70
8
 71
3
 72
8
 73
4
 74
0
 40
0
 40
0
 40
0
 40
0
 40
1
 40
1
 40
1
 40
1
 10
31.684832
 20
26.725649
 30
0.0
 10
30.853831
 20
26.725649
 30
0.0
 10
30.184832
 20
28.063649
 30
0.0
 10
30.184832
 20
29.725648
 30
0.0
  0
LINE
  5
340
100
AcDbEntity
  8
Layer_1
 62
5
100
AcDbLine
 10
30.184832
 20
29.725648
 30
0.0
 11
30.184832
 21
98.988754
 31
0.0
  0
SPLINE
  5
341
100
AcDbEntity
  8
Layer_1
 62
5
100
AcDbSpline
 70
8
 71
3
 72
8
 73
4
 74
0
 40
0
 40
0
 40
0
 40
0
 40
1
 40
1
 40
1
 40
1
 10
30.184832
 20
98.988754
 30
0.0
 10
30.184832
 20
100.650750
 30
0.0
 10
30.853831
 20
101.988751
 30
0.0
 10
31.684832
 20
101.988751
 30
0.0
  0
LINE
  5
342
100
AcDbEntity
  8
Layer_1
 62
5
100
AcDbLine
 10
31.684832
 20
101.988751
 30
0.0
 11
31.684832
 21
101.988751
 31
0.0
  0
LINE
  5
343
100
AcDbEntity
  8
Layer_1
 62
3
100
AcDbLine
 10
10.824931
 20
25.141189
 30
0.0
 11
53.289820
 21
25.141189
 31
0.0
  0
SPLINE
  5
344
100
AcDbEntity
  8
Layer_1
 62
3
100
AcDbSpline
 70
8
 71
3
 72
8
 73
4
 74
0
 40
0
 40
0
 40
0
 40
0
 40
1
 40
1
 40
1
 40
1
 10
53.289820
 20
25.141189
 30
0.0
 10
54.951822
 20
25.141189
 30
0.0
 10
56.289822
 20
23.803199
 30
0.0
 10
56.289822
 20
22.141200
 30
0.0
  0
LINE
  5
345
100
AcDbEntity
  8
Layer_1
 62
3
100
AcDbLine
 10
56.289822
 20
22.141200
 30
0.0
 11
56.289822
 21
-45.411391
 31
0.0
  0
SPLINE
  5
346
100
AcDbEntity
  8
Layer_1
 62
5
100
AcDbSpline
 70
8
 71
3
 72
8
 73
4
 74
0
 40
0
 40
0
 40
0
 40
0
 40
1
 40
1
 40
1
 40
1
 10
56.289822
 20
-45.411391
 30
0.0
 10
56.289822
 20
-47.073382
 30
0.0
 10
54.951822
 20
-48.411380
 30
0.0
 10
53.289820
 20
-48.411380
 30
0.0
  0
LINE
  5
347
100
AcDbEntity
  8
Layer_1
 62
3
100
AcDbLine
 10
53.289820
 20
-48.411380
 30
0.0
 11
10.824931
 21
-48.411380
 31
0.0
  0
SPLINE
  5
348
100
AcDbEntity
  8
Layer_1
 62
5
100
AcDbSpline
 70
8
 71
3
 72
8
 73
4
 74
0
 40
0
 40
0
 40
0
 40
0
 40
1
 40
1
 40
1
 40
1
 10
10.824931
 20
-48.411380
 30
0.0
 10
9.162940
 20
-48.411380
 30
0.0
 10
7.824942
 20
-47.073382
 30
0.0
 10
7.824942
 20
-45.411391
 30
0.0
  0
LINE
  5
349
100
AcDbEntity
  8
Layer_1
 62
3
100
AcDbLine
 10
7.824942
 20
-45.411391
 30
0.0
 11
7.824942
 21
22.141200
 31
0.0
  0
SPLINE
  5
34a
100
AcDbEntity
  8
Layer_1
 62
3
100
AcDbSpline
 70
8
 71
3
 72
8
 73
4
 74
0
 40
0
 40
0
 40
0
 40
0
 40
1
 40
1
 40
1
 40
1
 10
7.824942
 20
22.141200
 30
0.0
 10
7.824942
 20
23.803199
 30
0.0
 10
9.162940
 20
25.141189
 30
0.0
 10
10.824931
 20
25.141189
 30
0.0
  0
LINE
  5
34b
100
AcDbEntity
  8
Layer_1
 62
3
100
AcDbLine
 10
10.824931
 20
25.141189
 30
0.0
 11
10.824931
 21
25.141189
 31
0.0
  0
LINE
  5
34c
100
AcDbEntity
  8
Layer_1
 62
1
100
AcDbLine
 10
46.565602
 20
108.968967
 30
0.0
 11
46.565602
 21
105.954371
 31
0.0
  0
LINE
  5
34d
100
AcDbEntity
  8
Layer_1
 62
1
100
AcDbLine
 10
46.565602
 20
105.954371
 30
0.0
 11
48.165230
 21
105.954371
 31
0.0
  0
LINE
  5
34e
100
AcDbEntity
  8
Layer_1
 62
1
100
AcDbLine
 10
48.165230
 20
105.954371
 30
0.0
 11
48.165230
 21
102.954104
 31
0.0
  0
LINE
  5
34f
100
AcDbEntity
  8
Layer_1
 62
1
100
AcDbLine
 10
48.165230
 20
102.954104
 30
0.0
 11
46.565602
 21
102.954104
 31
0.0
  0
LINE
  5
350
100
AcDbEntity
  8
Layer_1
 62
1
100
AcDbLine
 10
46.565602
 20
102.954104
 30
0.0
 11
46.565602
 21
100.954296
 31
0.0
  0
LINE
  5
351
100
AcDbEntity
  8
Layer_1
 62
1
100
AcDbLine
 10
46.565602
 20
100.954296
 30
0.0
 11
43.365252
 21
100.954296
 31
0.0
  0
LINE
  5
352
100
AcDbEntity
  8
Layer_1
 62
1
100
AcDbLine
 10
43.365252
 20
100.954296
 30
0.0
 11
43.365252
 21
102.954104
 31
0.0
  0
LINE
  5
353
100
AcDbEntity
  8
Layer_1
 62
1
100
AcDbLine
 10
43.365252
 20
102.954104
 30
0.0
 11
41.765621
 21
102.954104
 31
0.0
  0
LINE
  5
354
100
AcDbEntity
  8
Layer_1
 62
1
100
AcDbLine
 10
41.765621
 20
102.954104
 30
0.0
 11
41.765621
 21
105.954371
 31
0.0
  0
LINE
  5
355
100
AcDbEntity
  8
Layer_1
 62
1
100
AcDbLine
 10
41.765621
 20
105.954371
 30
0.0
 11
43.365252
 21
105.954371
 31
0.0
  0
LINE
  5
356
100
AcDbEntity
  8
Layer_1
 62
1
100
AcDbLine
 10
43.365252
 20
105.954371
 30
0.0
 11
43.365252
 21
108.968967
 31
0.0
  0
LINE
  5
357
100
AcDbEntity
  8
Layer_1
 62
1
100
AcDbLine
 10
43.365252
 20
108.968967
 30
0.0
 11
23.554572
 21
108.968967
 31
0.0
  0
LINE
  5
358
100
AcDbEntity
  8
Layer_1
 62
1
100
AcDbLine
 10
23.554572
 20
108.968967
 30
0.0
 11
23.554572
 21
112.152236
 31
0.0
  0
LINE
  5
359
100
AcDbEntity
  8
Layer_1
 62
1
100
AcDbLine
 10
23.554572
 20
112.152236
 30
0.0
 11
13.554420
 21
112.152236
 31
0.0
  0
LINE
  5
35a
100
AcDbEntity
  8
Layer_1
 62
1
100
AcDbLine
 10
13.554420
 20
112.152236
 30
0.0
 11
13.554420
 21
108.968967
 31
0.0
  0
LINE
  5
35b
100
AcDbEntity
  8
Layer_1
 62
1
100
AcDbLine
 10
13.554420
 20
108.968967
 30
0.0
 11
5.380451
 21
108.958834
 31
0.0
  0
LINE
  5
35c
100
AcDbEntity
  8
Layer_1
 62
1
100
AcDbLine
 10
5.380451
 20
108.958836
 30
0.0
 11
5.380451
 21
-57.801101
 31
0.0
  0
LINE
  5
35d
100
AcDbEntity
  8
Layer_1
 62
1
100
AcDbLine
 10
5.380451
 20
-57.801101
 30
0.0
 11
16.803842
 21
-57.801101
 31
0.0
  0
LINE
  5
35e
100
AcDbEntity
  8
Layer_1
 62
1
100
AcDbLine
 10
16.803842
 20
-57.801101
 30
0.0
 11
16.803842
 21
-54.786502
 31
0.0
  0
LINE
  5
35f
100
AcDbEntity
  8
Layer_1
 62
1
100
AcDbLine
 10
16.803842
 20
-54.786502
 30
0.0
 11
15.204211
 21
-54.786502
 31
0.0
  0
LINE
  5
360
100
AcDbEntity
  8
Layer_1
 62
1
100
AcDbLine
 10
15.204211
 20
-54.786502
 30
0.0
 11
15.204211
 21
-51.786230
 31
0.0
  0
LINE
  5
361
100
AcDbEntity
  8
Layer_1
 62
1
100
AcDbLine
 10
15.204211
 20
-51.786230
 30
0.0
 11
16.803842
 21
-51.786230
 31
0.0
  0
LINE
  5
362
100
AcDbEntity
  8
Layer_1
 62
1
100
AcDbLine
 10
16.803842
 20
-51.786230
 30
0.0
 11
16.803842
 21
-49.786422
 31
0.0
  0
LINE
  5
363
100
AcDbEntity
  8
Layer_1
 62
1
100
AcDbLine
 10
16.803842
 20
-49.786422
 30
0.0
 11
20.004192
 21
-49.786422
 31
0.0
  0
LINE
  5
364
100
AcDbEntity
  8
Layer_1
 62
1
100
AcDbLine
 10
20.004192
 20
-49.786422
 30
0.0
 11
20.004192
 21
-51.786230
 31
0.0
  0
LINE
  5
365
100
AcDbEntity
  8
Layer_1
 62
1
100
AcDbLine
 10
20.004192
 20
-51.786230
 30
0.0
 11
21.603820
 21
-51.786230
 31
0.0
  0
LINE
  5
366
100
AcDbEntity
  8
Layer_1
 62
1
100
AcDbLine
 10
21.603820
 20
-51.786230
 30
0.0
 11
21.603820
 21
-54.786502
 31
0.0
  0
LINE
  5
367
100
AcDbEntity
  8
Layer_1
 62
1
100
AcDbLine
 10
21.603820
 20
-54.786502
 30
0.0
 11
20.004192
 21
-54.786502
 31
0.0
  0
LINE
  5
368
100
AcDbEntity
  8
Layer_1
 62
1
100
AcDbLine
 10
20.004192
 20
-54.786502
 30
0.0
 11
20.004192
 21
-57.801101
 31
0.0
  0
LINE
  5
369
100
AcDbEntity
  8
Layer_1
 62
1
100
AcDbLine
 10
20.004192
 20
-57.801101
 30
0.0
 11
39.814872
 21
-57.801101
 31
0.0
  0
LINE
  5
36a
100
AcDbEntity
  8
Layer_1
 62
1
100
AcDbLine
 10
39.814872
 20
-57.801101
 30
0.0
 11
39.814872
 21
-60.984361
 31
0.0
  0
LINE
  5
36b
100
AcDbEntity
  8
Layer_1
 62
1
100
AcDbLine
 10
39.814872
 20
-60.984361
 30
0.0
 11
49.815021
 21
-60.984361
 31
0.0
  0
LINE
  5
36c
100
AcDbEntity
  8
Layer_1
 62
1
100
AcDbLine
 10
49.815021
 20
-60.984361
 30
0.0
 11
49.815021
 21
-57.801101
 31
0.0
  0
LINE
  5
36d
100
AcDbEntity
  8
Layer_1
 62
1
100
AcDbLine
 10
49.815021
 20
-57.801101
 30
0.0
 11
57.988992
 21
-57.801101
 31
0.0
  0
LINE
  5
36e
100
AcDbEntity
  8
Layer_1
 62
1
100
AcDbLine
 10
57.988992
 20
-57.801101
 30
0.0
 11
57.988992
 21
108.958834
 31
0.0
  0
LINE
  5
36f
100
AcDbEntity
  8
Layer_1
 62
1
100
AcDbLine
 10
57.988992
 20
108.958834
 30
0.0
 11
46.565602
 21
108.968967
 31
0.0
  0
SPLINE
  5
370
100
AcDbEntity
  8
Layer_1
 62
5
100
AcDbSpline
 70
8
 71
3
 72
8
 73
4
 74
0
 40
0
 40
0
 40
0
 40
0
 40
1
 40
1
 40
1
 40
1
 10
390.779170
 20
101.543815
 30
0.0
 10
391.610170
 20
101.543815
 30
0.0
 10
392.279169
 20
100.205814
 30
0.0
 10
392.279169
 20
98.543818
 30
0.0
  0
LINE
  5
371
100
AcDbEntity
  8
Layer_1
 62
5
100
AcDbLine
 10
392.279169
 20
98.543818
 30
0.0
 11
392.279169
 21
29.280711
 31
0.0
  0
SPLINE
  5
372
100
AcDbEntity
  8
Layer_1
 62
5
100
AcDbSpline
 70
8
 71
3
 72
8
 73
4
 74
0
 40
0
 40
0
 40
0
 40
0
 40
1
 40
1
 40
1
 40
1
 10
392.279169
 20
29.280711
 30
0.0
 10
392.279169
 20
27.618713
 30
0.0
 10
391.610170
 20
26.280712
 30
0.0
 10
390.779170
 20
26.280712
 30
0.0
  0
SPLINE
  5
373
100
AcDbEntity
  8
Layer_1
 62
5
100
AcDbSpline
 70
8
 71
3
 72
8
 73
4
 74
0
 40
0
 40
0
 40
0
 40
0
 40
1
 40
1
 40
1
 40
1
 10
390.779170
 20
26.280712
 30
0.0
 10
389.948169
 20
26.280712
 30
0.0
 10
389.279170
 20
27.618713
 30
0.0
 10
389.279170
 20
29.280711
 30
0.0
  0
LINE
  5
374
100
AcDbEntity
  8
Layer_1
 62
5
100
AcDbLine
 10
389.279170
 20
29.280711
 30
0.0
 11
389.279170
 21
98.543818
 31
0.0
  0
SPLINE
  5
375
100
AcDbEntity
  8
Layer_1
 62
5
100
AcDbSpline
 70
8
 71
3
 72
8
 73
4
 74
0
 40
0
 40
0
 40
0
 40
0
 40
1
 40
1
 40
1
 40
1
 10
389.279170
 20
98.543818
 30
0.0
 10
389.279170
 20
100.205814
 30
0.0
 10
389.948169
 20
101.543815
 30
0.0
 10
390.779170
 20
101.543815
 30
0.0
  0
LINE
  5
376
100
AcDbEntity
  8
Layer_1
 62
5
100
AcDbLine
 10
390.779170
 20
101.543815
 30
0.0
 11
390.779170
 21
101.543815
 31
0.0
  0
LINE
  5
377
100
AcDbEntity
  8
Layer_1
 62
3
100
AcDbLine
 10
369.919269
 20
24.696252
 30
0.0
 11
412.384158
 21
24.696252
 31
0.0
  0
SPLINE
  5
378
100
AcDbEntity
  8
Layer_1
 62
3
100
AcDbSpline
 70
8
 71
3
 72
8
 73
4
 74
0
 40
0
 40
0
 40
0
 40
0
 40
1
 40
1
 40
1
 40
1
 10
412.384158
 20
24.696252
 30
0.0
 10
414.046160
 20
24.696252
 30
0.0
 10
415.384160
 20
23.358262
 30
0.0
 10
415.384160
 20
21.696264
 30
0.0
  0
LINE
  5
379
100
AcDbEntity
  8
Layer_1
 62
3
100
AcDbLine
 10
415.384160
 20
21.696264
 30
0.0
 11
415.384160
 21
-45.856328
 31
0.0
  0
SPLINE
  5
37a
100
AcDbEntity
  8
Layer_1
 62
5
100
AcDbSpline
 70
8
 71
3
 72
8
 73
4
 74
0
 40
0
 40
0
 40
0
 40
0
 40
1
 40
1
 40
1
 40
1
 10
415.384160
 20
-45.856328
 30
0.0
 10
415.384160
 20
-47.518318
 30
0.0
 10
414.046160
 20
-48.856316
 30
0.0
 10
412.384158
 20
-48.856316
 30
0.0
  0
LINE
  5
37b
100
AcDbEntity
  8
Layer_1
 62
3
100
AcDbLine
 10
412.384158
 20
-48.856316
 30
0.0
 11
369.919269
 21
-48.856316
 31
0.0
  0
SPLINE
  5
37c
100
AcDbEntity
  8
Layer_1
 62
5
100
AcDbSpline
 70
8
 71
3
 72
8
 73
4
 74
0
 40
0
 40
0
 40
0
 40
0
 40
1
 40
1
 40
1
 40
1
 10
369.919269
 20
-48.856316
 30
0.0
 10
368.257278
 20
-48.856316
 30
0.0
 10
366.919280
 20
-47.518318
 30
0.0
 10
366.919280
 20
-45.856328
 30
0.0
  0
LINE
  5
37d
100
AcDbEntity
  8
Layer_1
 62
3
100
AcDbLine
 10
366.919280
 20
-45.856328
 30
0.0
 11
366.919280
 21
21.696264
 31
0.0
  0
SPLINE
  5
37e
100
AcDbEntity
  8
Layer_1
 62
3
100
AcDbSpline
 70
8
 71
3
 72
8
 73
4
 74
0
 40
0
 40
0
 40
0
 40
0
 40
1
 40
1
 40
1
 40
1
 10
366.919280
 20
21.696264
 30
0.0
 10
366.919280
 20
23.358262
 30
0.0
 10
368.257278
 20
24.696252
 30
0.0
 10
369.919269
 20
24.696252
 30
0.0
  0
LINE
  5
37f
100
AcDbEntity
  8
Layer_1
 62
3
100
AcDbLine
 10
369.919269
 20
24.696252
 30
0.0
 11
369.919269
 21
24.696252
 31
0.0
  0
LINE
  5
380
100
AcDbEntity
  8
Layer_1
 62
1
100
AcDbLine
 10
405.659940
 20
108.524031
 30
0.0
 11
405.659940
 21
105.509435
 31
0.0
  0
LINE
  5
381
100
AcDbEntity
  8
Layer_1
 62
1
100
AcDbLine
 10
405.659940
 20
105.509435
 30
0.0
 11
407.259568
 21
105.509435
 31
0.0
  0
LINE
  5
382
100
AcDbEntity
  8
Layer_1
 62
1
100
AcDbLine
 10
407.259568
 20
105.509435
 30
0.0
 11
407.259568
 21
102.509168
 31
0.0
  0
LINE
  5
383
100
AcDbEntity
  8
Layer_1
 62
1
100
AcDbLine
 10
407.259568
 20
102.509168
 30
0.0
 11
405.659940
 21
102.509168
 31
0.0
  0
LINE
  5
384
100
AcDbEntity
  8
Layer_1
 62
1
100
AcDbLine
 10
405.659940
 20
102.509168
 30
0.0
 11
405.659940
 21
100.509360
 31
0.0
  0
LINE
  5
385
100
AcDbEntity
  8
Layer_1
 62
1
100
AcDbLine
 10
405.659940
 20
100.509360
 30
0.0
 11
402.459590
 21
100.509360
 31
0.0
  0
LINE
  5
386
100
AcDbEntity
  8
Layer_1
 62
1
100
AcDbLine
 10
402.459590
 20
100.509360
 30
0.0
 11
402.459590
 21
102.509168
 31
0.0
  0
LINE
  5
387
100
AcDbEntity
  8
Layer_1
 62
1
100
AcDbLine
 10
402.459590
 20
102.509168
 30
0.0
 11
400.859959
 21
102.509168
 31
0.0
  0
LINE
  5
388
100
AcDbEntity
  8
Layer_1
 62
1
100
AcDbLine
 10
400.859959
 20
102.509168
 30
0.0
 11
400.859959
 21
105.509435
 31
0.0
  0
LINE
  5
389
100
AcDbEntity
  8
Layer_1
 62
1
100
AcDbLine
 10
400.859959
 20
105.509435
 30
0.0
 11
402.459590
 21
105.509435
 31
0.0
  0
LINE
  5
38a
100
AcDbEntity
  8
Layer_1
 62
1
100
AcDbLine
 10
402.459590
 20
105.509435
 30
0.0
 11
402.459590
 21
108.524031
 31
0.0
  0
LINE
  5
38b
100
AcDbEntity
  8
Layer_1
 62
1
100
AcDbLine
 10
402.459590
 20
108.524031
 30
0.0
 11
382.648910
 21
108.524031
 31
0.0
  0
LINE
  5
38c
100
AcDbEntity
  8
Layer_1
 62
1
100
AcDbLine
 10
382.648910
 20
108.524031
 30
0.0
 11
382.648910
 21
111.707299
 31
0.0
  0
LINE
  5
38d
100
AcDbEntity
  8
Layer_1
 62
1
100
AcDbLine
 10
382.648910
 20
111.707299
 30
0.0
 11
372.648758
 21
111.707299
 31
0.0
  0
LINE
  5
38e
100
AcDbEntity
  8
Layer_1
 62
1
100
AcDbLine
 10
372.648758
 20
111.707299
 30
0.0
 11
372.648758
 21
108.524031
 31
0.0
  0
LINE
  5
38f
100
AcDbEntity
  8
Layer_1
 62
1
100
AcDbLine
 10
372.648758
 20
108.524031
 30
0.0
 11
364.474789
 21
108.513897
 31
0.0
  0
LINE
  5
390
100
AcDbEntity
  8
Layer_1
 62
1
100
AcDbLine
 10
364.474789
 20
108.513900
 30
0.0
 11
364.474789
 21
-58.246038
 31
0.0
  0
LINE
  5
391
100
AcDbEntity
  8
Layer_1
 62
1
100
AcDbLine
 10
364.474789
 20
-58.246038
 30
0.0
 11
375.898180
 21
-58.246038
 31
0.0
  0
LINE
  5
392
100
AcDbEntity
  8
Layer_1
 62
1
100
AcDbLine
 10
375.898180
 20
-58.246038
 30
0.0
 11
375.898180
 21
-55.231439
 31
0.0
  0
LINE
  5
393
100
AcDbEntity
  8
Layer_1
 62
1
100
AcDbLine
 10
375.898180
 20
-55.231439
 30
0.0
 11
374.298549
 21
-55.231439
 31
0.0
  0
LINE
  5
394
100
AcDbEntity
  8
Layer_1
 62
1
100
AcDbLine
 10
374.298549
 20
-55.231439
 30
0.0
 11
374.298549
 21
-52.231167
 31
0.0
  0
LINE
  5
395
100
AcDbEntity
  8
Layer_1
 62
1
100
AcDbLine
 10
374.298549
 20
-52.231167
 30
0.0
 11
375.898180
 21
-52.231167
 31
0.0
  0
LINE
  5
396
100
AcDbEntity
  8
Layer_1
 62
1
100
AcDbLine
 10
375.898180
 20
-52.231167
 30
0.0
 11
375.898180
 21
-50.231359
 31
0.0
  0
LINE
  5
397
100
AcDbEntity
  8
Layer_1
 62
1
100
AcDbLine
 10
375.898180
 20
-50.231359
 30
0.0
 11
379.098530
 21
-50.231359
 31
0.0
  0
LINE
  5
398
100
AcDbEntity
  8
Layer_1
 62
1
100
AcDbLine
 10
379.098530
 20
-50.231359
 30
0.0
 11
379.098530
 21
-52.231167
 31
0.0
  0
LINE
  5
399
100
AcDbEntity
  8
Layer_1
 62
1
100
AcDbLine
 10
379.098530
 20
-52.231167
 30
0.0
 11
380.698158
 21
-52.231167
 31
0.0
  0
LINE
  5
39a
100
AcDbEntity
  8
Layer_1
 62
1
100
AcDbLine
 10
380.698158
 20
-52.231167
 30
0.0
 11
380.698158
 21
-55.231439
 31
0.0
  0
LINE
  5
39b
100
AcDbEntity
  8
Layer_1
 62
1
100
AcDbLine
 10
380.698158
 20
-55.231439
 30
0.0
 11
379.098530
 21
-55.231439
 31
0.0
  0
LINE
  5
39c
100
AcDbEntity
  8
Layer_1
 62
1
100
AcDbLine
 10
379.098530
 20
-55.231439
 30
0.0
 11
379.098530
 21
-58.246038
 31
0.0
  0
LINE
  5
39d
100
AcDbEntity
  8
Layer_1
 62
1
100
AcDbLine
 10
379.098530
 20
-58.246038
 30
0.0
 11
398.909210
 21
-58.246038
 31
0.0
  0
LINE
  5
39e
100
AcDbEntity
  8
Layer_1
 62
1
100
AcDbLine
 10
398.909210
 20
-58.246038
 30
0.0
 11
398.909210
 21
-61.429298
 31
0.0
  0
LINE
  5
39f
100
AcDbEntity
  8
Layer_1
 62
1
100
AcDbLine
 10
398.909210
 20
-61.429298
 30
0.0
 11
408.909359
 21
-61.429298
 31
0.0
  0
LINE
  5
3a0
100
AcDbEntity
  8
Layer_1
 62
1
100
AcDbLine
 10
408.909359
 20
-61.429298
 30
0.0
 11
408.909359
 21
-58.246038
 31
0.0
  0
LINE
  5
3a1
100
AcDbEntity
  8
Layer_1
 62
1
100
AcDbLine
 10
408.909359
 20
-58.246038
 30
0.0
 11
417.083330
 21
-58.246038
 31
0.0
  0
LINE
  5
3a2
100
AcDbEntity
  8
Layer_1
 62
1
100
AcDbLine
 10
417.083330
 20
-58.246038
 30
0.0
 11
417.083330
 21
108.513897
 31
0.0
  0
LINE
  5
3a3
100
AcDbEntity
  8
Layer_1
 62
1
100
AcDbLine
 10
417.083330
 20
108.513897
 30
0.0
 11
405.659940
 21
108.524031
 31
0.0
  0
SPLINE
  5
3a4
100
AcDbEntity
  8
Layer_1
 62
5
100
AcDbSpline
 70
8
 71
3
 72
8
 73
4
 74
0
 40
0
 40
0
 40
0
 40
0
 40
1
 40
1
 40
1
 40
1
 10
330.930206
 20
101.543815
 30
0.0
 10
331.761207
 20
101.543815
 30
0.0
 10
332.430206
 20
100.205814
 30
0.0
 10
332.430206
 20
98.543818
 30
0.0
  0
LINE
  5
3a5
100
AcDbEntity
  8
Layer_1
 62
5
100
AcDbLine
 10
332.430206
 20
98.543818
 30
0.0
 11
332.430206
 21
29.280711
 31
0.0
  0
SPLINE
  5
3a6
100
AcDbEntity
  8
Layer_1
 62
5
100
AcDbSpline
 70
8
 71
3
 72
8
 73
4
 74
0
 40
0
 40
0
 40
0
 40
0
 40
1
 40
1
 40
1
 40
1
 10
332.430206
 20
29.280711
 30
0.0
 10
332.430206
 20
27.618713
 30
0.0
 10
331.761207
 20
26.280712
 30
0.0
 10
330.930206
 20
26.280712
 30
0.0
  0
SPLINE
  5
3a7
100
AcDbEntity
  8
Layer_1
 62
5
100
AcDbSpline
 70
8
 71
3
 72
8
 73
4
 74
0
 40
0
 40
0
 40
0
 40
0
 40
1
 40
1
 40
1
 40
1
 10
330.930206
 20
26.280712
 30
0.0
 10
330.099205
 20
26.280712
 30
0.0
 10
329.430207
 20
27.618713
 30
0.0
 10
329.430207
 20
29.280711
 30
0.0
  0
LINE
  5
3a8
100
AcDbEntity
  8
Layer_1
 62
5
100
AcDbLine
 10
329.430207
 20
29.280711
 30
0.0
 11
329.430207
 21
98.543818
 31
0.0
  0
SPLINE
  5
3a9
100
AcDbEntity
  8
Layer_1
 62
5
100
AcDbSpline
 70
8
 71
3
 72
8
 73
4
 74
0
 40
0
 40
0
 40
0
 40
0
 40
1
 40
1
 40
1
 40
1
 10
329.430207
 20
98.543818
 30
0.0
 10
329.430207
 20
100.205814
 30
0.0
 10
330.099205
 20
101.543815
 30
0.0
 10
330.930206
 20
101.543815
 30
0.0
  0
LINE
  5
3aa
100
AcDbEntity
  8
Layer_1
 62
5
100
AcDbLine
 10
330.930206
 20
101.543815
 30
0.0
 11
330.930206
 21
101.543815
 31
0.0
  0
LINE
  5
3ab
100
AcDbEntity
  8
Layer_1
 62
3
100
AcDbLine
 10
310.070305
 20
24.696252
 30
0.0
 11
352.535195
 21
24.696252
 31
0.0
  0
SPLINE
  5
3ac
100
AcDbEntity
  8
Layer_1
 62
3
100
AcDbSpline
 70
8
 71
3
 72
8
 73
4
 74
0
 40
0
 40
0
 40
0
 40
0
 40
1
 40
1
 40
1
 40
1
 10
352.535195
 20
24.696252
 30
0.0
 10
354.197196
 20
24.696252
 30
0.0
 10
355.535197
 20
23.358262
 30
0.0
 10
355.535197
 20
21.696264
 30
0.0
  0
LINE
  5
3ad
100
AcDbEntity
  8
Layer_1
 62
3
100
AcDbLine
 10
355.535197
 20
21.696264
 30
0.0
 11
355.535197
 21
-45.856328
 31
0.0
  0
SPLINE
  5
3ae
100
AcDbEntity
  8
Layer_1
 62
5
100
AcDbSpline
 70
8
 71
3
 72
8
 73
4
 74
0
 40
0
 40
0
 40
0
 40
0
 40
1
 40
1
 40
1
 40
1
 10
355.535197
 20
-45.856328
 30
0.0
 10
355.535197
 20
-47.518318
 30
0.0
 10
354.197196
 20
-48.856316
 30
0.0
 10
352.535195
 20
-48.856316
 30
0.0
  0
LINE
  5
3af
100
AcDbEntity
  8
Layer_1
 62
3
100
AcDbLine
 10
352.535195
 20
-48.856316
 30
0.0
 11
310.070305
 21
-48.856316
 31
0.0
  0
SPLINE
  5
3b0
100
AcDbEntity
  8
Layer_1
 62
5
100
AcDbSpline
 70
8
 71
3
 72
8
 73
4
 74
0
 40
0
 40
0
 40
0
 40
0
 40
1
 40
1
 40
1
 40
1
 10
310.070305
 20
-48.856316
 30
0.0
 10
308.408315
 20
-48.856316
 30
0.0
 10
307.070317
 20
-47.518318
 30
0.0
 10
307.070317
 20
-45.856328
 30
0.0
  0
LINE
  5
3b1
100
AcDbEntity
  8
Layer_1
 62
3
100
AcDbLine
 10
307.070317
 20
-45.856328
 30
0.0
 11
307.070317
 21
21.696264
 31
0.0
  0
SPLINE
  5
3b2
100
AcDbEntity
  8
Layer_1
 62
3
100
AcDbSpline
 70
8
 71
3
 72
8
 73
4
 74
0
 40
0
 40
0
 40
0
 40
0
 40
1
 40
1
 40
1
 40
1
 10
307.070317
 20
21.696264
 30
0.0
 10
307.070317
 20
23.358262
 30
0.0
 10
308.408315
 20
24.696252
 30
0.0
 10
310.070305
 20
24.696252
 30
0.0
  0
LINE
  5
3b3
100
AcDbEntity
  8
Layer_1
 62
3
100
AcDbLine
 10
310.070305
 20
24.696252
 30
0.0
 11
310.070305
 21
24.696252
 31
0.0
  0
LINE
  5
3b4
100
AcDbEntity
  8
Layer_1
 62
1
100
AcDbLine
 10
345.810976
 20
108.524031
 30
0.0
 11
345.810976
 21
105.509435
 31
0.0
  0
LINE
  5
3b5
100
AcDbEntity
  8
Layer_1
 62
1
100
AcDbLine
 10
345.810976
 20
105.509435
 30
0.0
 11
347.410605
 21
105.509435
 31
0.0
  0
LINE
  5
3b6
100
AcDbEntity
  8
Layer_1
 62
1
100
AcDbLine
 10
347.410605
 20
105.509435
 30
0.0
 11
347.410605
 21
102.509168
 31
0.0
  0
LINE
  5
3b7
100
AcDbEntity
  8
Layer_1
 62
1
100
AcDbLine
 10
347.410605
 20
102.509168
 30
0.0
 11
345.810976
 21
102.509168
 31
0.0
  0
LINE
  5
3b8
100
AcDbEntity
  8
Layer_1
 62
1
100
AcDbLine
 10
345.810976
 20
102.509168
 30
0.0
 11
345.810976
 21
100.509360
 31
0.0
  0
LINE
  5
3b9
100
AcDbEntity
  8
Layer_1
 62
1
100
AcDbLine
 10
345.810976
 20
100.509360
 30
0.0
 11
342.610626
 21
100.509360
 31
0.0
  0
LINE
  5
3ba
100
AcDbEntity
  8
Layer_1
 62
1
100
AcDbLine
 10
342.610626
 20
100.509360
 30
0.0
 11
342.610626
 21
102.509168
 31
0.0
  0
LINE
  5
3bb
100
AcDbEntity
  8
Layer_1
 62
1
100
AcDbLine
 10
342.610626
 20
102.509168
 30
0.0
 11
341.010995
 21
102.509168
 31
0.0
  0
LINE
  5
3bc
100
AcDbEntity
  8
Layer_1
 62
1
100
AcDbLine
 10
341.010995
 20
102.509168
 30
0.0
 11
341.010995
 21
105.509435
 31
0.0
  0
LINE
  5
3bd
100
AcDbEntity
  8
Layer_1
 62
1
100
AcDbLine
 10
341.010995
 20
105.509435
 30
0.0
 11
342.610626
 21
105.509435
 31
0.0
  0
LINE
  5
3be
100
AcDbEntity
  8
Layer_1
 62
1
100
AcDbLine
 10
342.610626
 20
105.509435
 30
0.0
 11
342.610626
 21
108.524031
 31
0.0
  0
LINE
  5
3bf
100
AcDbEntity
  8
Layer_1
 62
1
100
AcDbLine
 10
342.610626
 20
108.524031
 30
0.0
 11
322.799947
 21
108.524031
 31
0.0
  0
LINE
  5
3c0
100
AcDbEntity
  8
Layer_1
 62
1
100
AcDbLine
 10
322.799947
 20
108.524031
 30
0.0
 11
322.799947
 21
111.707299
 31
0.0
  0
LINE
  5
3c1
100
AcDbEntity
  8
Layer_1
 62
1
100
AcDbLine
 10
322.799947
 20
111.707299
 30
0.0
 11
312.799795
 21
111.707299
 31
0.0
  0
LINE
  5
3c2
100
AcDbEntity
  8
Layer_1
 62
1
100
AcDbLine
 10
312.799795
 20
111.707299
 30
0.0
 11
312.799795
 21
108.524031
 31
0.0
  0
LINE
  5
3c3
100
AcDbEntity
  8
Layer_1
 62
1
100
AcDbLine
 10
312.799795
 20
108.524031
 30
0.0
 11
304.625826
 21
108.513897
 31
0.0
  0
LINE
  5
3c4
100
AcDbEntity
  8
Layer_1
 62
1
100
AcDbLine
 10
304.625826
 20
108.513900
 30
0.0
 11
304.625826
 21
-58.246038
 31
0.0
  0
LINE
  5
3c5
100
AcDbEntity
  8
Layer_1
 62
1
100
AcDbLine
 10
304.625826
 20
-58.246038
 30
0.0
 11
316.049217
 21
-58.246038
 31
0.0
  0
LINE
  5
3c6
100
AcDbEntity
  8
Layer_1
 62
1
100
AcDbLine
 10
316.049217
 20
-58.246038
 30
0.0
 11
316.049217
 21
-55.231439
 31
0.0
  0
LINE
  5
3c7
100
AcDbEntity
  8
Layer_1
 62
1
100
AcDbLine
 10
316.049217
 20
-55.231439
 30
0.0
 11
314.449585
 21
-55.231439
 31
0.0
  0
LINE
  5
3c8
100
AcDbEntity
  8
Layer_1
 62
1
100
AcDbLine
 10
314.449585
 20
-55.231439
 30
0.0
 11
314.449585
 21
-52.231167
 31
0.0
  0
LINE
  5
3c9
100
AcDbEntity
  8
Layer_1
 62
1
100
AcDbLine
 10
314.449585
 20
-52.231167
 30
0.0
 11
316.049217
 21
-52.231167
 31
0.0
  0
LINE
  5
3ca
100
AcDbEntity
  8
Layer_1
 62
1
100
AcDbLine
 10
316.049217
 20
-52.231167
 30
0.0
 11
316.049217
 21
-50.231359
 31
0.0
  0
LINE
  5
3cb
100
AcDbEntity
  8
Layer_1
 62
1
100
AcDbLine
 10
316.049217
 20
-50.231359
 30
0.0
 11
319.249566
 21
-50.231359
 31
0.0
  0
LINE
  5
3cc
100
AcDbEntity
  8
Layer_1
 62
1
100
AcDbLine
 10
319.249566
 20
-50.231359
 30
0.0
 11
319.249566
 21
-52.231167
 31
0.0
  0
LINE
  5
3cd
100
AcDbEntity
  8
Layer_1
 62
1
100
AcDbLine
 10
319.249566
 20
-52.231167
 30
0.0
 11
320.849195
 21
-52.231167
 31
0.0
  0
LINE
  5
3ce
100
AcDbEntity
  8
Layer_1
 62
1
100
AcDbLine
 10
320.849195
 20
-52.231167
 30
0.0
 11
320.849195
 21
-55.231439
 31
0.0
  0
LINE
  5
3cf
100
AcDbEntity
  8
Layer_1
 62
1
100
AcDbLine
 10
320.849195
 20
-55.231439
 30
0.0
 11
319.249566
 21
-55.231439
 31
0.0
  0
LINE
  5
3d0
100
AcDbEntity
  8
Layer_1
 62
1
100
AcDbLine
 10
319.249566
 20
-55.231439
 30
0.0
 11
319.249566
 21
-58.246038
 31
0.0
  0
LINE
  5
3d1
100
AcDbEntity
  8
Layer_1
 62
1
100
AcDbLine
 10
319.249566
 20
-58.246038
 30
0.0
 11
339.060246
 21
-58.246038
 31
0.0
  0
LINE
  5
3d2
100
AcDbEntity
  8
Layer_1
 62
1
100
AcDbLine
 10
339.060246
 20
-58.246038
 30
0.0
 11
339.060246
 21
-61.429298
 31
0.0
  0
LINE
  5
3d3
100
AcDbEntity
  8
Layer_1
 62
1
100
AcDbLine
 10
339.060246
 20
-61.429298
 30
0.0
 11
349.060395
 21
-61.429298
 31
0.0
  0
LINE
  5
3d4
100
AcDbEntity
  8
Layer_1
 62
1
100
AcDbLine
 10
349.060395
 20
-61.429298
 30
0.0
 11
349.060395
 21
-58.246038
 31
0.0
  0
LINE
  5
3d5
100
AcDbEntity
  8
Layer_1
 62
1
100
AcDbLine
 10
349.060395
 20
-58.246038
 30
0.0
 11
357.234367
 21
-58.246038
 31
0.0
  0
LINE
  5
3d6
100
AcDbEntity
  8
Layer_1
 62
1
100
AcDbLine
 10
357.234367
 20
-58.246038
 30
0.0
 11
357.234367
 21
108.513897
 31
0.0
  0
LINE
  5
3d7
100
AcDbEntity
  8
Layer_1
 62
1
100
AcDbLine
 10
357.234367
 20
108.513897
 30
0.0
 11
345.810976
 21
108.524031
 31
0.0
  0
SPLINE
  5
3d8
100
AcDbEntity
  8
Layer_1
 62
5
100
AcDbSpline
 70
8
 71
3
 72
8
 73
4
 74
0
 40
0
 40
0
 40
0
 40
0
 40
1
 40
1
 40
1
 40
1
 10
450.628119
 20
101.543815
 30
0.0
 10
451.459120
 20
101.543815
 30
0.0
 10
452.128119
 20
100.205814
 30
0.0
 10
452.128119
 20
98.543818
 30
0.0
  0
LINE
  5
3d9
100
AcDbEntity
  8
Layer_1
 62
5
100
AcDbLine
 10
452.128119
 20
98.543818
 30
0.0
 11
452.128119
 21
29.280711
 31
0.0
  0
SPLINE
  5
3da
100
AcDbEntity
  8
Layer_1
 62
5
100
AcDbSpline
 70
8
 71
3
 72
8
 73
4
 74
0
 40
0
 40
0
 40
0
 40
0
 40
1
 40
1
 40
1
 40
1
 10
452.128119
 20
29.280711
 30
0.0
 10
452.128119
 20
27.618713
 30
0.0
 10
451.459120
 20
26.280712
 30
0.0
 10
450.628119
 20
26.280712
 30
0.0
  0
SPLINE
  5
3db
100
AcDbEntity
  8
Layer_1
 62
5
100
AcDbSpline
 70
8
 71
3
 72
8
 73
4
 74
0
 40
0
 40
0
 40
0
 40
0
 40
1
 40
1
 40
1
 40
1
 10
450.628119
 20
26.280712
 30
0.0
 10
449.797118
 20
26.280712
 30
0.0
 10
449.128119
 20
27.618713
 30
0.0
 10
449.128119
 20
29.280711
 30
0.0
  0
LINE
  5
3dc
100
AcDbEntity
  8
Layer_1
 62
5
100
AcDbLine
 10
449.128119
 20
29.280711
 30
0.0
 11
449.128119
 21
98.543818
 31
0.0
  0
SPLINE
  5
3dd
100
AcDbEntity
  8
Layer_1
 62
5
100
AcDbSpline
 70
8
 71
3
 72
8
 73
4
 74
0
 40
0
 40
0
 40
0
 40
0
 40
1
 40
1
 40
1
 40
1
 10
449.128119
 20
98.543818
 30
0.0
 10
449.128119
 20
100.205814
 30
0.0
 10
449.797118
 20
101.543815
 30
0.0
 10
450.628119
 20
101.543815
 30
0.0
  0
LINE
  5
3de
100
AcDbEntity
  8
Layer_1
 62
5
100
AcDbLine
 10
450.628119
 20
101.543815
 30
0.0
 11
450.628119
 21
101.543815
 31
0.0
  0
LINE
  5
3df
100
AcDbEntity
  8
Layer_1
 62
3
100
AcDbLine
 10
429.768218
 20
24.696252
 30
0.0
 11
472.233108
 21
24.696252
 31
0.0
  0
SPLINE
  5
3e0
100
AcDbEntity
  8
Layer_1
 62
3
100
AcDbSpline
 70
8
 71
3
 72
8
 73
4
 74
0
 40
0
 40
0
 40
0
 40
0
 40
1
 40
1
 40
1
 40
1
 10
472.233108
 20
24.696252
 30
0.0
 10
473.895109
 20
24.696252
 30
0.0
 10
475.233109
 20
23.358262
 30
0.0
 10
475.233109
 20
21.696264
 30
0.0
  0
LINE
  5
3e1
100
AcDbEntity
  8
Layer_1
 62
3
100
AcDbLine
 10
475.233109
 20
21.696264
 30
0.0
 11
475.233109
 21
-45.856328
 31
0.0
  0
SPLINE
  5
3e2
100
AcDbEntity
  8
Layer_1
 62
5
100
AcDbSpline
 70
8
 71
3
 72
8
 73
4
 74
0
 40
0
 40
0
 40
0
 40
0
 40
1
 40
1
 40
1
 40
1
 10
475.233109
 20
-45.856328
 30
0.0
 10
475.233109
 20
-47.518318
 30
0.0
 10
473.895109
 20
-48.856316
 30
0.0
 10
472.233108
 20
-48.856316
 30
0.0
  0
LINE
  5
3e3
100
AcDbEntity
  8
Layer_1
 62
3
100
AcDbLine
 10
472.233108
 20
-48.856316
 30
0.0
 11
429.768218
 21
-48.856316
 31
0.0
  0
SPLINE
  5
3e4
100
AcDbEntity
  8
Layer_1
 62
5
100
AcDbSpline
 70
8
 71
3
 72
8
 73
4
 74
0
 40
0
 40
0
 40
0
 40
0
 40
1
 40
1
 40
1
 40
1
 10
429.768218
 20
-48.856316
 30
0.0
 10
428.106227
 20
-48.856316
 30
0.0
 10
426.768229
 20
-47.518318
 30
0.0
 10
426.768229
 20
-45.856328
 30
0.0
  0
LINE
  5
3e5
100
AcDbEntity
  8
Layer_1
 62
3
100
AcDbLine
 10
426.768229
 20
-45.856328
 30
0.0
 11
426.768229
 21
21.696264
 31
0.0
  0
SPLINE
  5
3e6
100
AcDbEntity
  8
Layer_1
 62
3
100
AcDbSpline
 70
8
 71
3
 72
8
 73
4
 74
0
 40
0
 40
0
 40
0
 40
0
 40
1
 40
1
 40
1
 40
1
 10
426.768229
 20
21.696264
 30
0.0
 10
426.768229
 20
23.358262
 30
0.0
 10
428.106227
 20
24.696252
 30
0.0
 10
429.768218
 20
24.696252
 30
0.0
  0
LINE
  5
3e7
100
AcDbEntity
  8
Layer_1
 62
3
100
AcDbLine
 10
429.768218
 20
24.696252
 30
0.0
 11
429.768218
 21
24.696252
 31
0.0
  0
LINE
  5
3e8
100
AcDbEntity
  8
Layer_1
 62
1
100
AcDbLine
 10
465.508889
 20
108.524031
 30
0.0
 11
465.508889
 21
105.509435
 31
0.0
  0
LINE
  5
3e9
100
AcDbEntity
  8
Layer_1
 62
1
100
AcDbLine
 10
465.508889
 20
105.509435
 30
0.0
 11
467.108517
 21
105.509435
 31
0.0
  0
LINE
  5
3ea
100
AcDbEntity
  8
Layer_1
 62
1
100
AcDbLine
 10
467.108517
 20
105.509435
 30
0.0
 11
467.108517
 21
102.509168
 31
0.0
  0
LINE
  5
3eb
100
AcDbEntity
  8
Layer_1
 62
1
100
AcDbLine
 10
467.108517
 20
102.509168
 30
0.0
 11
465.508889
 21
102.509168
 31
0.0
  0
LINE
  5
3ec
100
AcDbEntity
  8
Layer_1
 62
1
100
AcDbLine
 10
465.508889
 20
102.509168
 30
0.0
 11
465.508889
 21
100.509360
 31
0.0
  0
LINE
  5
3ed
100
AcDbEntity
  8
Layer_1
 62
1
100
AcDbLine
 10
465.508889
 20
100.509360
 30
0.0
 11
462.308539
 21
100.509360
 31
0.0
  0
LINE
  5
3ee
100
AcDbEntity
  8
Layer_1
 62
1
100
AcDbLine
 10
462.308539
 20
100.509360
 30
0.0
 11
462.308539
 21
102.509168
 31
0.0
  0
LINE
  5
3ef
100
AcDbEntity
  8
Layer_1
 62
1
100
AcDbLine
 10
462.308539
 20
102.509168
 30
0.0
 11
460.708908
 21
102.509168
 31
0.0
  0
LINE
  5
3f0
100
AcDbEntity
  8
Layer_1
 62
1
100
AcDbLine
 10
460.708908
 20
102.509168
 30
0.0
 11
460.708908
 21
105.509435
 31
0.0
  0
LINE
  5
3f1
100
AcDbEntity
  8
Layer_1
 62
1
100
AcDbLine
 10
460.708908
 20
105.509435
 30
0.0
 11
462.308539
 21
105.509435
 31
0.0
  0
LINE
  5
3f2
100
AcDbEntity
  8
Layer_1
 62
1
100
AcDbLine
 10
462.308539
 20
105.509435
 30
0.0
 11
462.308539
 21
108.524031
 31
0.0
  0
LINE
  5
3f3
100
AcDbEntity
  8
Layer_1
 62
1
100
AcDbLine
 10
462.308539
 20
108.524031
 30
0.0
 11
442.497859
 21
108.524031
 31
0.0
  0
LINE
  5
3f4
100
AcDbEntity
  8
Layer_1
 62
1
100
AcDbLine
 10
442.497859
 20
108.524031
 30
0.0
 11
442.497859
 21
111.707299
 31
0.0
  0
LINE
  5
3f5
100
AcDbEntity
  8
Layer_1
 62
1
100
AcDbLine
 10
442.497859
 20
111.707299
 30
0.0
 11
432.497707
 21
111.707299
 31
0.0
  0
LINE
  5
3f6
100
AcDbEntity
  8
Layer_1
 62
1
100
AcDbLine
 10
432.497707
 20
111.707299
 30
0.0
 11
432.497707
 21
108.524031
 31
0.0
  0
LINE
  5
3f7
100
AcDbEntity
  8
Layer_1
 62
1
100
AcDbLine
 10
432.497707
 20
108.524031
 30
0.0
 11
424.323739
 21
108.513897
 31
0.0
  0
LINE
  5
3f8
100
AcDbEntity
  8
Layer_1
 62
1
100
AcDbLine
 10
424.323739
 20
108.513900
 30
0.0
 11
424.323739
 21
-58.246038
 31
0.0
  0
LINE
  5
3f9
100
AcDbEntity
  8
Layer_1
 62
1
100
AcDbLine
 10
424.323739
 20
-58.246038
 30
0.0
 11
435.747129
 21
-58.246038
 31
0.0
  0
LINE
  5
3fa
100
AcDbEntity
  8
Layer_1
 62
1
100
AcDbLine
 10
435.747129
 20
-58.246038
 30
0.0
 11
435.747129
 21
-55.231439
 31
0.0
  0
LINE
  5
3fb
100
AcDbEntity
  8
Layer_1
 62
1
100
AcDbLine
 10
435.747129
 20
-55.231439
 30
0.0
 11
434.147498
 21
-55.231439
 31
0.0
  0
LINE
  5
3fc
100
AcDbEntity
  8
Layer_1
 62
1
100
AcDbLine
 10
434.147498
 20
-55.231439
 30
0.0
 11
434.147498
 21
-52.231167
 31
0.0
  0
LINE
  5
3fd
100
AcDbEntity
  8
Layer_1
 62
1
100
AcDbLine
 10
434.147498
 20
-52.231167
 30
0.0
 11
435.747129
 21
-52.231167
 31
0.0
  0
LINE
  5
3fe
100
AcDbEntity
  8
Layer_1
 62
1
100
AcDbLine
 10
435.747129
 20
-52.231167
 30
0.0
 11
435.747129
 21
-50.231359
 31
0.0
  0
LINE
  5
3ff
100
AcDbEntity
  8
Layer_1
 62
1
100
AcDbLine
 10
435.747129
 20
-50.231359
 30
0.0
 11
438.947479
 21
-50.231359
 31
0.0
  0
LINE
  5
400
100
AcDbEntity
  8
Layer_1
 62
1
100
AcDbLine
 10
438.947479
 20
-50.231359
 30
0.0
 11
438.947479
 21
-52.231167
 31
0.0
  0
LINE
  5
401
100
AcDbEntity
  8
Layer_1
 62
1
100
AcDbLine
 10
438.947479
 20
-52.231167
 30
0.0
 11
440.547108
 21
-52.231167
 31
0.0
  0
LINE
  5
402
100
AcDbEntity
  8
Layer_1
 62
1
100
AcDbLine
 10
440.547108
 20
-52.231167
 30
0.0
 11
440.547108
 21
-55.231439
 31
0.0
  0
LINE
  5
403
100
AcDbEntity
  8
Layer_1
 62
1
100
AcDbLine
 10
440.547108
 20
-55.231439
 30
0.0
 11
438.947479
 21
-55.231439
 31
0.0
  0
LINE
  5
404
100
AcDbEntity
  8
Layer_1
 62
1
100
AcDbLine
 10
438.947479
 20
-55.231439
 30
0.0
 11
438.947479
 21
-58.246038
 31
0.0
  0
LINE
  5
405
100
AcDbEntity
  8
Layer_1
 62
1
100
AcDbLine
 10
438.947479
 20
-58.246038
 30
0.0
 11
458.758159
 21
-58.246038
 31
0.0
  0
LINE
  5
406
100
AcDbEntity
  8
Layer_1
 62
1
100
AcDbLine
 10
458.758159
 20
-58.246038
 30
0.0
 11
458.758159
 21
-61.429298
 31
0.0
  0
LINE
  5
407
100
AcDbEntity
  8
Layer_1
 62
1
100
AcDbLine
 10
458.758159
 20
-61.429298
 30
0.0
 11
468.758308
 21
-61.429298
 31
0.0
  0
LINE
  5
408
100
AcDbEntity
  8
Layer_1
 62
1
100
AcDbLine
 10
468.758308
 20
-61.429298
 30
0.0
 11
468.758308
 21
-58.246038
 31
0.0
  0
LINE
  5
409
100
AcDbEntity
  8
Layer_1
 62
1
100
AcDbLine
 10
468.758308
 20
-58.246038
 30
0.0
 11
476.932280
 21
-58.246038
 31
0.0
  0
LINE
  5
40a
100
AcDbEntity
  8
Layer_1
 62
1
100
AcDbLine
 10
476.932280
 20
-58.246038
 30
0.0
 11
476.932280
 21
108.513897
 31
0.0
  0
LINE
  5
40b
100
AcDbEntity
  8
Layer_1
 62
1
100
AcDbLine
 10
476.932280
 20
108.513897
 30
0.0
 11
465.508889
 21
108.524031
 31
0.0
  0
SPLINE
  5
40c
100
AcDbEntity
  8
Layer_1
 62
5
100
AcDbSpline
 70
8
 71
3
 72
8
 73
4
 74
0
 40
0
 40
0
 40
0
 40
0
 40
1
 40
1
 40
1
 40
1
 10
271.081250
 20
101.543815
 30
0.0
 10
271.912250
 20
101.543815
 30
0.0
 10
272.581249
 20
100.205814
 30
0.0
 10
272.581249
 20
98.543818
 30
0.0
  0
LINE
  5
40d
100
AcDbEntity
  8
Layer_1
 62
5
100
AcDbLine
 10
272.581249
 20
98.543818
 30
0.0
 11
272.581249
 21
29.280711
 31
0.0
  0
SPLINE
  5
40e
100
AcDbEntity
  8
Layer_1
 62
5
100
AcDbSpline
 70
8
 71
3
 72
8
 73
4
 74
0
 40
0
 40
0
 40
0
 40
0
 40
1
 40
1
 40
1
 40
1
 10
272.581249
 20
29.280711
 30
0.0
 10
272.581249
 20
27.618713
 30
0.0
 10
271.912250
 20
26.280712
 30
0.0
 10
271.081250
 20
26.280712
 30
0.0
  0
SPLINE
  5
40f
100
AcDbEntity
  8
Layer_1
 62
5
100
AcDbSpline
 70
8
 71
3
 72
8
 73
4
 74
0
 40
0
 40
0
 40
0
 40
0
 40
1
 40
1
 40
1
 40
1
 10
271.081250
 20
26.280712
 30
0.0
 10
270.250249
 20
26.280712
 30
0.0
 10
269.581250
 20
27.618713
 30
0.0
 10
269.581250
 20
29.280711
 30
0.0
  0
LINE
  5
410
100
AcDbEntity
  8
Layer_1
 62
5
100
AcDbLine
 10
269.581250
 20
29.280711
 30
0.0
 11
269.581250
 21
98.543818
 31
0.0
  0
SPLINE
  5
411
100
AcDbEntity
  8
Layer_1
 62
5
100
AcDbSpline
 70
8
 71
3
 72
8
 73
4
 74
0
 40
0
 40
0
 40
0
 40
0
 40
1
 40
1
 40
1
 40
1
 10
269.581250
 20
98.543818
 30
0.0
 10
269.581250
 20
100.205814
 30
0.0
 10
270.250249
 20
101.543815
 30
0.0
 10
271.081250
 20
101.543815
 30
0.0
  0
LINE
  5
412
100
AcDbEntity
  8
Layer_1
 62
5
100
AcDbLine
 10
271.081250
 20
101.543815
 30
0.0
 11
271.081250
 21
101.543815
 31
0.0
  0
LINE
  5
413
100
AcDbEntity
  8
Layer_1
 62
3
100
AcDbLine
 10
250.221349
 20
24.696252
 30
0.0
 11
292.686238
 21
24.696252
 31
0.0
  0
SPLINE
  5
414
100
AcDbEntity
  8
Layer_1
 62
3
100
AcDbSpline
 70
8
 71
3
 72
8
 73
4
 74
0
 40
0
 40
0
 40
0
 40
0
 40
1
 40
1
 40
1
 40
1
 10
292.686238
 20
24.696252
 30
0.0
 10
294.348240
 20
24.696252
 30
0.0
 10
295.686240
 20
23.358262
 30
0.0
 10
295.686240
 20
21.696264
 30
0.0
  0
LINE
  5
415
100
AcDbEntity
  8
Layer_1
 62
3
100
AcDbLine
 10
295.686240
 20
21.696264
 30
0.0
 11
295.686240
 21
-45.856328
 31
0.0
  0
SPLINE
  5
416
100
AcDbEntity
  8
Layer_1
 62
5
100
AcDbSpline
 70
8
 71
3
 72
8
 73
4
 74
0
 40
0
 40
0
 40
0
 40
0
 40
1
 40
1
 40
1
 40
1
 10
295.686240
 20
-45.856328
 30
0.0
 10
295.686240
 20
-47.518318
 30
0.0
 10
294.348240
 20
-48.856316
 30
0.0
 10
292.686238
 20
-48.856316
 30
0.0
  0
LINE
  5
417
100
AcDbEntity
  8
Layer_1
 62
3
100
AcDbLine
 10
292.686238
 20
-48.856316
 30
0.0
 11
250.221349
 21
-48.856316
 31
0.0
  0
SPLINE
  5
418
100
AcDbEntity
  8
Layer_1
 62
5
100
AcDbSpline
 70
8
 71
3
 72
8
 73
4
 74
0
 40
0
 40
0
 40
0
 40
0
 40
1
 40
1
 40
1
 40
1
 10
250.221349
 20
-48.856316
 30
0.0
 10
248.559358
 20
-48.856316
 30
0.0
 10
247.221360
 20
-47.518318
 30
0.0
 10
247.221360
 20
-45.856328
 30
0.0
  0
LINE
  5
419
100
AcDbEntity
  8
Layer_1
 62
3
100
AcDbLine
 10
247.221360
 20
-45.856328
 30
0.0
 11
247.221360
 21
21.696264
 31
0.0
  0
SPLINE
  5
41a
100
AcDbEntity
  8
Layer_1
 62
3
100
AcDbSpline
 70
8
 71
3
 72
8
 73
4
 74
0
 40
0
 40
0
 40
0
 40
0
 40
1
 40
1
 40
1
 40
1
 10
247.221360
 20
21.696264
 30
0.0
 10
247.221360
 20
23.358262
 30
0.0
 10
248.559358
 20
24.696252
 30
0.0
 10
250.221349
 20
24.696252
 30
0.0
  0
LINE
  5
41b
100
AcDbEntity
  8
Layer_1
 62
3
100
AcDbLine
 10
250.221349
 20
24.696252
 30
0.0
 11
250.221349
 21
24.696252
 31
0.0
  0
LINE
  5
41c
100
AcDbEntity
  8
Layer_1
 62
1
100
AcDbLine
 10
285.962020
 20
108.524031
 30
0.0
 11
285.962020
 21
105.509435
 31
0.0
  0
LINE
  5
41d
100
AcDbEntity
  8
Layer_1
 62
1
100
AcDbLine
 10
285.962020
 20
105.509435
 30
0.0
 11
287.561648
 21
105.509435
 31
0.0
  0
LINE
  5
41e
100
AcDbEntity
  8
Layer_1
 62
1
100
AcDbLine
 10
287.561648
 20
105.509435
 30
0.0
 11
287.561648
 21
102.509168
 31
0.0
  0
LINE
  5
41f
100
AcDbEntity
  8
Layer_1
 62
1
100
AcDbLine
 10
287.561648
 20
102.509168
 30
0.0
 11
285.962020
 21
102.509168
 31
0.0
  0
LINE
  5
420
100
AcDbEntity
  8
Layer_1
 62
1
100
AcDbLine
 10
285.962020
 20
102.509168
 30
0.0
 11
285.962020
 21
100.509360
 31
0.0
  0
LINE
  5
421
100
AcDbEntity
  8
Layer_1
 62
1
100
AcDbLine
 10
285.962020
 20
100.509360
 30
0.0
 11
282.761670
 21
100.509360
 31
0.0
  0
LINE
  5
422
100
AcDbEntity
  8
Layer_1
 62
1
100
AcDbLine
 10
282.761670
 20
100.509360
 30
0.0
 11
282.761670
 21
102.509168
 31
0.0
  0
LINE
  5
423
100
AcDbEntity
  8
Layer_1
 62
1
100
AcDbLine
 10
282.761670
 20
102.509168
 30
0.0
 11
281.162039
 21
102.509168
 31
0.0
  0
LINE
  5
424
100
AcDbEntity
  8
Layer_1
 62
1
100
AcDbLine
 10
281.162039
 20
102.509168
 30
0.0
 11
281.162039
 21
105.509435
 31
0.0
  0
LINE
  5
425
100
AcDbEntity
  8
Layer_1
 62
1
100
AcDbLine
 10
281.162039
 20
105.509435
 30
0.0
 11
282.761670
 21
105.509435
 31
0.0
  0
LINE
  5
426
100
AcDbEntity
  8
Layer_1
 62
1
100
AcDbLine
 10
282.761670
 20
105.509435
 30
0.0
 11
282.761670
 21
108.524031
 31
0.0
  0
LINE
  5
427
100
AcDbEntity
  8
Layer_1
 62
1
100
AcDbLine
 10
282.761670
 20
108.524031
 30
0.0
 11
262.950990
 21
108.524031
 31
0.0
  0
LINE
  5
428
100
AcDbEntity
  8
Layer_1
 62
1
100
AcDbLine
 10
262.950990
 20
108.524031
 30
0.0
 11
262.950990
 21
111.707299
 31
0.0
  0
LINE
  5
429
100
AcDbEntity
  8
Layer_1
 62
1
100
AcDbLine
 10
262.950990
 20
111.707299
 30
0.0
 11
252.950838
 21
111.707299
 31
0.0
  0
LINE
  5
42a
100
AcDbEntity
  8
Layer_1
 62
1
100
AcDbLine
 10
252.950838
 20
111.707299
 30
0.0
 11
252.950838
 21
108.524031
 31
0.0
  0
LINE
  5
42b
100
AcDbEntity
  8
Layer_1
 62
1
100
AcDbLine
 10
252.950838
 20
108.524031
 30
0.0
 11
244.776870
 21
108.513897
 31
0.0
  0
LINE
  5
42c
100
AcDbEntity
  8
Layer_1
 62
1
100
AcDbLine
 10
244.776870
 20
108.513900
 30
0.0
 11
244.776870
 21
-58.246038
 31
0.0
  0
LINE
  5
42d
100
AcDbEntity
  8
Layer_1
 62
1
100
AcDbLine
 10
244.776870
 20
-58.246038
 30
0.0
 11
256.200260
 21
-58.246038
 31
0.0
  0
LINE
  5
42e
100
AcDbEntity
  8
Layer_1
 62
1
100
AcDbLine
 10
256.200260
 20
-58.246038
 30
0.0
 11
256.200260
 21
-55.231439
 31
0.0
  0
LINE
  5
42f
100
AcDbEntity
  8
Layer_1
 62
1
100
AcDbLine
 10
256.200260
 20
-55.231439
 30
0.0
 11
254.600629
 21
-55.231439
 31
0.0
  0
LINE
  5
430
100
AcDbEntity
  8
Layer_1
 62
1
100
AcDbLine
 10
254.600629
 20
-55.231439
 30
0.0
 11
254.600629
 21
-52.231167
 31
0.0
  0
LINE
  5
431
100
AcDbEntity
  8
Layer_1
 62
1
100
AcDbLine
 10
254.600629
 20
-52.231167
 30
0.0
 11
256.200260
 21
-52.231167
 31
0.0
  0
LINE
  5
432
100
AcDbEntity
  8
Layer_1
 62
1
100
AcDbLine
 10
256.200260
 20
-52.231167
 30
0.0
 11
256.200260
 21
-50.231359
 31
0.0
  0
LINE
  5
433
100
AcDbEntity
  8
Layer_1
 62
1
100
AcDbLine
 10
256.200260
 20
-50.231359
 30
0.0
 11
259.400610
 21
-50.231359
 31
0.0
  0
LINE
  5
434
100
AcDbEntity
  8
Layer_1
 62
1
100
AcDbLine
 10
259.400610
 20
-50.231359
 30
0.0
 11
259.400610
 21
-52.231167
 31
0.0
  0
LINE
  5
435
100
AcDbEntity
  8
Layer_1
 62
1
100
AcDbLine
 10
259.400610
 20
-52.231167
 30
0.0
 11
261.000238
 21
-52.231167
 31
0.0
  0
LINE
  5
436
100
AcDbEntity
  8
Layer_1
 62
1
100
AcDbLine
 10
261.000238
 20
-52.231167
 30
0.0
 11
261.000238
 21
-55.231439
 31
0.0
  0
LINE
  5
437
100
AcDbEntity
  8
Layer_1
 62
1
100
AcDbLine
 10
261.000238
 20
-55.231439
 30
0.0
 11
259.400610
 21
-55.231439
 31
0.0
  0
LINE
  5
438
100
AcDbEntity
  8
Layer_1
 62
1
100
AcDbLine
 10
259.400610
 20
-55.231439
 30
0.0
 11
259.400610
 21
-58.246038
 31
0.0
  0
LINE
  5
439
100
AcDbEntity
  8
Layer_1
 62
1
100
AcDbLine
 10
259.400610
 20
-58.246038
 30
0.0
 11
279.211290
 21
-58.246038
 31
0.0
  0
LINE
  5
43a
100
AcDbEntity
  8
Layer_1
 62
1
100
AcDbLine
 10
279.211290
 20
-58.246038
 30
0.0
 11
279.211290
 21
-61.429298
 31
0.0
  0
LINE
  5
43b
100
AcDbEntity
  8
Layer_1
 62
1
100
AcDbLine
 10
279.211290
 20
-61.429298
 30
0.0
 11
289.211439
 21
-61.429298
 31
0.0
  0
LINE
  5
43c
100
AcDbEntity
  8
Layer_1
 62
1
100
AcDbLine
 10
289.211439
 20
-61.429298
 30
0.0
 11
289.211439
 21
-58.246038
 31
0.0
  0
LINE
  5
43d
100
AcDbEntity
  8
Layer_1
 62
1
100
AcDbLine
 10
289.211439
 20
-58.246038
 30
0.0
 11
297.385410
 21
-58.246038
 31
0.0
  0
LINE
  5
43e
100
AcDbEntity
  8
Layer_1
 62
1
100
AcDbLine
 10
297.385410
 20
-58.246038
 30
0.0
 11
297.385410
 21
108.513897
 31
0.0
  0
LINE
  5
43f
100
AcDbEntity
  8
Layer_1
 62
1
100
AcDbLine
 10
297.385410
 20
108.513897
 30
0.0
 11
285.962020
 21
108.524031
 31
0.0
  0
ENDSEC
  0
SECTION
  2
OBJECTS
  0
DICTIONARY
  5
C
330
0
100
AcDbDictionary
  3
ACAD_GROUP
350
D
  3
ACAD_MLINESTYLE
350
17
  0
DICTIONARY
  5
D
330
C
100
AcDbDictionary
  0
DICTIONARY
  5
1A
330
C
100
AcDbDictionary
  0
DICTIONARY
  5
17
330
C
100
AcDbDictionary
  3
STANDARD
350
18
  0
DICTIONARY
  5
19
330
C
100
AcDbDictionary
  0
ENDSEC
  0
EOF
