  0
SECTION
  2
HEADER
  9
$ACADVER
  1
AC1009
  0
ENDSEC
  0
SECTION
  2
ENTITIES
  0
POLYLINE
  5
90
  8
Layer_0
  62
0
  70
1
  66
1
  10
0
  20
0
  30
0
  0
VERTEX
  5
90
  8
Layer_0
  10
395.94907
  20
289.74747
  0
VERTEX
  5
91
  8
Layer_0
  10
430.53241
  20
279.74747
  0
VERTEX
  5
92
  8
Layer_0
  10
460.53241
  20
279.74747
  0
VERTEX
  5
93
  8
Layer_0
  10
495.11572
  20
289.74747
  0
VERTEX
  5
94
  8
Layer_0
  10
497.15741
  20
324.74747
  0
VERTEX
  5
95
  8
Layer_0
  10
460.53241
  20
339.74747
  0
VERTEX
  5
96
  8
Layer_0
  10
430.53241
  20
339.74747
  0
VERTEX
  5
97
  8
Layer_0
  10
393.90741
  20
324.74747
  0
VERTEX
  5
98
  8
Layer_0
  10
395.94907
  20
289.74747
  0
SEQEND
  0
POLYLINE
  5
9a
  8
Layer_0
  62
0
  70
1
  66
1
  10
0
  20
0
  30
0
  0
VERTEX
  5
9a
  8
Layer_0
  10
365.03683
  20
421.59634
  0
VERTEX
  5
9b
  8
Layer_0
  10
368.52802
  20
361.74747
  0
VERTEX
  5
9c
  8
Layer_0
  10
430.52802
  20
341.74747
  0
VERTEX
  5
9d
  8
Layer_0
  10
460.52802
  20
341.74747
  0
VERTEX
  5
9e
  8
Layer_0
  10
522.52802
  20
361.74747
  0
VERTEX
  5
9f
  8
Layer_0
  10
526.02802
  20
421.74747
  0
VERTEX
  5
a0
  8
Layer_0
  10
460.52802
  20
441.74747
  0
VERTEX
  5
a1
  8
Layer_0
  10
430.52802
  20
441.74747
  0
VERTEX
  5
a2
  8
Layer_0
  10
365.03683
  20
421.59634
  0
SEQEND
  0
POLYLINE
  5
a4
  8
Layer_0
  62
0
  70
1
  66
1
  10
0
  20
0
  30
0
  0
VERTEX
  5
a4
  8
Layer_0
  10
390.03241
  20
288.74744
  0
VERTEX
  5
a5
  8
Layer_0
  10
375.03241
  20
288.74744
  0
VERTEX
  5
a6
  8
Layer_0
  10
375.03241
  20
309.74744
  0
VERTEX
  5
a7
  8
Layer_0
  10
390.03241
  20
309.74744
  0
VERTEX
  5
a8
  8
Layer_0
  10
390.03241
  20
288.74744
  0
SEQEND
  0
POLYLINE
  5
aa
  8
Layer_0
  62
0
  70
1
  66
1
  10
0
  20
0
  30
0
  0
VERTEX
  5
aa
  8
Layer_0
  10
377.53241
  20
291.74744
  0
VERTEX
  5
ab
  8
Layer_0
  10
387.53241
  20
291.74744
  0
VERTEX
  5
ac
  8
Layer_0
  10
387.53241
  20
295.24744
  0
VERTEX
  5
ad
  8
Layer_0
  10
377.53241
  20
295.24744
  0
VERTEX
  5
ae
  8
Layer_0
  10
377.53241
  20
291.74744
  0
SEQEND
  0
POLYLINE
  5
b0
  8
Layer_0
  62
0
  70
1
  66
1
  10
0
  20
0
  30
0
  0
VERTEX
  5
b0
  8
Layer_0
  10
371.53241
  20
318.24744
  0
VERTEX
  5
b1
  8
Layer_0
  10
371.53241
  20
314.74744
  0
VERTEX
  5
b2
  8
Layer_0
  10
381.53241
  20
314.74744
  0
VERTEX
  5
b3
  8
Layer_0
  10
381.53241
  20
318.24744
  0
VERTEX
  5
b4
  8
Layer_0
  10
371.53241
  20
318.24744
  0
SEQEND
  0
POLYLINE
  5
b6
  8
Layer_0
  62
0
  70
1
  66
1
  10
0
  20
0
  30
0
  0
VERTEX
  5
b6
  8
Layer_0
  10
369.03241
  20
311.74744
  0
VERTEX
  5
b7
  8
Layer_0
  10
369.03241
  20
332.74744
  0
VERTEX
  5
b8
  8
Layer_0
  10
384.03241
  20
332.74744
  0
VERTEX
  5
b9
  8
Layer_0
  10
384.03241
  20
311.74744
  0
VERTEX
  5
ba
  8
Layer_0
  10
369.03241
  20
311.74744
  0
SEQEND
  0
POLYLINE
  5
bc
  8
Layer_0
  62
0
  70
1
  66
1
  10
0
  20
0
  30
0
  0
VERTEX
  5
bc
  8
Layer_0
  10
384.03241
  20
333.74744
  0
VERTEX
  5
bd
  8
Layer_0
  10
369.03241
  20
333.74744
  0
VERTEX
  5
be
  8
Layer_0
  10
369.03241
  20
354.74744
  0
VERTEX
  5
bf
  8
Layer_0
  10
384.03241
  20
354.74744
  0
VERTEX
  5
c0
  8
Layer_0
  10
384.03241
  20
333.74744
  0
SEQEND
  0
POLYLINE
  5
c2
  8
Layer_0
  62
0
  70
1
  66
1
  10
0
  20
0
  30
0
  0
VERTEX
  5
c2
  8
Layer_0
  10
381.53241
  20
340.24744
  0
VERTEX
  5
c3
  8
Layer_0
  10
371.53241
  20
340.24744
  0
VERTEX
  5
c4
  8
Layer_0
  10
371.53241
  20
336.74744
  0
VERTEX
  5
c5
  8
Layer_0
  10
381.53241
  20
336.74744
  0
VERTEX
  5
c6
  8
Layer_0
  10
381.53241
  20
340.24744
  0
SEQEND
  0
POLYLINE
  5
c8
  8
Layer_0
  62
0
  70
1
  66
1
  10
0
  20
0
  30
0
  0
VERTEX
  5
c8
  8
Layer_0
  10
406.4491
  20
228.74741
  0
VERTEX
  5
c9
  8
Layer_0
  10
430.53241
  20
218.74741
  0
VERTEX
  5
ca
  8
Layer_0
  10
460.53241
  20
218.74741
  0
VERTEX
  5
cb
  8
Layer_0
  10
484.61572
  20
228.74741
  0
VERTEX
  5
cc
  8
Layer_0
  10
486.9491
  20
268.74741
  0
VERTEX
  5
cd
  8
Layer_0
  10
460.53241
  20
278.74741
  0
VERTEX
  5
ce
  8
Layer_0
  10
430.53241
  20
278.74741
  0
VERTEX
  5
cf
  8
Layer_0
  10
404.11572
  20
268.74741
  0
VERTEX
  5
d0
  8
Layer_0
  10
406.4491
  20
228.74741
  0
SEQEND
  0
POLYLINE
  5
d2
  8
Layer_0
  62
0
  66
1
  10
0
  20
0
  30
0
  0
VERTEX
  5
d2
  8
Layer_0
  10
430.53241
  20
278.74741
  0
VERTEX
  5
d3
  8
Layer_0
  10
430.53241
  20
218.74741
  0
SEQEND
  0
POLYLINE
  5
d5
  8
Layer_0
  62
0
  66
1
  10
0
  20
0
  30
0
  0
VERTEX
  5
d5
  8
Layer_0
  10
460.53241
  20
218.74741
  0
VERTEX
  5
d6
  8
Layer_0
  10
460.53241
  20
278.74741
  0
SEQEND
  0
POLYLINE
  5
d8
  8
Layer_0
  62
0
  66
1
  10
0
  20
0
  30
0
  0
VERTEX
  5
d8
  8
Layer_0
  10
430.52802
  20
441.74747
  0
VERTEX
  5
d9
  8
Layer_0
  10
430.52802
  20
341.74747
  0
SEQEND
  0
POLYLINE
  5
db
  8
Layer_0
  62
0
  66
1
  10
0
  20
0
  30
0
  0
VERTEX
  5
db
  8
Layer_0
  10
460.52802
  20
341.74747
  0
VERTEX
  5
dc
  8
Layer_0
  10
460.52802
  20
441.74747
  0
SEQEND
  0
POLYLINE
  5
de
  8
Layer_0
  62
0
  66
1
  10
0
  20
0
  30
0
  0
VERTEX
  5
de
  8
Layer_0
  10
460.53241
  20
279.74747
  0
VERTEX
  5
df
  8
Layer_0
  10
460.53241
  20
339.74747
  0
SEQEND
  0
POLYLINE
  5
e1
  8
Layer_0
  62
0
  66
1
  10
0
  20
0
  30
0
  0
VERTEX
  5
e1
  8
Layer_0
  10
430.53241
  20
339.74747
  0
VERTEX
  5
e2
  8
Layer_0
  10
430.53241
  20
279.74747
  0
SEQEND
  0
POLYLINE
  5
e4
  8
Layer_0
  62
0
  70
1
  66
1
  10
0
  20
0
  30
0
  0
VERTEX
  5
e4
  8
Layer_0
  10
439.8548
  20
384.5119
  0
VERTEX
  5
e5
  8
Layer_0
  10
440.39777
  20
384.59784
  0
VERTEX
  5
e6
  8
Layer_0
  10
440.92511
  20
384.73846
  0
VERTEX
  5
e7
  8
Layer_0
  10
441.42902
  20
384.93768
  0
VERTEX
  5
e8
  8
Layer_0
  10
441.91339
  20
385.1955
  0
VERTEX
  5
e9
  8
Layer_0
  10
442.37823
  20
385.508
  0
VERTEX
  5
ea
  8
Layer_0
  10
442.81964
  20
385.87518
  0
VERTEX
  5
eb
  8
Layer_0
  10
443.24152
  20
386.30487
  0
VERTEX
  5
ec
  8
Layer_0
  10
443.63867
  20
386.80072
  0
VERTEX
  5
ed
  8
Layer_0
  10
443.97858
  20
387.33514
  0
VERTEX
  5
ee
  8
Layer_0
  10
444.25861
  20
387.90326
  0
VERTEX
  5
ef
  8
Layer_0
  10
444.47589
  20
388.50018
  0
VERTEX
  5
f0
  8
Layer_0
  10
444.64496
  20
389.1239
  0
VERTEX
  5
f1
  8
Layer_0
  10
444.76929
  20
389.75726
  0
VERTEX
  5
f2
  8
Layer_0
  10
444.84845
  20
390.3978
  0
VERTEX
  5
f3
  8
Layer_0
  10
444.88214
  20
391.04315
  0
VERTEX
  5
f4
  8
Layer_0
  10
444.88885
  20
391.59418
  0
VERTEX
  5
f5
  8
Layer_0
  10
444.86652
  20
392.14471
  0
VERTEX
  5
f6
  8
Layer_0
  10
444.7923
  20
392.81659
  0
VERTEX
  5
f7
  8
Layer_0
  10
444.6712
  20
393.46503
  0
VERTEX
  5
f8
  8
Layer_0
  10
444.49933
  20
394.09003
  0
VERTEX
  5
f9
  8
Layer_0
  10
444.28448
  20
394.68378
  0
VERTEX
  5
fa
  8
Layer_0
  10
444.03448
  20
395.23456
  0
VERTEX
  5
fb
  8
Layer_0
  10
443.74542
  20
395.73846
  0
VERTEX
  5
fc
  8
Layer_0
  10
443.50409
  20
396.08237
  0
VERTEX
  5
fd
  8
Layer_0
  10
443.24152
  20
396.41034
  0
VERTEX
  5
fe
  8
Layer_0
  10
442.89325
  20
396.75751
  0
VERTEX
  5
ff
  8
Layer_0
  10
442.51129
  20
397.06497
  0
VERTEX
  5
100
  8
Layer_0
  10
442.09888
  20
397.33026
  0
VERTEX
  5
101
  8
Layer_0
  10
441.65948
  20
397.55096
  0
VERTEX
  5
102
  8
Layer_0
  10
441.12042
  20
397.7619
  0
VERTEX
  5
103
  8
Layer_0
  10
440.56183
  20
397.91425
  0
VERTEX
  5
104
  8
Layer_0
  10
439.98761
  20
398.00409
  0
VERTEX
  5
105
  8
Layer_0
  10
439.39777
  20
398.03534
  0
VERTEX
  5
106
  8
Layer_0
  10
438.86652
  20
398.008
  0
VERTEX
  5
107
  8
Layer_0
  10
438.36261
  20
397.92596
  0
VERTEX
  5
108
  8
Layer_0
  10
437.88214
  20
397.78925
  0
VERTEX
  5
109
  8
Layer_0
  10
437.42902
  20
397.59784
  0
VERTEX
  5
10a
  8
Layer_0
  10
436.99542
  20
397.35175
  0
VERTEX
  5
10b
  8
Layer_0
  10
436.58917
  20
397.05096
  0
VERTEX
  5
10c
  8
Layer_0
  10
436.20245
  20
396.6994
  0
VERTEX
  5
10d
  8
Layer_0
  10
435.84308
  20
396.28925
  0
VERTEX
  5
10e
  8
Layer_0
  10
435.84308
  20
402.67206
  0
VERTEX
  5
10f
  8
Layer_0
  10
433.64777
  20
402.67206
  0
VERTEX
  5
110
  8
Layer_0
  10
433.64777
  20
384.77753
  0
VERTEX
  5
111
  8
Layer_0
  10
435.68683
  20
384.77753
  0
VERTEX
  5
112
  8
Layer_0
  10
435.68683
  20
386.40253
  0
VERTEX
  5
113
  8
Layer_0
  10
436.00574
  20
385.97342
  0
VERTEX
  5
114
  8
Layer_0
  10
436.37344
  20
385.58807
  0
VERTEX
  5
115
  8
Layer_0
  10
436.78558
  20
385.25055
  0
VERTEX
  5
116
  8
Layer_0
  10
437.23761
  20
384.96503
  0
VERTEX
  5
117
  8
Layer_0
  10
437.72504
  20
384.75046
  0
VERTEX
  5
118
  8
Layer_0
  10
438.23328
  20
384.59793
  0
VERTEX
  5
119
  8
Layer_0
  10
438.75629
  20
384.50885
  0
VERTEX
  5
11a
  8
Layer_0
  10
439.28839
  20
384.48456
  0
VERTEX
  5
11b
  8
Layer_0
  10
439.8548
  20
384.5119
  0
SEQEND
  0
POLYLINE
  5
11d
  8
Layer_0
  62
0
  70
1
  66
1
  10
0
  20
0
  30
0
  0
VERTEX
  5
11d
  8
Layer_0
  10
438.6712
  20
386.31659
  0
VERTEX
  5
11e
  8
Layer_0
  10
438.26495
  20
386.39862
  0
VERTEX
  5
11f
  8
Layer_0
  10
437.87823
  20
386.53143
  0
VERTEX
  5
120
  8
Layer_0
  10
437.51495
  20
386.71503
  0
VERTEX
  5
121
  8
Layer_0
  10
437.17511
  20
386.95331
  0
VERTEX
  5
122
  8
Layer_0
  10
436.8587
  20
387.24628
  0
VERTEX
  5
123
  8
Layer_0
  10
436.56573
  20
387.59003
  0
VERTEX
  5
124
  8
Layer_0
  10
436.2962
  20
387.98846
  0
VERTEX
  5
125
  8
Layer_0
  10
436.06812
  20
388.45496
  0
VERTEX
  5
126
  8
Layer_0
  10
435.90948
  20
388.9494
  0
VERTEX
  5
127
  8
Layer_0
  10
435.7753
  20
389.60672
  0
VERTEX
  5
128
  8
Layer_0
  10
435.70245
  20
390.27362
  0
VERTEX
  5
129
  8
Layer_0
  10
435.66766
  20
390.82336
  0
VERTEX
  5
12a
  8
Layer_0
  10
435.65997
  20
391.37384
  0
VERTEX
  5
12b
  8
Layer_0
  10
435.67938
  20
391.92398
  0
VERTEX
  5
12c
  8
Layer_0
  10
435.72589
  20
392.47284
  0
VERTEX
  5
12d
  8
Layer_0
  10
435.78003
  20
392.83167
  0
VERTEX
  5
12e
  8
Layer_0
  10
435.85556
  20
393.18628
  0
VERTEX
  5
12f
  8
Layer_0
  10
435.95215
  20
393.53577
  0
VERTEX
  5
130
  8
Layer_0
  10
436.06964
  20
393.87909
  0
VERTEX
  5
131
  8
Layer_0
  10
436.24814
  20
394.27161
  0
VERTEX
  5
132
  8
Layer_0
  10
436.46417
  20
394.64471
  0
VERTEX
  5
133
  8
Layer_0
  10
436.69507
  20
394.95761
  0
VERTEX
  5
134
  8
Layer_0
  10
436.95502
  20
395.24551
  0
VERTEX
  5
135
  8
Layer_0
  10
437.242
  20
395.50647
  0
VERTEX
  5
136
  8
Layer_0
  10
437.55402
  20
395.73846
  0
VERTEX
  5
137
  8
Layer_0
  10
437.93536
  20
395.95172
  0
VERTEX
  5
138
  8
Layer_0
  10
438.3418
  20
396.10556
  0
VERTEX
  5
139
  8
Layer_0
  10
438.76642
  20
396.19791
  0
VERTEX
  5
13a
  8
Layer_0
  10
439.20245
  20
396.22675
  0
VERTEX
  5
13b
  8
Layer_0
  10
439.46014
  20
396.21765
  0
VERTEX
  5
13c
  8
Layer_0
  10
439.71558
  20
396.18646
  0
VERTEX
  5
13d
  8
Layer_0
  10
439.96741
  20
396.13342
  0
VERTEX
  5
13e
  8
Layer_0
  10
440.21417
  20
396.05878
  0
VERTEX
  5
13f
  8
Layer_0
  10
440.45264
  20
395.95981
  0
VERTEX
  5
140
  8
Layer_0
  10
440.6814
  20
395.84106
  0
VERTEX
  5
141
  8
Layer_0
  10
440.89917
  20
395.70325
  0
VERTEX
  5
142
  8
Layer_0
  10
441.1048
  20
395.54706
  0
VERTEX
  5
143
  8
Layer_0
  10
441.39661
  20
395.28448
  0
VERTEX
  5
144
  8
Layer_0
  10
441.65741
  20
394.99268
  0
VERTEX
  5
145
  8
Layer_0
  10
441.88507
  20
394.67435
  0
VERTEX
  5
146
  8
Layer_0
  10
442.07745
  20
394.33221
  0
VERTEX
  5
147
  8
Layer_0
  10
442.25446
  20
393.91205
  0
VERTEX
  5
148
  8
Layer_0
  10
442.38995
  20
393.47675
  0
VERTEX
  5
149
  8
Layer_0
  10
442.50653
  20
392.97092
  0
VERTEX
  5
14a
  8
Layer_0
  10
442.58136
  20
392.45721
  0
VERTEX
  5
14b
  8
Layer_0
  10
442.62909
  20
391.87091
  0
VERTEX
  5
14c
  8
Layer_0
  10
442.64435
  20
391.28329
  0
VERTEX
  5
14d
  8
Layer_0
  10
442.62714
  20
390.69574
  0
VERTEX
  5
14e
  8
Layer_0
  10
442.57745
  20
390.10956
  0
VERTEX
  5
14f
  8
Layer_0
  10
442.49847
  20
389.60205
  0
VERTEX
  5
150
  8
Layer_0
  10
442.38214
  20
389.10175
  0
VERTEX
  5
151
  8
Layer_0
  10
442.23889
  20
388.66602
  0
VERTEX
  5
152
  8
Layer_0
  10
442.05402
  20
388.24628
  0
VERTEX
  5
153
  8
Layer_0
  10
441.80017
  20
387.8197
  0
VERTEX
  5
154
  8
Layer_0
  10
441.49542
  20
387.43039
  0
VERTEX
  5
155
  8
Layer_0
  10
441.1438
  20
387.08279
  0
VERTEX
  5
156
  8
Layer_0
  10
440.74933
  20
386.78143
  0
VERTEX
  5
157
  8
Layer_0
  10
440.36847
  20
386.56934
  0
VERTEX
  5
158
  8
Layer_0
  10
439.96301
  20
386.41528
  0
VERTEX
  5
159
  8
Layer_0
  10
439.53961
  20
386.32129
  0
VERTEX
  5
15a
  8
Layer_0
  10
439.1048
  20
386.28925
  0
VERTEX
  5
15b
  8
Layer_0
  10
438.6712
  20
386.31659
  0
SEQEND
  0
POLYLINE
  5
15d
  8
Layer_0
  62
0
  70
1
  66
1
  10
0
  20
0
  30
0
  0
VERTEX
  5
15d
  8
Layer_0
  10
445.44324
  20
289.7739
  0
VERTEX
  5
15e
  8
Layer_0
  10
445.98621
  20
289.85983
  0
VERTEX
  5
15f
  8
Layer_0
  10
446.51355
  20
290.00046
  0
VERTEX
  5
160
  8
Layer_0
  10
447.01746
  20
290.19968
  0
VERTEX
  5
161
  8
Layer_0
  10
447.50183
  20
290.45749
  0
VERTEX
  5
162
  8
Layer_0
  10
447.96667
  20
290.76999
  0
VERTEX
  5
163
  8
Layer_0
  10
448.40808
  20
291.13718
  0
VERTEX
  5
164
  8
Layer_0
  10
448.82996
  20
291.56686
  0
VERTEX
  5
165
  8
Layer_0
  10
449.22711
  20
292.06268
  0
VERTEX
  5
166
  8
Layer_0
  10
449.56702
  20
292.59711
  0
VERTEX
  5
167
  8
Layer_0
  10
449.84698
  20
293.16525
  0
VERTEX
  5
168
  8
Layer_0
  10
450.06433
  20
293.76218
  0
VERTEX
  5
169
  8
Layer_0
  10
450.23346
  20
294.38593
  0
VERTEX
  5
16a
  8
Layer_0
  10
450.35773
  20
295.01926
  0
VERTEX
  5
16b
  8
Layer_0
  10
450.43695
  20
295.65979
  0
VERTEX
  5
16c
  8
Layer_0
  10
450.47058
  20
296.30515
  0
VERTEX
  5
16d
  8
Layer_0
  10
450.47736
  20
296.85614
  0
VERTEX
  5
16e
  8
Layer_0
  10
450.45496
  20
297.40671
  0
VERTEX
  5
16f
  8
Layer_0
  10
450.38074
  20
298.07858
  0
VERTEX
  5
170
  8
Layer_0
  10
450.25964
  20
298.72702
  0
VERTEX
  5
171
  8
Layer_0
  10
450.08777
  20
299.35202
  0
VERTEX
  5
172
  8
Layer_0
  10
449.87292
  20
299.94577
  0
VERTEX
  5
173
  8
Layer_0
  10
449.62292
  20
300.49655
  0
VERTEX
  5
174
  8
Layer_0
  10
449.33386
  20
301.00046
  0
VERTEX
  5
175
  8
Layer_0
  10
449.09247
  20
301.34436
  0
VERTEX
  5
176
  8
Layer_0
  10
448.82996
  20
301.67233
  0
VERTEX
  5
177
  8
Layer_0
  10
448.48175
  20
302.0195
  0
VERTEX
  5
178
  8
Layer_0
  10
448.09967
  20
302.32697
  0
VERTEX
  5
179
  8
Layer_0
  10
447.68732
  20
302.59225
  0
VERTEX
  5
17a
  8
Layer_0
  10
447.24792
  20
302.81296
  0
VERTEX
  5
17b
  8
Layer_0
  10
446.70886
  20
303.0239
  0
VERTEX
  5
17c
  8
Layer_0
  10
446.15027
  20
303.17624
  0
VERTEX
  5
17d
  8
Layer_0
  10
445.57605
  20
303.26608
  0
VERTEX
  5
17e
  8
Layer_0
  10
444.98621
  20
303.29733
  0
VERTEX
  5
17f
  8
Layer_0
  10
444.45496
  20
303.26999
  0
VERTEX
  5
180
  8
Layer_0
  10
443.95105
  20
303.18796
  0
VERTEX
  5
181
  8
Layer_0
  10
443.47058
  20
303.05124
  0
VERTEX
  5
182
  8
Layer_0
  10
443.01746
  20
302.85983
  0
VERTEX
  5
183
  8
Layer_0
  10
442.58386
  20
302.61374
  0
VERTEX
  5
184
  8
Layer_0
  10
442.17761
  20
302.31296
  0
VERTEX
  5
185
  8
Layer_0
  10
441.79089
  20
301.9614
  0
VERTEX
  5
186
  8
Layer_0
  10
441.43152
  20
301.55124
  0
VERTEX
  5
187
  8
Layer_0
  10
441.43152
  20
307.93405
  0
VERTEX
  5
188
  8
Layer_0
  10
439.23621
  20
307.93405
  0
VERTEX
  5
189
  8
Layer_0
  10
439.23621
  20
290.03952
  0
VERTEX
  5
18a
  8
Layer_0
  10
441.27527
  20
290.03952
  0
VERTEX
  5
18b
  8
Layer_0
  10
441.27527
  20
291.66452
  0
VERTEX
  5
18c
  8
Layer_0
  10
441.59424
  20
291.23541
  0
VERTEX
  5
18d
  8
Layer_0
  10
441.96191
  20
290.85004
  0
VERTEX
  5
18e
  8
Layer_0
  10
442.37402
  20
290.51254
  0
VERTEX
  5
18f
  8
Layer_0
  10
442.82605
  20
290.22702
  0
VERTEX
  5
190
  8
Layer_0
  10
443.31348
  20
290.01245
  0
VERTEX
  5
191
  8
Layer_0
  10
443.82172
  20
289.85992
  0
VERTEX
  5
192
  8
Layer_0
  10
444.34479
  20
289.77081
  0
VERTEX
  5
193
  8
Layer_0
  10
444.87683
  20
289.74655
  0
VERTEX
  5
194
  8
Layer_0
  10
445.44324
  20
289.7739
  0
SEQEND
  0
POLYLINE
  5
196
  8
Layer_0
  62
0
  70
1
  66
1
  10
0
  20
0
  30
0
  0
VERTEX
  5
196
  8
Layer_0
  10
444.25964
  20
291.57858
  0
VERTEX
  5
197
  8
Layer_0
  10
443.85339
  20
291.66061
  0
VERTEX
  5
198
  8
Layer_0
  10
443.46667
  20
291.79343
  0
VERTEX
  5
199
  8
Layer_0
  10
443.10339
  20
291.97702
  0
VERTEX
  5
19a
  8
Layer_0
  10
442.76355
  20
292.2153
  0
VERTEX
  5
19b
  8
Layer_0
  10
442.44714
  20
292.50827
  0
VERTEX
  5
19c
  8
Layer_0
  10
442.15417
  20
292.85202
  0
VERTEX
  5
19d
  8
Layer_0
  10
441.88464
  20
293.25046
  0
VERTEX
  5
19e
  8
Layer_0
  10
441.65662
  20
293.71698
  0
VERTEX
  5
19f
  8
Layer_0
  10
441.49792
  20
294.2114
  0
VERTEX
  5
1a0
  8
Layer_0
  10
441.36371
  20
294.86871
  0
VERTEX
  5
1a1
  8
Layer_0
  10
441.29089
  20
295.53561
  0
VERTEX
  5
1a2
  8
Layer_0
  10
441.2561
  20
296.08536
  0
VERTEX
  5
1a3
  8
Layer_0
  10
441.24841
  20
296.6358
  0
VERTEX
  5
1a4
  8
Layer_0
  10
441.26782
  20
297.18597
  0
VERTEX
  5
1a5
  8
Layer_0
  10
441.31433
  20
297.73483
  0
VERTEX
  5
1a6
  8
Layer_0
  10
441.36847
  20
298.09366
  0
VERTEX
  5
1a7
  8
Layer_0
  10
441.44391
  20
298.4483
  0
VERTEX
  5
1a8
  8
Layer_0
  10
441.54053
  20
298.79773
  0
VERTEX
  5
1a9
  8
Layer_0
  10
441.65808
  20
299.14108
  0
VERTEX
  5
1aa
  8
Layer_0
  10
441.83655
  20
299.53357
  0
VERTEX
  5
1ab
  8
Layer_0
  10
442.05261
  20
299.90671
  0
VERTEX
  5
1ac
  8
Layer_0
  10
442.28351
  20
300.21957
  0
VERTEX
  5
1ad
  8
Layer_0
  10
442.5434
  20
300.50751
  0
VERTEX
  5
1ae
  8
Layer_0
  10
442.83038
  20
300.76846
  0
VERTEX
  5
1af
  8
Layer_0
  10
443.14246
  20
301.00046
  0
VERTEX
  5
1b0
  8
Layer_0
  10
443.52374
  20
301.21375
  0
VERTEX
  5
1b1
  8
Layer_0
  10
443.93024
  20
301.36755
  0
VERTEX
  5
1b2
  8
Layer_0
  10
444.35492
  20
301.4599
  0
VERTEX
  5
1b3
  8
Layer_0
  10
444.79089
  20
301.48874
  0
VERTEX
  5
1b4
  8
Layer_0
  10
445.04852
  20
301.47961
  0
VERTEX
  5
1b5
  8
Layer_0
  10
445.30402
  20
301.44843
  0
VERTEX
  5
1b6
  8
Layer_0
  10
445.55585
  20
301.39539
  0
VERTEX
  5
1b7
  8
Layer_0
  10
445.80261
  20
301.32077
  0
VERTEX
  5
1b8
  8
Layer_0
  10
446.04108
  20
301.2218
  0
VERTEX
  5
1b9
  8
Layer_0
  10
446.26984
  20
301.10306
  0
VERTEX
  5
1ba
  8
Layer_0
  10
446.48761
  20
300.96524
  0
VERTEX
  5
1bb
  8
Layer_0
  10
446.69324
  20
300.80905
  0
VERTEX
  5
1bc
  8
Layer_0
  10
446.98499
  20
300.54651
  0
VERTEX
  5
1bd
  8
Layer_0
  10
447.24579
  20
300.25467
  0
VERTEX
  5
1be
  8
Layer_0
  10
447.47351
  20
299.93634
  0
VERTEX
  5
1bf
  8
Layer_0
  10
447.66589
  20
299.59421
  0
VERTEX
  5
1c0
  8
Layer_0
  10
447.84283
  20
299.17404
  0
VERTEX
  5
1c1
  8
Layer_0
  10
447.97839
  20
298.73874
  0
VERTEX
  5
1c2
  8
Layer_0
  10
448.09503
  20
298.23291
  0
VERTEX
  5
1c3
  8
Layer_0
  10
448.1698
  20
297.71921
  0
VERTEX
  5
1c4
  8
Layer_0
  10
448.21753
  20
297.13287
  0
VERTEX
  5
1c5
  8
Layer_0
  10
448.23279
  20
296.54529
  0
VERTEX
  5
1c6
  8
Layer_0
  10
448.21558
  20
295.9577
  0
VERTEX
  5
1c7
  8
Layer_0
  10
448.16589
  20
295.37155
  0
VERTEX
  5
1c8
  8
Layer_0
  10
448.08698
  20
294.86401
  0
VERTEX
  5
1c9
  8
Layer_0
  10
447.97058
  20
294.36374
  0
VERTEX
  5
1ca
  8
Layer_0
  10
447.82733
  20
293.92804
  0
VERTEX
  5
1cb
  8
Layer_0
  10
447.64246
  20
293.50827
  0
VERTEX
  5
1cc
  8
Layer_0
  10
447.38855
  20
293.0817
  0
VERTEX
  5
1cd
  8
Layer_0
  10
447.0838
  20
292.69238
  0
VERTEX
  5
1ce
  8
Layer_0
  10
446.73218
  20
292.34479
  0
VERTEX
  5
1cf
  8
Layer_0
  10
446.33777
  20
292.04343
  0
VERTEX
  5
1d0
  8
Layer_0
  10
445.95685
  20
291.83133
  0
VERTEX
  5
1d1
  8
Layer_0
  10
445.55145
  20
291.67728
  0
VERTEX
  5
1d2
  8
Layer_0
  10
445.12799
  20
291.58325
  0
VERTEX
  5
1d3
  8
Layer_0
  10
444.69324
  20
291.55124
  0
VERTEX
  5
1d4
  8
Layer_0
  10
444.25964
  20
291.57858
  0
SEQEND
  0
POLYLINE
  5
1d6
  8
Layer_0
  62
0
  70
1
  66
1
  10
0
  20
0
  30
0
  0
VERTEX
  5
1d6
  8
Layer_0
  10
443.31433
  20
233.88911
  0
VERTEX
  5
1d7
  8
Layer_0
  10
443.8573
  20
233.97505
  0
VERTEX
  5
1d8
  8
Layer_0
  10
444.38464
  20
234.11568
  0
VERTEX
  5
1d9
  8
Layer_0
  10
444.88855
  20
234.3149
  0
VERTEX
  5
1da
  8
Layer_0
  10
445.37292
  20
234.57271
  0
VERTEX
  5
1db
  8
Layer_0
  10
445.83777
  20
234.88521
  0
VERTEX
  5
1dc
  8
Layer_0
  10
446.27917
  20
235.2524
  0
VERTEX
  5
1dd
  8
Layer_0
  10
446.70105
  20
235.68208
  0
VERTEX
  5
1de
  8
Layer_0
  10
447.09821
  20
236.17792
  0
VERTEX
  5
1df
  8
Layer_0
  10
447.43811
  20
236.71234
  0
VERTEX
  5
1e0
  8
Layer_0
  10
447.71808
  20
237.28049
  0
VERTEX
  5
1e1
  8
Layer_0
  10
447.93542
  20
237.8774
  0
VERTEX
  5
1e2
  8
Layer_0
  10
448.10455
  20
238.50113
  0
VERTEX
  5
1e3
  8
Layer_0
  10
448.22882
  20
239.13446
  0
VERTEX
  5
1e4
  8
Layer_0
  10
448.30804
  20
239.77501
  0
VERTEX
  5
1e5
  8
Layer_0
  10
448.34167
  20
240.42036
  0
VERTEX
  5
1e6
  8
Layer_0
  10
448.34845
  20
240.97136
  0
VERTEX
  5
1e7
  8
Layer_0
  10
448.32605
  20
241.52193
  0
VERTEX
  5
1e8
  8
Layer_0
  10
448.25183
  20
242.19382
  0
VERTEX
  5
1e9
  8
Layer_0
  10
448.13074
  20
242.84224
  0
VERTEX
  5
1ea
  8
Layer_0
  10
447.95886
  20
243.46724
  0
VERTEX
  5
1eb
  8
Layer_0
  10
447.74402
  20
244.06099
  0
VERTEX
  5
1ec
  8
Layer_0
  10
447.49402
  20
244.61176
  0
VERTEX
  5
1ed
  8
Layer_0
  10
447.20496
  20
245.11568
  0
VERTEX
  5
1ee
  8
Layer_0
  10
446.96356
  20
245.45956
  0
VERTEX
  5
1ef
  8
Layer_0
  10
446.70105
  20
245.78757
  0
VERTEX
  5
1f0
  8
Layer_0
  10
446.35284
  20
246.13472
  0
VERTEX
  5
1f1
  8
Layer_0
  10
445.97076
  20
246.44217
  0
VERTEX
  5
1f2
  8
Layer_0
  10
445.55841
  20
246.70747
  0
VERTEX
  5
1f3
  8
Layer_0
  10
445.11902
  20
246.92818
  0
VERTEX
  5
1f4
  8
Layer_0
  10
444.57996
  20
247.13911
  0
VERTEX
  5
1f5
  8
Layer_0
  10
444.02136
  20
247.29146
  0
VERTEX
  5
1f6
  8
Layer_0
  10
443.44714
  20
247.38132
  0
VERTEX
  5
1f7
  8
Layer_0
  10
442.8573
  20
247.41257
  0
VERTEX
  5
1f8
  8
Layer_0
  10
442.32605
  20
247.38521
  0
VERTEX
  5
1f9
  8
Layer_0
  10
441.82214
  20
247.30318
  0
VERTEX
  5
1fa
  8
Layer_0
  10
441.34167
  20
247.16646
  0
VERTEX
  5
1fb
  8
Layer_0
  10
440.88855
  20
246.97507
  0
VERTEX
  5
1fc
  8
Layer_0
  10
440.45496
  20
246.72896
  0
VERTEX
  5
1fd
  8
Layer_0
  10
440.04871
  20
246.42818
  0
VERTEX
  5
1fe
  8
Layer_0
  10
439.66199
  20
246.07661
  0
VERTEX
  5
1ff
  8
Layer_0
  10
439.30261
  20
245.66646
  0
VERTEX
  5
200
  8
Layer_0
  10
439.30261
  20
252.04926
  0
VERTEX
  5
201
  8
Layer_0
  10
437.1073
  20
252.04926
  0
VERTEX
  5
202
  8
Layer_0
  10
437.1073
  20
234.15474
  0
VERTEX
  5
203
  8
Layer_0
  10
439.14636
  20
234.15474
  0
VERTEX
  5
204
  8
Layer_0
  10
439.14636
  20
235.77974
  0
VERTEX
  5
205
  8
Layer_0
  10
439.46533
  20
235.35062
  0
VERTEX
  5
206
  8
Layer_0
  10
439.83301
  20
234.96524
  0
VERTEX
  5
207
  8
Layer_0
  10
440.24512
  20
234.62776
  0
VERTEX
  5
208
  8
Layer_0
  10
440.69714
  20
234.34224
  0
VERTEX
  5
209
  8
Layer_0
  10
441.18457
  20
234.12766
  0
VERTEX
  5
20a
  8
Layer_0
  10
441.69281
  20
233.97513
  0
VERTEX
  5
20b
  8
Layer_0
  10
442.21588
  20
233.88605
  0
VERTEX
  5
20c
  8
Layer_0
  10
442.74792
  20
233.86177
  0
VERTEX
  5
20d
  8
Layer_0
  10
443.31433
  20
233.88911
  0
SEQEND
  0
POLYLINE
  5
20f
  8
Layer_0
  62
0
  70
1
  66
1
  10
0
  20
0
  30
0
  0
VERTEX
  5
20f
  8
Layer_0
  10
442.13074
  20
235.69382
  0
VERTEX
  5
210
  8
Layer_0
  10
441.72449
  20
235.77583
  0
VERTEX
  5
211
  8
Layer_0
  10
441.33777
  20
235.90865
  0
VERTEX
  5
212
  8
Layer_0
  10
440.97449
  20
236.09224
  0
VERTEX
  5
213
  8
Layer_0
  10
440.63464
  20
236.33051
  0
VERTEX
  5
214
  8
Layer_0
  10
440.31824
  20
236.62349
  0
VERTEX
  5
215
  8
Layer_0
  10
440.02527
  20
236.96724
  0
VERTEX
  5
216
  8
Layer_0
  10
439.75574
  20
237.36568
  0
VERTEX
  5
217
  8
Layer_0
  10
439.52771
  20
237.83218
  0
VERTEX
  5
218
  8
Layer_0
  10
439.36902
  20
238.32661
  0
VERTEX
  5
219
  8
Layer_0
  10
439.2348
  20
238.98395
  0
VERTEX
  5
21a
  8
Layer_0
  10
439.16199
  20
239.65083
  0
VERTEX
  5
21b
  8
Layer_0
  10
439.1272
  20
240.20056
  0
VERTEX
  5
21c
  8
Layer_0
  10
439.11951
  20
240.75104
  0
VERTEX
  5
21d
  8
Layer_0
  10
439.13892
  20
241.30118
  0
VERTEX
  5
21e
  8
Layer_0
  10
439.18542
  20
241.85007
  0
VERTEX
  5
21f
  8
Layer_0
  10
439.23956
  20
242.20889
  0
VERTEX
  5
220
  8
Layer_0
  10
439.315
  20
242.56351
  0
VERTEX
  5
221
  8
Layer_0
  10
439.41162
  20
242.91296
  0
VERTEX
  5
222
  8
Layer_0
  10
439.52917
  20
243.25632
  0
VERTEX
  5
223
  8
Layer_0
  10
439.70764
  20
243.64879
  0
VERTEX
  5
224
  8
Layer_0
  10
439.92371
  20
244.02193
  0
VERTEX
  5
225
  8
Layer_0
  10
440.1546
  20
244.33479
  0
VERTEX
  5
226
  8
Layer_0
  10
440.41449
  20
244.62271
  0
VERTEX
  5
227
  8
Layer_0
  10
440.70148
  20
244.88367
  0
VERTEX
  5
228
  8
Layer_0
  10
441.01355
  20
245.11568
  0
VERTEX
  5
229
  8
Layer_0
  10
441.39484
  20
245.32893
  0
VERTEX
  5
22a
  8
Layer_0
  10
441.80133
  20
245.48277
  0
VERTEX
  5
22b
  8
Layer_0
  10
442.22601
  20
245.57512
  0
VERTEX
  5
22c
  8
Layer_0
  10
442.66199
  20
245.60396
  0
VERTEX
  5
22d
  8
Layer_0
  10
442.91962
  20
245.59483
  0
VERTEX
  5
22e
  8
Layer_0
  10
443.17511
  20
245.56364
  0
VERTEX
  5
22f
  8
Layer_0
  10
443.42694
  20
245.51062
  0
VERTEX
  5
230
  8
Layer_0
  10
443.67371
  20
245.43599
  0
VERTEX
  5
231
  8
Layer_0
  10
443.91217
  20
245.33701
  0
VERTEX
  5
232
  8
Layer_0
  10
444.14093
  20
245.21826
  0
VERTEX
  5
233
  8
Layer_0
  10
444.3587
  20
245.08046
  0
VERTEX
  5
234
  8
Layer_0
  10
444.56433
  20
244.92426
  0
VERTEX
  5
235
  8
Layer_0
  10
444.85608
  20
244.6617
  0
VERTEX
  5
236
  8
Layer_0
  10
445.11688
  20
244.36989
  0
VERTEX
  5
237
  8
Layer_0
  10
445.3446
  20
244.05156
  0
VERTEX
  5
238
  8
Layer_0
  10
445.53699
  20
243.70943
  0
VERTEX
  5
239
  8
Layer_0
  10
445.71393
  20
243.28928
  0
VERTEX
  5
23a
  8
Layer_0
  10
445.84949
  20
242.85396
  0
VERTEX
  5
23b
  8
Layer_0
  10
445.96613
  20
242.34813
  0
VERTEX
  5
23c
  8
Layer_0
  10
446.04089
  20
241.83443
  0
VERTEX
  5
23d
  8
Layer_0
  10
446.08862
  20
241.24811
  0
VERTEX
  5
23e
  8
Layer_0
  10
446.10388
  20
240.66049
  0
VERTEX
  5
23f
  8
Layer_0
  10
446.08667
  20
240.07294
  0
VERTEX
  5
240
  8
Layer_0
  10
446.03699
  20
239.48676
  0
VERTEX
  5
241
  8
Layer_0
  10
445.95807
  20
238.97923
  0
VERTEX
  5
242
  8
Layer_0
  10
445.84167
  20
238.47896
  0
VERTEX
  5
243
  8
Layer_0
  10
445.69843
  20
238.04324
  0
VERTEX
  5
244
  8
Layer_0
  10
445.51355
  20
237.62349
  0
VERTEX
  5
245
  8
Layer_0
  10
445.25964
  20
237.19691
  0
VERTEX
  5
246
  8
Layer_0
  10
444.9549
  20
236.80759
  0
VERTEX
  5
247
  8
Layer_0
  10
444.60327
  20
236.46001
  0
VERTEX
  5
248
  8
Layer_0
  10
444.20886
  20
236.15865
  0
VERTEX
  5
249
  8
Layer_0
  10
443.82794
  20
235.94653
  0
VERTEX
  5
24a
  8
Layer_0
  10
443.42255
  20
235.79248
  0
VERTEX
  5
24b
  8
Layer_0
  10
442.99908
  20
235.69846
  0
VERTEX
  5
24c
  8
Layer_0
  10
442.56433
  20
235.66646
  0
VERTEX
  5
24d
  8
Layer_0
  10
442.13074
  20
235.69382
  0
SEQEND
  0
ENDSEC
  0
EOF
