0
SECTION
2
HEADER
9
$INSUNITS
70
4
9
$ACADVER
1
AC1014
9
$HANDSEED
5
FFFF
0
ENDSEC
0
SECTION
2
TABLES
0
TABLE
2
VPORT
5
8
100
AcDbSymbolTable
0
ENDTAB
0
TABLE
2
LTYPE
5
5
100
AcDbSymbolTable
0
LTYPE
5
14
100
AcDbSymbolTableRecord
100
AcDbLinetypeTableRecord
2
BYBLOCK
70
0
0
LTYPE
5
15
100
AcDbSymbolTableRecord
100
AcDbLinetypeTableRecord
2
BYLAYER
70
0
0
ENDTAB
0
TABLE
2
LAYER
5
2
100
AcDbSymbolTable
70
2
0
LAYER
5
50
100
AcDbSymbolTableRecord
100
AcDbLayerTableRecord
2
0
70
0
6
CONTINUOUS
0
ENDTAB
0
TABLE
2
STYLE
5
3
100
AcDbSymbolTable
70
1
0
STYLE
5
11
100
AcDbSymbolTableRecord
100
AcDbTextStyleTableRecord
2
STANDARD
70
0
0
ENDTAB
0
TABLE
2
VIEW
5
6
100
AcDbSymbolTable
70
0
0
ENDTAB
0
TABLE
2
UCS
5
7
100
AcDbSymbolTable
70
0
0
ENDTAB
0
TABLE
2
APPID
5
9
100
AcDbSymbolTable
70
2
0
APPID
5
12
100
AcDbSymbolTableRecord
100
AcDbRegAppTableRecord
2
ACAD
70
0
0
ENDTAB
0
TABLE
2
DIMSTYLE
5
A
100
AcDbSymbolTable
70
1
0
ENDTAB
0
TABLE
2
BLOCK_RECORD
5
1
100
AcDbSymbolTable
70
1
0
BLOCK_RECORD
5
1F
100
AcDbSymbolTableRecord
100
AcDbBlockTableRecord
2
*MODEL_SPACE
0
BLOCK_RECORD
5
1B
100
AcDbSymbolTableRecord
100
AcDbBlockTableRecord
2
*PAPER_SPACE
0
ENDTAB
0
ENDSEC
0
SECTION
2
BLOCKS
0
BLOCK
5
20
100
AcDbEntity
100
AcDbBlockBegin
2
*MODEL_SPACE
0
ENDBLK
5
21
100
AcDbEntity
100
AcDbBlockEnd
0
BLOCK
5
1C
100
AcDbEntity
100
AcDbBlockBegin
2
*PAPER_SPACE
0
ENDBLK
5
1D
100
AcDbEntity
100
AcDbBlockEnd
0
ENDSEC
0
SECTION
2
ENTITIES
0
LWPOLYLINE
5
100
100
AcDbEntity
8
0
100
AcDbPolyline
90
76
70
1
43
0.0
10
101.81562202041859
20
-54.226406872165072
10
81.815622020418516
20
-74.226406872165072
10
81.81562202041853
20
-186.0000000009735
10
101.8156220204186
20
-206.0000000009737
10
101.81562202041859
20
-236.0000000009737
10
91.815622020418516
20
-236.00000000097367
10
91.815622020418516
20
-242.00000000097367
10
81.815622020418516
20
-242.00000000097373
10
81.815622020418516
20
-236.0000000009737
10
71.815622020418488
20
-236.00000000097367
10
71.815622020418488
20
-242.00000000097367
10
61.815622020418488
20
-242.00000000097373
10
61.815622020418488
20
-236.0000000009737
10
51.815622020418488
20
-236.00000000097367
10
51.815622020418473
20
-242.00000000097367
10
41.815622020418495
20
-242.00000000097378
10
41.815622020418516
20
-236.00000000097378
10
31.815622020418509
20
-236.00000000097373
10
31.815622020418502
20
-242.00000000097376
10
21.815622020418523
20
-242.00000000097378
10
21.815622020418537
20
-236.00000000097378
10
11.815622020418534
20
-236.00000000097378
10
11.815622020418532
20
-242.00000000097376
10
1.8156220204185312
20
-242.00000000097378
10
1.8156220204185292
20
-236.00000000097378
10
-8.1843779795814733
20
-236.00000000097373
10
-8.184377979581468
20
-242.00000000097376
10
-18.184377979581477
20
-242.00000000097378
10
-18.184377979581463
20
-236.00000000097378
10
-28.184377979581466
20
-236.00000000097373
10
-28.184377979581463
20
-242.00000000097376
10
-38.184377979581434
20
-242.00000000097177
10
-38.184377979581512
20
-187.00000000097177
10
-58.184377979581576
20
-167.00000000097168
10
-58.184377979581576
20
-120.00000000097172
10
-38.184377979581583
20
-100.00000000097177
10
-38.184377979581583
20
59.999999999028226
10
-58.184377979581583
20
79.999999999028319
10
-58.184377979581605
20
166.99999999902838
10
-38.184377979581583
20
186.99999999902829
10
-38.184377979581562
20
196.99999999902829
10
-32.184377979581569
20
196.99999999902832
10
-32.184377979581555
20
206.99999999902832
10
-38.184377979581548
20
206.99999999902832
10
-38.184377979581534
20
216.99999999902832
10
-32.184377979581541
20
216.99999999902832
10
-32.184377979581534
20
226.99999999902832
10
-38.184377979581534
20
226.99999999902829
10
-38.184377979581527
20
241.99999999902838
10
-28.184377979581456
20
241.9999999990284
10
-28.18437797958147
20
235.99999999902838
10
-18.18437797958147
20
235.99999999902835
10
-18.184377979581473
20
241.99999999902838
10
-8.1843779795814644
20
241.9999999990284
10
-8.1843779795814715
20
235.99999999902838
10
1.8156220204185312
20
235.99999999902835
10
1.8156220204185325
20
241.99999999902838
10
11.815622020418534
20
241.9999999990284
10
11.815622020418537
20
235.99999999902843
10
21.815622020418537
20
235.99999999902835
10
21.815622020418523
20
241.99999999902838
10
31.815622020418509
20
241.9999999990284
10
31.815622020418495
20
235.99999999902838
10
41.815622020418495
20
235.99999999902835
10
41.815622020418502
20
241.99999999902838
10
51.815622020418488
20
241.99999999902832
10
51.815622020418488
20
235.99999999902832
10
61.815622020418488
20
235.99999999902826
10
61.815622020418495
20
241.99999999902829
10
71.815622020418488
20
241.99999999902832
10
71.815622020418488
20
235.99999999902832
10
81.815622020418516
20
235.99999999902826
10
81.815622020418516
20
241.99999999902829
10
91.815622020418516
20
241.99999999902832
10
91.81562202041853
20
235.99999999902832
10
101.8156220204186
20
235.99999999902832
0
CIRCLE
5
101
100
AcDbEntity
8
0
100
AcDbCircle
10
96.815622020418331
20
-20.00000000097176
30
0
40
1.600000000000001
0
CIRCLE
5
102
100
AcDbEntity
8
0
100
AcDbCircle
10
66.815622020418331
20
-50.000000000971752
30
0
40
1.600000000000001
0
CIRCLE
5
103
100
AcDbEntity
8
0
100
AcDbCircle
10
66.815622020418331
20
9.9999999990282458
30
0
40
1.600000000000001
0
LWPOLYLINE
5
104
100
AcDbEntity
8
0
100
AcDbPolyline
90
4
70
1
43
0.0
10
7.8156220204185303
20
-227.00000000097373
10
7.8156220204185125
20
-217.00000000097373
10
1.8156220204185134
20
-217.00000000097373
10
1.8156220204185325
20
-227.00000000097373
0
LWPOLYLINE
5
105
100
AcDbEntity
8
0
100
AcDbPolyline
90
4
70
1
43
0.0
10
7.8156220204185303
20
-207.00000000097367
10
7.8156220204185125
20
-197.00000000097367
10
1.8156220204185312
20
-197.00000000097373
10
1.8156220204185325
20
-207.00000000097373
0
CIRCLE
5
106
100
AcDbEntity
8
0
100
AcDbCircle
10
-4.7043779795814551
20
90.749999999028432
30
0
40
1.1500000000000001
0
CIRCLE
5
107
100
AcDbEntity
8
0
100
AcDbCircle
10
91.815622020418516
20
185.99999999902826
30
0
40
1.1500000000000001
0
CIRCLE
5
108
100
AcDbEntity
8
0
100
AcDbCircle
10
91.815622020418516
20
90.749999999028262
30
0
40
1.1500000000000001
0
CIRCLE
5
109
100
AcDbEntity
8
0
100
AcDbCircle
10
-4.7043779795815173
20
185.99999999902846
30
0
40
1.1500000000000001
0
LWPOLYLINE
5
110
100
AcDbEntity
8
0
100
AcDbPolyline
90
4
70
1
43
0.0
10
7.8156220204185125
20
216.99999999902832
10
7.8156220204185303
20
226.99999999902832
10
1.8156220204185312
20
226.99999999902832
10
1.8156220204185147
20
216.99999999902832
0
LWPOLYLINE
5
111
100
AcDbEntity
8
0
100
AcDbPolyline
90
4
70
1
43
0.0
10
7.8156220204185125
20
196.99999999902832
10
7.8156220204185303
20
206.99999999902832
10
1.8156220204185312
20
206.99999999902829
10
1.8156220204185325
20
196.99999999902829
0
LWPOLYLINE
5
112
100
AcDbEntity
8
0
100
AcDbPolyline
90
4
70
1
43
0.0
10
71.815622020418331
20
-17.000000000971763
42
-0.99999999999999989
10
71.815622020418331
20
-23.00000000097176
10
61.815622020418346
20
-23.00000000097176
42
-0.99999999999999989
10
61.815622020418324
20
-17.000000000971763
0
LWPOLYLINE
5
113
100
AcDbEntity
8
0
100
AcDbPolyline
90
4
70
1
43
0.0
10
-18.18437797958169
20
73.999999999028262
42
-0.99999999999999989
10
-18.184377979581701
20
67.999999999028262
10
-28.184377979581704
20
67.999999999028262
42
-0.99999999999999989
10
-28.184377979581697
20
73.999999999028262
0
LWPOLYLINE
5
114
100
AcDbEntity
8
0
100
AcDbPolyline
90
4
70
1
43
0.0
10
-18.184377979581654
20
-108.00000000097178
42
-0.99999999999999989
10
-18.184377979581619
20
-114.0000000009718
10
-28.184377979581598
20
-114.0000000009718
42
-0.99999999999999989
10
-28.184377979581633
20
-108.00000000097178
0
LWPOLYLINE
5
115
100
AcDbEntity
8
0
100
AcDbPolyline
90
4
70
1
43
0.0
10
97.815622020418672
20
230.99999999902832
10
97.815622020418672
20
226.99999999902832
10
99.815622020418658
20
226.99999999902832
10
99.815622020418658
20
230.99999999902832
0
CIRCLE
5
116
100
AcDbEntity
8
0
100
AcDbCircle
10
91.815622020418587
20
220.99999999902832
30
0
40
1.1500000000000001
0
CIRCLE
5
117
100
AcDbEntity
8
0
100
AcDbCircle
10
-4.7043779795814284
20
125.74999999902826
30
0
40
1.1500000000000001
0
CIRCLE
5
118
100
AcDbEntity
8
0
100
AcDbCircle
10
91.815622020418587
20
125.74999999902826
30
0
40
1.1500000000000001
0
CIRCLE
5
119
100
AcDbEntity
8
0
100
AcDbCircle
10
-4.704377979581464
20
220.99999999902832
30
0
40
1.1500000000000001
0
CIRCLE
5
120
100
AcDbEntity
8
0
100
AcDbCircle
10
-22.184377979581519
20
-202.00000000097185
30
1.7763568394002505e-14
40
1.6500000000000008
0
CIRCLE
5
121
100
AcDbEntity
8
0
100
AcDbCircle
10
-22.184377979581456
20
-222.00000000097185
30
1.7763568394002505e-14
40
1.6500000000000006
0
CIRCLE
5
122
100
AcDbEntity
8
0
100
AcDbCircle
10
-13.184377979582738
20
211.9999999990284
30
0
40
1.6500000000000008
0
CIRCLE
5
123
100
AcDbEntity
8
0
100
AcDbCircle
10
-22.184377979582692
20
201.99999999902838
30
0
40
1.6500000000000008
0
CIRCLE
5
124
100
AcDbEntity
8
0
100
AcDbCircle
10
-22.184377979582752
20
221.99999999902838
30
0
40
1.6500000000000008
0
CIRCLE
5
125
100
AcDbEntity
8
0
100
AcDbCircle
10
-13.184377979581503
20
-212.0000000009718
30
0
40
1.6500000000000006
0
LWPOLYLINE
5
126
100
AcDbEntity
8
0
100
AcDbPolyline
90
4
70
1
43
0.0
10
-38.184377979581669
20
149.92893218716284
10
-38.184377979581598
20
179.92893218716284
10
-53.184377979581569
20
164.92893218716293
10
-53.184377979581626
20
134.92893218716296
0
LWPOLYLINE
5
127
100
AcDbEntity
8
0
100
AcDbPolyline
90
4
70
1
43
0.0
10
-53.184377979581683
20
109.47308806444723
10
-38.184377979581711
20
124.47308806444711
10
-38.184377979581697
20
130.12994231393949
10
-53.184377979581654
20
115.12994231393962
0
LWPOLYLINE
5
128
100
AcDbEntity
8
0
100
AcDbPolyline
90
4
70
1
43
0.0
10
-53.18437797958174
20
84.017243941731522
10
-38.184377979581761
20
99.017243941731422
10
-38.184377979581754
20
104.67409819122379
10
-53.184377979581711
20
89.674098191223919
0
LWPOLYLINE
5
129
100
AcDbEntity
8
0
100
AcDbPolyline
90
4
70
1
43
0.0
10
-53.184377979581697
20
96.745166003089395
10
-38.18437797958174
20
111.74516600308928
10
-38.184377979581726
20
117.40202025258165
10
-53.18437797958169
20
102.40202025258176
0
LWPOLYLINE
5
130
100
AcDbEntity
8
0
100
AcDbPolyline
90
4
70
1
43
0.0
10
-53.184377979581647
20
122.20101012580507
10
-38.184377979581683
20
137.20101012580497
10
-38.184377979581676
20
142.85786437529734
10
-53.18437797958164
20
127.85786437529745
0
CIRCLE
5
131
100
AcDbEntity
8
0
100
AcDbCircle
10
-3.1843779795816136
20
-111.00000000097174
30
0
40
1.6500000000000006
0
CIRCLE
5
132
100
AcDbEntity
8
0
100
AcDbCircle
10
46.815622020418566
20
70.999999999028248
30
0
40
1.6500000000000006
0
CIRCLE
5
133
100
AcDbEntity
8
0
100
AcDbCircle
10
-3.1843779795814982
20
70.999999999028319
30
0
40
1.6500000000000006
0
CIRCLE
5
134
100
AcDbEntity
8
0
100
AcDbCircle
10
46.815622020418459
20
-111.00000000097174
30
0
40
1.6500000000000006
0
LWPOLYLINE
5
135
100
AcDbEntity
8
0
100
AcDbPolyline
90
4
70
1
43
0.0
10
16.815622020418324
20
2.9999999990282173
42
-0.99999999999999989
10
16.815622020418324
20
-3.0000000009717871
10
-3.1843779795816762
20
-3.0000000009717871
42
-0.99999999999999989
10
-3.184377979581674
20
2.9999999990282196
0
LWPOLYLINE
5
136
100
AcDbEntity
8
0
100
AcDbPolyline
90
4
70
1
43
0.0
10
16.815622020418338
20
-37.000000000971802
42
-0.99999999999999989
10
16.815622020418324
20
-43.000000000971795
10
-3.1843779795816793
20
-43.000000000971795
42
-0.99999999999999989
10
-3.1843779795816829
20
-37.000000000971788
0
ENDSEC
0
SECTION
2
OBJECTS
0
DICTIONARY
5
C
100
AcDbDictionary
3
ACAD_GROUP
350
D
3
ACAD_MLINESTYLE
350
17
0
DICTIONARY
5
D
100
AcDbDictionary
0
DICTIONARY
5
1A
330
C
100
AcDbDictionary
0
DICTIONARY
5
17
100
AcDbDictionary
0
ENDSEC
0
EOF
