  0
SECTION
  2
HEADER
  9
$ACADVER
  1
AC1009
  9
$INSBASE
 10
0.0
 20
0.0
 30
0.0
  9
$EXTMIN
 10
203.665158
 20
365.875612
 30
0.0
  9
$EXTMAX
 10
521.185158
 20
615.875612
 30
0.0
  9
$LIMMIN
 10
0.0
 20
0.0
  9
$LIMMAX
 10
1189.0
 20
841.0
  9
$ORTHOMODE
 70
     1
  9
$REGENMODE
 70
     1
  9
$FILLMODE
 70
     1
  9
$QTEXTMODE
 70
     0
  9
$MIRRTEXT
 70
     0
  9
$DRAGMODE
 70
     2
  9
$LTSCALE
 40
1.0
  9
$OSMODE
 70
     0
  9
$ATTMODE
 70
     1
  9
$TEXTSIZE
 40
3.5
  9
$TRACEWID
 40
1.0
  9
$TEXTSTYLE
  7
ISO_8
  9
$CLAYER
  8
01_DREHEN
  9
$CELTYPE
  6
BYLAYER
  9
$CECOLOR
 62
   256
  9
$DIMSCALE
 40
1.0
  9
$DIMASZ
 40
3.5
  9
$DIMEXO
 40
0.0
  9
$DIMDLI
 40
7.0
  9
$DIMRND
 40
0.0
  9
$DIMDLE
 40
0.0
  9
$DIMEXE
 40
1.8
  9
$DIMTP
 40
0.0
  9
$DIMTM
 40
0.0
  9
$DIMTXT
 40
3.5
  9
$DIMCEN
 40
1.5
  9
$DIMTSZ
 40
0.0
  9
$DIMTOL
 70
     0
  9
$DIMLIM
 70
     0
  9
$DIMTIH
 70
     0
  9
$DIMTOH
 70
     0
  9
$DIMSE1
 70
     0
  9
$DIMSE2
 70
     0
  9
$DIMTAD
 70
     1
  9
$DIMZIN
 70
     8
  9
$DIMBLK
  1

  9
$DIMASO
 70
     1
  9
$DIMSHO
 70
     1
  9
$DIMPOST
  1

  9
$DIMAPOST
  1

  9
$DIMALT
 70
     0
  9
$DIMALTD
 70
     2
  9
$DIMALTF
 40
25.4
  9
$DIMLFAC
 40
1.0
  9
$DIMTOFL
 70
     0
  9
$DIMTVP
 40
0.0
  9
$DIMTIX
 70
     0
  9
$DIMSOXD
 70
     0
  9
$DIMSAH
 70
     0
  9
$DIMBLK1
  1

  9
$DIMBLK2
  1

  9
$DIMSTYLE
  2
HAIBUCH_NORMAL
  9
$DIMCLRD
 70
     0
  9
$DIMCLRE
 70
     0
  9
$DIMCLRT
 70
     2
  9
$DIMTFAC
 40
1.0
  9
$DIMGAP
 40
0.0
  9
$LUNITS
 70
     2
  9
$LUPREC
 70
     3
  9
$AXISMODE
 70
     0
  9
$AXISUNIT
 10
0.0
 20
0.0
  9
$SKETCHINC
 40
1.0
  9
$FILLETRAD
 40
0.8
  9
$AUNITS
 70
     0
  9
$AUPREC
 70
     3
  9
$MENU
  1
acad
  9
$ELEVATION
 40
0.0
  9
$PELEVATION
 40
0.0
  9
$THICKNESS
 40
0.0
  9
$LIMCHECK
 70
     1
  9
$BLIPMODE
 70
     0
  9
$CHAMFERA
 40
20.0
  9
$CHAMFERB
 40
20.0
  9
$SKPOLY
 70
     1
  9
$TDCREATE
 40
1759436.821412037
  9
$TDUPDATE
 40
1759436.821412037
  9
$TDINDWG
 40
6.0000000000
  9
$TDUSRTIMER
 40
6.0000000000
  9
$USRTIMER
 70
     1
  9
$ANGBASE
 50
0.0
  9
$ANGDIR
 70
     0
  9
$PDMODE
 70
     0
  9
$PDSIZE
 40
0.0
  9
$PLINEWID
 40
0.0
  9
$COORDS
 70
     2
  9
$SPLFRAME
 70
     0
  9
$SPLINETYPE
 70
     6
  9
$SPLINESEGS
 70
     8
  9
$ATTDIA
 70
     1
  9
$ATTREQ
 70
     1
  9
$HANDLING
 70
     1
  9
$HANDSEED
  5
A7C7
  9
$SURFTAB1
 70
     6
  9
$SURFTAB2
 70
     6
  9
$SURFTYPE
 70
     6
  9
$SURFU
 70
     6
  9
$SURFV
 70
     6
  9
$UCSNAME
  2

  9
$UCSORG
 10
0.0
 20
0.0
 30
0.0
  9
$UCSXDIR
 10
1.0
 20
0.0
 30
0.0
  9
$UCSYDIR
 10
0.0
 20
1.0
 30
0.0
  9
$PUCSNAME
  2

  9
$PUCSORG
 10
0.0
 20
0.0
 30
0.0
  9
$PUCSXDIR
 10
1.0
 20
0.0
 30
0.0
  9
$PUCSYDIR
 10
0.0
 20
1.0
 30
0.0
  9
$USERI1
 70
     0
  9
$USERI2
 70
     0
  9
$USERI3
 70
     0
  9
$USERI4
 70
     0
  9
$USERI5
 70
     0
  9
$USERR1
 40
0.0
  9
$USERR2
 40
0.0
  9
$USERR3
 40
1.0
  9
$USERR4
 40
0.0
  9
$USERR5
 40
0.0
  9
$WORLDVIEW
 70
     1
  9
$SHADEDGE
 70
     1
  9
$SHADEDIF
 70
    70
  9
$TILEMODE
 70
     1
  9
$MAXACTVP
 70
    16
  9
$PINSBASE
 10
0.0
 20
0.0
 30
0.0
  9
$PLIMCHECK
 70
     0
  9
$PEXTMIN
 10
1.000000E+20
 20
1.000000E+20
 30
1.000000E+20
  9
$PEXTMAX
 10
-1.000000E+20
 20
-1.000000E+20
 30
-1.000000E+20
  9
$PLIMMIN
 10
0.0
 20
0.0
  9
$PLIMMAX
 10
12.0
 20
9.0
  9
$UNITMODE
 70
     0
  9
$VISRETAIN
 70
     0
  9
$PLINEGEN
 70
     0
  9
$PSLTSCALE
 70
     1
  9
$TREEDEPTH
 70
  3020
  9
$DWGCODEPAGE
  3
dos850
  0
ENDSEC
  0
SECTION
  2
TABLES
  0
TABLE
  2
VPORT
 70
     1
  0
VPORT
  2
*ACTIVE
 70
     0
 10
0.0
 20
0.0
 11
1.0
 21
1.0
 12
362.425158
 22
490.875612
 13
0.0
 23
0.0
 14
0.5
 24
0.5
 15
5.0
 25
5.0
 16
0.0
 26
0.0
 36
1.0
 17
0.0
 27
0.0
 37
0.0
 40
262.5
 41
1.27008
 42
50.0
 43
0.0
 44
0.0
 50
0.0
 51
0.0
 71
     0
 72
  2000
 73
     1
 74
     1
 75
     0
 76
     0
 77
     0
 78
     0
  0
ENDTAB
  0
TABLE
  2
LTYPE
 70
    30
  0
LTYPE
  2
CONTINUOUS
 70
     0
  3
Solid line
 72
    65
 73
     0
 40
0.0
  0
LTYPE
  2
AUSGEZOGEN
 70
     0
  3
Ausgezogene Linie
 72
    65
 73
     0
 40
0.0
  0
LTYPE
  2
MITTELLINIE-KURZ
 70
     0
  3
__ _ __ _ __ _ __ _ __ _ __ _ __ _ __ _ __ _ __ _ __
 72
    65
 73
     4
 40
11.0
 49
5.0
 49
-2.5
 49
1.0
 49
-2.5
  0
LTYPE
  2
MITTELLINIE-MITT
 70
     0
  3
____ _ ____ _ ____ _ ____ _ ____ _ ____ _ ____ _ ____
 72
    65
 73
     4
 40
20.0
 49
12.5
 49
-2.5
 49
2.5
 49
-2.5
  0
LTYPE
  2
MITTELLINIE-LANG
 70
     0
  3
_________  __  _________  __  _________  __  ________
 72
    65
 73
     4
 40
35.0
 49
20.0
 49
-5.0
 49
5.0
 49
-5.0
  0
LTYPE
  2
UMRISS-KURZ
 70
     0
  3
___ _ _ ___ _ _ ___ _ _ ___ _ _ ___ __ ___ _ _ ___ _ _ ___
 72
    65
 73
     6
 40
10.5
 49
5.0
 49
-1.5
 49
0.5
 49
-1.5
 49
0.5
 49
-1.5
  0
LTYPE
  2
UMRISS-MITT
 70
     0
  3
____ _ ____ _ ____ _ ____ _ ____ _ ____ _ ____ _ ____
 72
    65
 73
     6
 40
25.0
 49
12.5
 49
-2.5
 49
2.5
 49
-2.5
 49
2.5
 49
-2.5
  0
LTYPE
  2
UMRISS-LANG
 70
     0
  3
_________  __  _________  __  _________  __  ________
 72
    65
 73
     6
 40
45.0
 49
20.0
 49
-5.0
 49
5.0
 49
-5.0
 49
5.0
 49
-5.0
  0
LTYPE
  2
PUNKTLINIE-KURZ
 70
     0
  3
................................................................
 72
    65
 73
     2
 40
1.25
 49
0.0
 49
-1.25
  0
LTYPE
  2
PUNKTLINIE-MITT
 70
     0
  3
. . . . . . . . . . . . . . . . . . . . . . . . . . . . . . . . .
 72
    65
 73
     2
 40
2.5
 49
0.0
 49
-2.5
  0
LTYPE
  2
PUNKTLINIE-LANG
 70
     0
  3
.  .  .  .  .  .  .  .  .  .  .  .  .  .  .  .  .  .  .  .  .
 72
    65
 73
     2
 40
5.0
 49
0.0
 49
-5.0
  0
LTYPE
  2
STRICHLINIE-KURZ
 70
     0
  3
__ __ __ __ __ __ __ __ __ __ __ __ __ __ __ __ __ __
 72
    65
 73
     2
 40
3.75
 49
2.5
 49
-1.25
  0
LTYPE
  2
STRICHLINIE-MITT
 70
     0
  3
____   ____   ____   ____   ____   ____   ____   ____
 72
    65
 73
     2
 40
7.5
 49
5.0
 49
-2.5
  0
LTYPE
  2
STRICHLINIE-LANG
 70
     0
  3
____   ____   ____   ____   ____   ____   ____   ____
 72
    65
 73
     2
 40
15.0
 49
10.0
 49
-5.0
  0
LTYPE
  2
VERDECKT-KURZ
 70
     0
  3
_ _ _ _ _ _ _ _ _ _ _ _ _ _ _ _ _ _ _ _ _ _ _ _ _ _ _ _ _ _ _
 72
    65
 73
     2
 40
1.75
 49
1.25
 49
-0.5
  0
LTYPE
  2
VERDECKT-MITT
 70
     0
  3
__ __ __ __ __ __ __ __ __ __ __ __ __ __ __ __ __ __ __ __ __
 72
    65
 73
     2
 40
3.75
 49
2.5
 49
-1.25
  0
LTYPE
  2
VERDECKT-LANG
 70
     0
  3
____ ____ ____ ____ ____ ____ ____ ____ ____ ____ ____ ____
 72
    65
 73
     2
 40
7.5
 49
5.0
 49
-2.5
  0
LTYPE
  2
STRICHPUNKT-KURZ
 70
     0
  3
_._._._._._._._._._._._._._._._._._._._._._._._._._._._._._.
 72
    65
 73
     4
 40
5.0
 49
2.5
 49
-1.25
 49
0.0
 49
-1.25
  0
LTYPE
  2
STRICHPUNKT-MITT
 70
     0
  3
__ . __ . __ . __ . __ . __ . __ . __ . __ . __ . __ . __ . _
 72
    65
 73
     4
 40
10.0
 49
5.0
 49
-2.5
 49
0.0
 49
-2.5
  0
LTYPE
  2
STRICHPUNKT-LANG
 70
     0
  3
____  .  ____  .  ____  .  ____  .  ____  .  ____  .  ____
 72
    65
 73
     4
 40
20.0
 49
10.0
 49
-5.0
 49
0.0
 49
-5.0
  0
LTYPE
  2
STRICH2PUNKT-KURZ
 70
     0
  3
__..__..__..__..__..__..__..__..__..__..__..__..__..__..__..__..
 72
    65
 73
     6
 40
6.25
 49
2.5
 49
-1.25
 49
0.0
 49
-1.25
 49
0.0
 49
-1.25
  0
LTYPE
  2
STRICH2PUNKT-MITT
 70
     0
  3
____ . . ____ . . ____ . . ____ . . ____ . . ____ . . ____ . .
 72
    65
 73
     6
 40
12.5
 49
5.0
 49
-2.5
 49
0.0
 49
-2.5
 49
0.0
 49
-2.5
  0
LTYPE
  2
STRICH2PUNKT-LANG
 70
     0
  3
________  .  .  ________  .  .  ________  .  .  ________  .  .
 72
    65
 73
     6
 40
25.0
 49
10.0
 49
-5.0
 49
0.0
 49
-5.0
 49
0.0
 49
-5.0
  0
LTYPE
  2
GRENZE
 70
     0
  3
__ __ . __ __ . __ __ . __ __ . __ __ . __ __ . __ __
 72
    65
 73
     6
 40
17.5
 49
5.0
 49
-2.5
 49
5.0
 49
-2.5
 49
0.0
 49
-2.5
  0
LTYPE
  2
STRICHA
 70
    64
  3
- - - - - 
 72
    65
 73
     2
 40
1.5
 49
1.2
 49
-0.3
  0
LTYPE
  2
STRICHPUNKT
 70
    64
  3
____ . ____ . ____ . ____ . ____ . ____ . ____
 72
    65
 73
     4
 40
15.0
 49
10.0
 49
-2.5
 49
0.0
 49
-2.5
  0
LTYPE
  2
STRICHPUNKTA
 70
    64
  3
__ . __ . __
 72
    65
 73
     4
 40
3.6
 49
2.4
 49
-0.6
 49
0.0
 49
-0.6
  0
LTYPE
  2
STRICH
 70
    64
  3
-- -- -- -- -- -- -- -- -- -- -- -- -- -- -- 
 72
    65
 73
     2
 40
6.25
 49
5.0
 49
-1.25
  0
LTYPE
  2
VERDECKT2
 70
     0
  3
_ _ _ _ _ _ _ _ _ _ _ _ _ _ _ _ _ _ _ _ _ _ _ _
 72
    65
 73
     2
 40
0.1875
 49
0.125
 49
-0.0625
  0
LTYPE
  2
VERDECKT
 70
     0
  3
__ __ __ __ __ __ __ __ __ __ __ __ __ __ __ __
 72
    65
 73
     2
 40
0.375
 49
0.25
 49
-0.125
  0
ENDTAB
  0
TABLE
  2
LAYER
 70
    27
  0
LAYER
  2
0
 70
     0
 62
     7
  6
AUSGEZOGEN
  0
LAYER
  2
DEF_LGRP
 70
    65
 62
     7
  6
AUSGEZOGEN
  0
LAYER
  2
24_UNSICHTBAR
 70
     0
 62
   163
  6
AUSGEZOGEN
  0
LAYER
  2
23_RAHMEN
 70
     0
 62
     7
  6
AUSGEZOGEN
  0
LAYER
  2
04_RESTKONTUR
 70
     0
 62
    31
  6
AUSGEZOGEN
  0
LAYER
  2
19_PHANTOM
 70
     0
 62
    41
  6
UMRISS-MITT
  0
LAYER
  2
18_TOL_2
 70
     0
 62
    21
  6
AUSGEZOGEN
  0
LAYER
  2
17_TOL_1
 70
     0
 62
   151
  6
AUSGEZOGEN
  0
LAYER
  2
16_BEM_2
 70
     0
 62
     1
  6
AUSGEZOGEN
  0
LAYER
  2
13_SCHNITT
 70
     0
 62
    51
  6
STRICHPUNKT-MITT
  0
LAYER
  2
20_BEM_KOORD
 70
     0
 62
     3
  6
AUSGEZOGEN
  0
LAYER
  2
22_KONTUR
 70
     0
 62
   255
  6
AUSGEZOGEN
  0
LAYER
  2
21_POSI
 70
     0
 62
     7
  6
AUSGEZOGEN
  0
LAYER
  2
11_INFO
 70
     0
 62
     1
  6
AUSGEZOGEN
  0
LAYER
  2
10_TEXT
 70
     0
 62
     2
  6
AUSGEZOGEN
  0
LAYER
  2
14_HILF
 70
     0
 62
     3
  6
AUSGEZOGEN
  0
LAYER
  2
06_VERDECKT
 70
     0
 62
     2
  6
VERDECKT-KURZ
  0
LAYER
  2
12_EINSATZ
 70
     0
 62
    51
  6
MITTELLINIE-MITT
  0
LAYER
  2
08_MIT-LANG
 70
     0
 62
     1
  6
MITTELLINIE-MITT
  0
LAYER
  2
07_MIT-KURZ
 70
     0
 62
     1
  6
MITTELLINIE-KURZ
  0
LAYER
  2
09_SCHRAFFUR
 70
     0
 62
     1
  6
AUSGEZOGEN
  0
LAYER
  2
15_BEM_1
 70
     0
 62
     3
  6
AUSGEZOGEN
  0
LAYER
  2
05_FEIN
 70
     0
 62
     1
  6
AUSGEZOGEN
  0
LAYER
  2
03_DUENN
 70
    64
 62
     1
  6
AUSGEZOGEN
  0
LAYER
  2
02_MITTEL
 70
    64
 62
     2
  6
AUSGEZOGEN
  0
LAYER
  2
01_DREHEN
 70
    64
 62
     7
  6
AUSGEZOGEN
  0
LAYER
  2
DEFPOINTS
 70
     0
 62
     7
  6
CONTINUOUS
  0
ENDTAB
  0
TABLE
  2
STYLE
 70
     3
  0
STYLE
  2
STANDARD
 70
    64
 40
0.0
 41
1.0
 50
0.0
 71
     0
 42
3.5
  3
TXT
  4

  0
STYLE
  2
ISO_8
 70
    64
 40
0.0
 41
1.0
 50
0.0
 71
     0
 42
3.5
  3
ISO8
  4

  0
STYLE
  2
DIN
 70
    64
 40
0.0
 41
1.0
 50
0.0
 71
     0
 42
0.2
  3
APNORM
  4

  0
ENDTAB
  0
TABLE
  2
VIEW
 70
     0
  0
ENDTAB
  0
TABLE
  2
UCS
 70
     0
  0
ENDTAB
  0
TABLE
  2
APPID
 70
    18
  0
APPID
  2
ACAD
 70
     0
  0
APPID
  2
CHANGE_ATTRIB
 70
    64
  0
APPID
  2
FCAD
 70
    64
  0
APPID
  2
APM_V11
 70
     0
  0
APPID
  2
APM_SUBINFOBLK
 70
     0
  0
APPID
  2
APM_SUPERBLOCK
 70
     0
  0
APPID
  2
APM_DIM
 70
    64
  0
APPID
  2
POSLIN
 70
    64
  0
APPID
  2
4CE1APM_
 70
    64
  0
APPID
  2
TOLERANZ
 70
    64
  0
APPID
  2
469BAPM_
 70
    64
  0
APPID
  2
723APM_
 70
    64
  0
APPID
  2
719APM_
 70
    64
  0
APPID
  2
705APM_
 70
    64
  0
APPID
  2
7AFAPM_
 70
    64
  0
APPID
  2
B73APM_
 70
    64
  0
APPID
  2
70FAPM_
 70
    64
  0
APPID
  2
TCAD
 70
     0
  0
ENDTAB
  0
TABLE
  2
DIMSTYLE
 70
    16
  0
DIMSTYLE
  2
STANDARD
 70
     0
  3

  4

  5

  6

  7

 40
1.0
 41
0.18
 42
0.0625
 43
0.38
 44
0.18
 45
0.0
 46
0.0
 47
0.0
 48
0.0
140
0.18
141
0.09
142
0.0
143
25.4
144
1.0
145
0.0
146
1.0
147
0.09
 71
     0
 72
     0
 73
     1
 74
     1
 75
     0
 76
     0
 77
     0
 78
     0
170
     0
171
     2
172
     0
173
     0
174
     0
175
     0
176
     0
177
     0
178
     0
  0
DIMSTYLE
  2
HAIBUCH_NORMAL
 70
     0
  3

  4

  5

  6

  7

 40
1.0
 41
3.5
 42
0.0
 43
7.0
 44
1.8
 45
0.0
 46
0.0
 47
0.0
 48
0.0
140
3.5
141
1.5
142
0.0
143
25.4
144
1.0
145
0.0
146
1.0
147
0.0
 71
     0
 72
     0
 73
     0
 74
     0
 75
     0
 76
     0
 77
     1
 78
     8
170
     0
171
     2
172
     0
173
     0
174
     0
175
     0
176
     0
177
     0
178
     2
  0
DIMSTYLE
  2
HAIBUCH_ZOLL
 70
     0
  3
<>"
  4

  5
ARROW
  6

  7

 40
1.0
 41
3.5
 42
0.0
 43
7.0
 44
1.8
 45
0.0
 46
0.0
 47
0.0
 48
0.0
140
3.5
141
1.5
142
0.0
143
0.03937
144
1.0
145
0.0
146
1.0
147
0.0
 71
     0
 72
     0
 73
     0
 74
     0
 75
     0
 76
     0
 77
     1
 78
     8
170
     1
171
     7
172
     0
173
     0
174
     0
175
     0
176
     0
177
     0
178
     2
  0
DIMSTYLE
  2
APM
 70
     0
  3

  4

  5

  6

  7

 40
1.0
 41
3.5
 42
0.0
 43
7.0
 44
1.8
 45
0.0
 46
0.0
 47
0.0
 48
0.0
140
3.5
141
1.5
142
0.0
143
25.4
144
1.0
145
0.0
146
1.0
147
0.0
 71
     0
 72
     0
 73
     0
 74
     0
 75
     0
 76
     0
 77
     1
 78
     8
170
     0
171
     2
172
     0
173
     0
174
     0
175
     0
176
     0
177
     0
178
     2
  0
DIMSTYLE
  2
DETAIL_21
 70
     0
  3

  4

  5

  6

  7

 40
1.0
 41
3.5
 42
0.0
 43
7.0
 44
1.8
 45
0.0
 46
0.0
 47
0.0
 48
0.0
140
3.5
141
1.5
142
0.0
143
25.4
144
0.5
145
0.0
146
1.0
147
0.0
 71
     0
 72
     0
 73
     0
 74
     0
 75
     0
 76
     0
 77
     1
 78
     8
170
     0
171
     2
172
     0
173
     0
174
     0
175
     0
176
     0
177
     0
178
     2
  0
DIMSTYLE
  2
DETAIL_51
 70
     0
  3

  4

  5

  6

  7

 40
1.0
 41
3.5
 42
0.0
 43
7.0
 44
1.8
 45
0.0
 46
0.0
 47
0.0
 48
0.0
140
3.5
141
1.5
142
0.0
143
25.4
144
0.2
145
0.0
146
1.0
147
0.0
 71
     0
 72
     0
 73
     0
 74
     0
 75
     0
 76
     0
 77
     1
 78
     8
170
     0
171
     2
172
     0
173
     0
174
     0
175
     0
176
     0
177
     0
178
     2
  0
DIMSTYLE
  2
DIMISO
 70
     0
  3

  4

  5
ARROW
  6

  7

 40
1.0
 41
3.5
 42
1.0
 43
8.0
 44
2.0
 45
0.0
 46
0.0
 47
0.1
 48
0.1
140
3.5
141
2.0
142
0.0
143
25.4
144
1.0
145
0.0
146
0.71
147
1.5
 71
     0
 72
     0
 73
     0
 74
     0
 75
     0
 76
     0
 77
     1
 78
     8
170
     0
171
     2
172
     1
173
     0
174
     0
175
     1
176
   256
177
   256
178
     2
  0
DIMSTYLE
  2
DIMISOAA
 70
     0
  3

  4

  5
ARROW
  6

  7

 40
1.0
 41
3.5
 42
1.0
 43
8.0
 44
2.0
 45
0.0
 46
0.0
 47
0.1
 48
0.1
140
3.5
141
2.0
142
0.0
143
25.4
144
1.0
145
0.0
146
0.71
147
1.5
 71
     0
 72
     0
 73
     0
 74
     0
 75
     0
 76
     0
 77
     1
 78
     8
170
     0
171
     2
172
     1
173
     0
174
     1
175
     0
176
   256
177
   256
178
     2
  0
DIMSTYLE
  2
DIMISOPP
 70
     0
  3

  4

  5
FCDPOINT
  6

  7

 40
1.0
 41
3.5
 42
1.0
 43
8.0
 44
2.0
 45
0.0
 46
0.0
 47
0.1
 48
0.1
140
3.5
141
2.0
142
0.0
143
25.4
144
1.0
145
0.0
146
0.71
147
1.5
 71
     0
 72
     0
 73
     0
 74
     0
 75
     0
 76
     0
 77
     1
 78
     8
170
     0
171
     2
172
     1
173
     0
174
     1
175
     0
176
   256
177
   256
178
     2
  0
DIMSTYLE
  2
DIMISOPA
 70
     0
  3

  4

  5

  6
FCDPOINT
  7
ARROW
 40
1.0
 41
3.5
 42
1.0
 43
8.0
 44
2.0
 45
0.0
 46
0.0
 47
0.1
 48
0.1
140
3.5
141
2.0
142
0.0
143
25.4
144
1.0
145
0.0
146
0.71
147
1.5
 71
     0
 72
     0
 73
     0
 74
     0
 75
     0
 76
     0
 77
     1
 78
     8
170
     0
171
     2
172
     1
173
     1
174
     1
175
     0
176
   256
177
   256
178
     2
  0
DIMSTYLE
  2
DIMISOPA1
 70
     0
  3

  4

  5

  6
FCDPOINT
  7
ARROW
 40
1.0
 41
3.5
 42
1.0
 43
8.0
 44
2.0
 45
0.0
 46
0.0
 47
0.1
 48
0.1
140
3.5
141
2.0
142
0.0
143
25.4
144
1.0
145
0.0
146
0.71
147
1.5
 71
     0
 72
     0
 73
     0
 74
     0
 75
     0
 76
     0
 77
     1
 78
     8
170
     0
171
     2
172
     1
173
     1
174
     0
175
     1
176
   256
177
   256
178
     2
  0
DIMSTYLE
  2
DIMISOAP
 70
     0
  3

  4

  5

  6
ARROW
  7
FCDPOINT
 40
1.0
 41
3.5
 42
1.0
 43
8.0
 44
2.0
 45
0.0
 46
0.0
 47
0.1
 48
0.1
140
3.5
141
2.0
142
0.0
143
25.4
144
1.0
145
0.0
146
0.71
147
1.5
 71
     0
 72
     0
 73
     0
 74
     0
 75
     0
 76
     0
 77
     1
 78
     8
170
     0
171
     2
172
     1
173
     1
174
     1
175
     0
176
   256
177
   256
178
     2
  0
DIMSTYLE
  2
DIMISOAP1
 70
     0
  3

  4

  5

  6
ARROW
  7
FCDPOINT
 40
1.0
 41
3.5
 42
1.0
 43
8.0
 44
2.0
 45
0.0
 46
0.0
 47
0.1
 48
0.1
140
3.5
141
2.0
142
0.0
143
25.4
144
1.0
145
0.0
146
0.71
147
1.5
 71
     0
 72
     0
 73
     0
 74
     0
 75
     0
 76
     0
 77
     1
 78
     8
170
     0
171
     2
172
     1
173
     1
174
     0
175
     1
176
   256
177
   256
178
     2
  0
DIMSTYLE
  2
DIMISOSYM
 70
     0
  3

  4

  5

  6
FCDLINE
  7
ARROW
 40
1.0
 41
3.5
 42
0.0
 43
8.0
 44
0.0
 45
0.0
 46
0.0
 47
0.1
 48
0.1
140
3.5
141
2.0
142
0.0
143
25.4
144
2.0
145
0.0
146
0.71
147
1.5
 71
     0
 72
     0
 73
     0
 74
     0
 75
     1
 76
     1
 77
     1
 78
     8
170
     0
171
     2
172
     1
173
     1
174
     0
175
     1
176
   256
177
   256
178
     2
  0
DIMSTYLE
  2
DIMISOSYM2
 70
     0
  3

  4

  5

  6
ARROW
  7
FCDLINE
 40
1.0
 41
3.5
 42
0.0
 43
8.0
 44
0.0
 45
0.0
 46
0.0
 47
0.1
 48
0.1
140
3.5
141
2.0
142
0.0
143
25.4
144
2.0
145
0.0
146
0.71
147
1.5
 71
     0
 72
     0
 73
     0
 74
     0
 75
     1
 76
     1
 77
     1
 78
     8
170
     0
171
     2
172
     1
173
     1
174
     0
175
     1
176
   256
177
   256
178
     2
  0
DIMSTYLE
  2
DIMISOAXE
 70
     0
  3

  4

  5
ARROW
  6

  7

 40
1.0
 41
3.5
 42
0.0
 43
8.0
 44
0.0
 45
0.0
 46
0.0
 47
0.1
 48
0.1
140
3.5
141
2.0
142
0.0
143
25.4
144
1.0
145
0.0
146
0.71
147
1.5
 71
     0
 72
     0
 73
     0
 74
     0
 75
     1
 76
     1
 77
     1
 78
     8
170
     0
171
     2
172
     1
173
     0
174
     1
175
     0
176
   256
177
   256
178
     2
  0
ENDTAB
  0
ENDSEC
  0
SECTION
  2
BLOCKS
  0
BLOCK
  8
DEF_LGRP
  5
A7C3
  2
DEF_LGRP
 70
    64
 10
0.0
 20
0.0
 30
0.0
  3
DEF_LGRP
  0
POINT
  8
DEF_LGRP
  5
6313
 10
0.0
 20
0.0
 30
0.0
  0
ENDBLK
  8
0
  5
A7C4
  0
ENDSEC
  0
SECTION
  2
ENTITIES
  0
INSERT
  8
01_DREHEN
  5
6317
  2
DEF_LGRP
 10
0.0
 20
0.0
 30
0.0
1001
CHANGE_ATTRIB
1002
{
1000
0
1000
0
1000
1
1000
_
1000
2
1000

1000
3
1000
NT
1000
STDPRT
1000
NT
1000
ACODE
1000
-
1000
LLOAD
1000
4
1000
LGDIR
1000
0
1000
GROUPS
1000
BASISLAYER
1000
GROUPS
1000
GRUPPE1
1000
GROUPS
1000
GRUPPE2
1002
}
  0
LINE
  8
02_MITTEL
  5
768C
 10
203.665158
 20
365.875612
 30
0.0
 11
203.665158
 21
615.875612
 31
0.0
  0
LINE
  8
02_MITTEL
  5
768D
 10
203.665158
 20
615.875612
 30
0.0
 11
521.185158
 21
615.875612
 31
0.0
  0
LINE
  8
02_MITTEL
  5
768E
 10
521.185158
 20
615.875612
 30
0.0
 11
521.185158
 21
365.875612
 31
0.0
  0
LINE
  8
02_MITTEL
  5
768F
 10
203.665158
 20
365.875612
 30
0.0
 11
521.185158
 21
365.875612
 31
0.0
  0
LINE
  8
03_DUENN
  5
7690
 10
413.24511
 20
506.421178
 30
0.0
 11
454.971199
 21
422.86588
 31
0.0
  0
LINE
  8
03_DUENN
  5
7691
 10
454.971199
 20
422.86588
 30
0.0
 11
454.971199
 21
506.421178
 31
0.0
  0
LINE
  8
03_DUENN
  5
7692
 10
454.971199
 20
506.421178
 30
0.0
 11
413.24511
 21
506.421178
 31
0.0
  0
LINE
  8
01_DREHEN
  5
7693
 10
410.923508
 20
509.949171
 30
0.0
 11
454.971199
 21
509.949171
 31
0.0
  0
LINE
  8
01_DREHEN
  5
7694
 10
454.971199
 20
509.949171
 30
0.0
 11
454.970773
 21
515.239323
 31
0.0
  0
LINE
  8
01_DREHEN
  5
7695
 10
454.970773
 20
515.239323
 30
0.0
 11
458.498766
 21
515.239323
 31
0.0
  0
LINE
  8
01_DREHEN
  5
7696
 10
458.498766
 20
515.239323
 30
0.0
 11
458.499214
 21
509.949171
 31
0.0
  0
LINE
  8
01_DREHEN
  5
7697
 10
458.499214
 20
509.949171
 30
0.0
 11
502.336184
 21
509.949171
 31
0.0
  0
LINE
  8
01_DREHEN
  5
7698
 10
502.336184
 20
509.949171
 30
0.0
 11
504.553546
 21
513.296552
 31
0.0
  0
LINE
  8
01_DREHEN
  5
7699
 10
504.553546
 20
513.296552
 30
0.0
 11
507.500208
 21
511.356582
 31
0.0
  0
LINE
  8
01_DREHEN
  5
769A
 10
507.500208
 20
511.356582
 30
0.0
 11
506.58884
 21
509.949171
 31
0.0
  0
LINE
  8
01_DREHEN
  5
769B
 10
506.58884
 20
509.949171
 30
0.0
 11
509.461596
 21
509.948745
 31
0.0
  0
LINE
  8
01_DREHEN
  5
769C
 10
509.461596
 20
509.948745
 30
0.0
 11
509.461596
 21
506.42073
 31
0.0
  0
LINE
  8
01_DREHEN
  5
769D
 10
509.461596
 20
506.42073
 30
0.0
 11
504.245552
 21
506.421178
 31
0.0
  0
LINE
  8
01_DREHEN
  5
769E
 10
504.245552
 20
506.421178
 30
0.0
 11
458.499214
 21
416.400119
 31
0.0
  0
LINE
  8
01_DREHEN
  5
769F
 10
458.499214
 20
416.400119
 30
0.0
 11
458.498766
 21
379.418204
 31
0.0
  0
LINE
  8
01_DREHEN
  5
76A0
 10
458.498766
 20
379.418204
 30
0.0
 11
454.970773
 21
379.418204
 31
0.0
  0
LINE
  8
01_DREHEN
  5
76A1
 10
454.970773
 20
379.418204
 30
0.0
 11
454.971199
 21
416.400119
 31
0.0
  0
LINE
  8
01_DREHEN
  5
76A2
 10
454.971199
 20
416.400119
 30
0.0
 11
409.057556
 21
506.421178
 31
0.0
  0
LINE
  8
01_DREHEN
  5
76A3
 10
409.057556
 20
506.421178
 30
0.0
 11
403.890171
 21
506.42073
 31
0.0
  0
LINE
  8
01_DREHEN
  5
76A4
 10
403.890171
 20
506.42073
 30
0.0
 11
403.890171
 21
509.948745
 31
0.0
  0
LINE
  8
01_DREHEN
  5
76A5
 10
403.890171
 20
509.948745
 30
0.0
 11
406.714245
 21
509.949171
 31
0.0
  0
LINE
  8
01_DREHEN
  5
76A6
 10
406.714245
 20
509.949171
 30
0.0
 11
405.768825
 21
511.391687
 31
0.0
  0
LINE
  8
01_DREHEN
  5
76A7
 10
405.768825
 20
511.391687
 30
0.0
 11
408.71551
 21
513.331635
 31
0.0
  0
LINE
  8
01_DREHEN
  5
76A8
 10
408.71551
 20
513.331635
 30
0.0
 11
410.923508
 21
509.949171
 31
0.0
  0
LINE
  8
03_DUENN
  5
76A9
 10
458.499214
 20
422.86588
 30
0.0
 11
500.014605
 21
506.421178
 31
0.0
  0
LINE
  8
03_DUENN
  5
76AA
 10
500.014605
 20
506.421178
 30
0.0
 11
458.499214
 21
506.421178
 31
0.0
  0
LINE
  8
03_DUENN
  5
76AB
 10
458.499214
 20
506.421178
 30
0.0
 11
458.499214
 21
422.86588
 31
0.0
  0
LINE
  8
03_DUENN
  5
7774
 10
407.1235
 20
407.709153
 30
0.0
 11
410.651493
 21
407.709153
 31
0.0
  0
LINE
  8
03_DUENN
  5
7775
 10
410.651493
 20
407.709153
 30
0.0
 11
410.651493
 21
411.237146
 31
0.0
  0
LINE
  8
03_DUENN
  5
7776
 10
410.651493
 20
411.237146
 30
0.0
 11
407.1235
 21
411.237146
 31
0.0
  0
LINE
  8
03_DUENN
  5
7777
 10
407.1235
 20
411.237146
 30
0.0
 11
407.1235
 21
407.709153
 31
0.0
  0
LINE
  8
01_DREHEN
  5
7778
 10
407.23119
 20
379.418204
 30
0.0
 11
403.416799
 21
379.418204
 31
0.0
  0
LINE
  8
01_DREHEN
  5
7779
 10
403.416799
 20
379.418204
 30
0.0
 11
407.333862
 21
401.96185
 31
0.0
  0
LINE
  8
01_DREHEN
  5
777A
 10
407.333862
 20
401.96185
 30
0.0
 11
393.342328
 21
383.029288
 31
0.0
  0
LINE
  8
01_DREHEN
  5
777B
 10
393.342328
 20
383.029288
 30
0.0
 11
385.129506
 21
389.815925
 31
0.0
  0
LINE
  8
01_DREHEN
  5
777C
 10
385.129506
 20
389.815925
 30
0.0
 11
402.844565
 21
404.605918
 31
0.0
  0
LINE
  8
01_DREHEN
  5
777D
 10
402.844565
 20
404.605918
 30
0.0
 11
379.769054
 21
398.959628
 31
0.0
  0
LINE
  8
01_DREHEN
  5
777E
 10
379.769054
 20
398.959628
 30
0.0
 11
377.907336
 21
409.35735
 31
0.0
  0
LINE
  8
01_DREHEN
  5
777F
 10
377.907336
 20
409.35735
 30
0.0
 11
401.131289
 21
409.473061
 31
0.0
  0
LINE
  8
01_DREHEN
  5
7780
 10
401.131289
 20
409.473061
 30
0.0
 11
379.769054
 21
419.755072
 31
0.0
  0
LINE
  8
01_DREHEN
  5
7781
 10
379.769054
 20
419.755072
 30
0.0
 11
385.129506
 21
428.898753
 31
0.0
  0
LINE
  8
01_DREHEN
  5
7782
 10
385.129506
 20
428.898753
 30
0.0
 11
402.99565
 21
414.286213
 31
0.0
  0
LINE
  8
01_DREHEN
  5
7783
 10
402.99565
 20
414.286213
 30
0.0
 11
393.342328
 21
435.685389
 31
0.0
  0
LINE
  8
01_DREHEN
  5
7784
 10
393.342328
 20
435.685389
 30
0.0
 11
403.416799
 21
439.296474
 31
0.0
  0
LINE
  8
01_DREHEN
  5
7785
 10
403.416799
 20
439.296474
 30
0.0
 11
407.565373
 21
416.792952
 31
0.0
  0
LINE
  8
01_DREHEN
  5
7786
 10
407.565373
 20
416.792952
 30
0.0
 11
414.137861
 21
439.296474
 31
0.0
  0
LINE
  8
01_DREHEN
  5
7787
 10
414.137861
 20
439.296474
 30
0.0
 11
424.212333
 21
435.685389
 31
0.0
  0
LINE
  8
01_DREHEN
  5
7788
 10
424.212333
 20
435.685389
 30
0.0
 11
412.702156
 21
415.820558
 31
0.0
  0
LINE
  8
01_DREHEN
  5
7789
 10
412.702156
 20
415.820558
 30
0.0
 11
432.425177
 21
428.898753
 31
0.0
  0
LINE
  8
01_DREHEN
  5
778A
 10
432.425177
 20
428.898753
 30
0.0
 11
437.785607
 21
419.755072
 31
0.0
  0
LINE
  8
01_DREHEN
  5
778B
 10
437.785607
 20
419.755072
 30
0.0
 11
416.002513
 21
411.823943
 31
0.0
  0
LINE
  8
01_DREHEN
  5
778C
 10
416.002513
 20
411.823943
 30
0.0
 11
439.647348
 21
409.35735
 31
0.0
  0
LINE
  8
01_DREHEN
  5
778D
 10
439.647348
 20
409.35735
 30
0.0
 11
437.785607
 21
398.959628
 31
0.0
  0
LINE
  8
01_DREHEN
  5
778E
 10
437.785607
 20
398.959628
 30
0.0
 11
415.922065
 21
406.673159
 31
0.0
  0
LINE
  8
01_DREHEN
  5
778F
 10
415.922065
 20
406.673159
 30
0.0
 11
432.425177
 21
389.815925
 31
0.0
  0
LINE
  8
01_DREHEN
  5
7790
 10
432.425177
 20
389.815925
 30
0.0
 11
424.212333
 21
383.029288
 31
0.0
  0
LINE
  8
01_DREHEN
  5
7791
 10
424.212333
 20
383.029288
 30
0.0
 11
412.498581
 21
402.77832
 31
0.0
  0
LINE
  8
01_DREHEN
  5
7792
 10
412.498581
 20
402.77832
 30
0.0
 11
414.137861
 21
379.418204
 31
0.0
  0
LINE
  8
01_DREHEN
  5
7793
 10
414.137861
 20
379.418204
 30
0.0
 11
409.760242
 21
379.418204
 31
0.0
  0
LINE
  8
03_DUENN
  5
7794
 10
477.946283
 20
578.793934
 30
0.0
 11
477.946283
 21
565.563915
 31
0.0
  0
LINE
  8
03_DUENN
  5
7795
 10
477.946283
 20
565.563915
 30
0.0
 11
487.299183
 21
565.563915
 31
0.0
  0
LINE
  8
03_DUENN
  5
7796
 10
482.356274
 20
583.203925
 30
0.0
 11
480.135058
 21
582.59952
 31
0.0
  0
LINE
  8
03_DUENN
  5
7797
 10
480.135058
 20
582.59952
 30
0.0
 11
478.550665
 21
581.015149
 31
0.0
  0
LINE
  8
03_DUENN
  5
7798
 10
478.550665
 20
581.015149
 30
0.0
 11
477.946283
 21
578.793934
 31
0.0
  0
LINE
  8
03_DUENN
  5
7799
 10
482.889192
 20
583.203925
 30
0.0
 11
482.356274
 21
583.203925
 31
0.0
  0
LINE
  8
03_DUENN
  5
779A
 10
487.299183
 20
578.793934
 30
0.0
 11
486.6948
 21
581.015261
 31
0.0
  0
LINE
  8
03_DUENN
  5
779B
 10
486.6948
 20
581.015261
 30
0.0
 11
485.110407
 21
582.599587
 31
0.0
  0
LINE
  8
03_DUENN
  5
779C
 10
485.110407
 20
582.599587
 30
0.0
 11
482.889192
 21
583.203925
 31
0.0
  0
LINE
  8
03_DUENN
  5
779D
 10
487.299183
 20
565.563915
 30
0.0
 11
487.299183
 21
578.793934
 31
0.0
  0
LINE
  8
01_DREHEN
  5
779E
 10
503.148201
 20
547.923929
 30
0.0
 11
499.620208
 21
547.923929
 31
0.0
  0
LINE
  8
01_DREHEN
  5
779F
 10
499.620208
 20
547.923929
 30
0.0
 11
499.621081
 21
539.103924
 31
0.0
  0
LINE
  8
01_DREHEN
  5
77A0
 10
499.621081
 20
539.103924
 30
0.0
 11
484.376334
 21
539.103924
 31
0.0
  0
LINE
  8
01_DREHEN
  5
77A1
 10
484.376334
 20
539.103924
 30
0.0
 11
484.376334
 21
535.444763
 31
0.0
  0
LINE
  8
01_DREHEN
  5
77A2
 10
484.376334
 20
535.444763
 30
0.0
 11
480.821077
 21
535.444763
 31
0.0
  0
LINE
  8
01_DREHEN
  5
77A3
 10
480.821077
 20
535.444763
 30
0.0
 11
480.821077
 21
539.103924
 31
0.0
  0
LINE
  8
01_DREHEN
  5
77A4
 10
480.821077
 20
539.103924
 30
0.0
 11
465.614684
 21
539.103924
 31
0.0
  0
LINE
  8
01_DREHEN
  5
77A5
 10
465.614684
 20
539.103924
 30
0.0
 11
465.614684
 21
547.923929
 31
0.0
  0
LINE
  8
01_DREHEN
  5
77A6
 10
465.614684
 20
547.923929
 30
0.0
 11
469.142699
 21
547.923929
 31
0.0
  0
LINE
  8
01_DREHEN
  5
77A7
 10
469.142699
 20
547.923929
 30
0.0
 11
469.142699
 21
565.563915
 31
0.0
  0
LINE
  8
01_DREHEN
  5
77A8
 10
469.142699
 20
565.563915
 30
0.0
 11
465.614684
 21
565.563915
 31
0.0
  0
LINE
  8
01_DREHEN
  5
77A9
 10
465.614684
 20
565.563915
 30
0.0
 11
465.614684
 21
572.373851
 31
0.0
  0
LINE
  8
01_DREHEN
  5
77AA
 10
503.148201
 20
565.563915
 30
0.0
 11
503.148201
 21
563.358808
 31
0.0
  0
LINE
  8
01_DREHEN
  5
77AB
 10
503.148201
 20
563.358808
 30
0.0
 11
503.148201
 21
561.153723
 31
0.0
  0
LINE
  8
01_DREHEN
  5
77AC
 10
503.148201
 20
561.153723
 30
0.0
 11
503.148201
 21
558.94866
 31
0.0
  0
LINE
  8
01_DREHEN
  5
77AD
 10
503.148201
 20
558.94866
 30
0.0
 11
503.148201
 21
556.74362
 31
0.0
  0
LINE
  8
01_DREHEN
  5
77AE
 10
503.148201
 20
556.74362
 30
0.0
 11
503.148201
 21
554.538624
 31
0.0
  0
LINE
  8
01_DREHEN
  5
77AF
 10
503.148201
 20
554.538624
 30
0.0
 11
503.148201
 21
552.333674
 31
0.0
  0
LINE
  8
01_DREHEN
  5
77B0
 10
503.148201
 20
552.333674
 30
0.0
 11
503.148201
 21
550.128767
 31
0.0
  0
LINE
  8
01_DREHEN
  5
77B1
 10
503.148201
 20
550.128767
 30
0.0
 11
503.148201
 21
547.923929
 31
0.0
  0
LINE
  8
01_DREHEN
  5
77B2
 10
465.614684
 20
574.777739
 30
0.0
 11
465.614684
 21
578.793934
 31
0.0
  0
LINE
  8
01_DREHEN
  5
77B3
 10
465.614684
 20
578.793934
 30
0.0
 11
469.142699
 21
578.793934
 31
0.0
  0
LINE
  8
01_DREHEN
  5
77B4
 10
469.142699
 20
578.793934
 30
0.0
 11
469.142699
 21
587.613916
 31
0.0
  0
LINE
  8
01_DREHEN
  5
77B5
 10
469.142699
 20
587.613916
 30
0.0
 11
480.820203
 21
587.613916
 31
0.0
  0
LINE
  8
01_DREHEN
  5
77B6
 10
480.820203
 20
587.613916
 30
0.0
 11
480.820203
 21
591.273078
 31
0.0
  0
LINE
  8
01_DREHEN
  5
77B7
 10
480.820203
 20
591.273078
 30
0.0
 11
484.375438
 21
591.273078
 31
0.0
  0
LINE
  8
01_DREHEN
  5
77B8
 10
484.375438
 20
591.273078
 30
0.0
 11
484.375438
 21
587.613916
 31
0.0
  0
LINE
  8
01_DREHEN
  5
77B9
 10
484.375438
 20
587.613916
 30
0.0
 11
503.148201
 21
587.613916
 31
0.0
  0
LINE
  8
01_DREHEN
  5
77BA
 10
503.148201
 20
587.613916
 30
0.0
 11
503.148201
 21
578.793934
 31
0.0
  0
LINE
  8
01_DREHEN
  5
77BB
 10
503.148201
 20
578.793934
 30
0.0
 11
499.620208
 21
578.793934
 31
0.0
  0
LINE
  8
01_DREHEN
  5
77BC
 10
499.620208
 20
578.793934
 30
0.0
 11
499.620208
 21
565.563915
 31
0.0
  0
LINE
  8
01_DREHEN
  5
77BD
 10
499.620208
 20
565.563915
 30
0.0
 11
503.148201
 21
565.563915
 31
0.0
  0
LINE
  8
03_DUENN
  5
77BE
 10
430.913643
 20
578.793934
 30
0.0
 11
430.913643
 21
565.563915
 31
0.0
  0
LINE
  8
03_DUENN
  5
77BF
 10
430.913643
 20
565.563915
 30
0.0
 11
440.266542
 21
565.563915
 31
0.0
  0
LINE
  8
03_DUENN
  5
77C0
 10
435.323634
 20
583.203925
 30
0.0
 11
433.102419
 21
582.59952
 31
0.0
  0
LINE
  8
03_DUENN
  5
77C1
 10
433.102419
 20
582.59952
 30
0.0
 11
431.518025
 21
581.015149
 31
0.0
  0
LINE
  8
03_DUENN
  5
77C2
 10
431.518025
 20
581.015149
 30
0.0
 11
430.913643
 21
578.793934
 31
0.0
  0
LINE
  8
03_DUENN
  5
77C3
 10
435.856529
 20
583.203925
 30
0.0
 11
435.323634
 21
583.203925
 31
0.0
  0
LINE
  8
03_DUENN
  5
77C4
 10
440.266542
 20
578.793934
 30
0.0
 11
439.662138
 21
581.015261
 31
0.0
  0
LINE
  8
03_DUENN
  5
77C5
 10
439.662138
 20
581.015261
 30
0.0
 11
438.077745
 21
582.599587
 31
0.0
  0
LINE
  8
03_DUENN
  5
77C6
 10
438.077745
 20
582.599587
 30
0.0
 11
435.856529
 21
583.203925
 31
0.0
  0
LINE
  8
03_DUENN
  5
77C7
 10
440.266542
 20
565.563915
 30
0.0
 11
440.266542
 21
578.793934
 31
0.0
  0
LINE
  8
01_DREHEN
  5
77C8
 10
456.11556
 20
547.923929
 30
0.0
 11
452.587545
 21
547.923929
 31
0.0
  0
LINE
  8
01_DREHEN
  5
77C9
 10
452.587545
 20
547.923929
 30
0.0
 11
452.588441
 21
539.103924
 31
0.0
  0
LINE
  8
01_DREHEN
  5
77CA
 10
452.588441
 20
539.103924
 30
0.0
 11
437.343672
 21
539.103924
 31
0.0
  0
LINE
  8
01_DREHEN
  5
77CB
 10
437.343672
 20
539.103924
 30
0.0
 11
437.343672
 21
535.444763
 31
0.0
  0
LINE
  8
01_DREHEN
  5
77CC
 10
437.343672
 20
535.444763
 30
0.0
 11
433.788415
 21
535.444763
 31
0.0
  0
LINE
  8
01_DREHEN
  5
77CD
 10
433.788415
 20
535.444763
 30
0.0
 11
433.788415
 21
539.103924
 31
0.0
  0
LINE
  8
01_DREHEN
  5
77CE
 10
433.788415
 20
539.103924
 30
0.0
 11
418.582044
 21
539.103924
 31
0.0
  0
LINE
  8
01_DREHEN
  5
77CF
 10
418.582044
 20
539.103924
 30
0.0
 11
418.582044
 21
547.923929
 31
0.0
  0
LINE
  8
01_DREHEN
  5
77D0
 10
418.582044
 20
547.923929
 30
0.0
 11
422.110037
 21
547.923929
 31
0.0
  0
LINE
  8
01_DREHEN
  5
77D1
 10
422.110037
 20
547.923929
 30
0.0
 11
422.110037
 21
565.563915
 31
0.0
  0
LINE
  8
01_DREHEN
  5
77D2
 10
422.110037
 20
565.563915
 30
0.0
 11
418.582044
 21
565.563915
 31
0.0
  0
LINE
  8
01_DREHEN
  5
77D3
 10
418.582044
 20
565.563915
 30
0.0
 11
418.582044
 21
572.373851
 31
0.0
  0
LINE
  8
01_DREHEN
  5
77D4
 10
456.11556
 20
565.563915
 30
0.0
 11
456.11556
 21
563.358808
 31
0.0
  0
LINE
  8
01_DREHEN
  5
77D5
 10
456.11556
 20
563.358808
 30
0.0
 11
456.11556
 21
561.153723
 31
0.0
  0
LINE
  8
01_DREHEN
  5
77D6
 10
456.11556
 20
561.153723
 30
0.0
 11
456.11556
 21
558.94866
 31
0.0
  0
LINE
  8
01_DREHEN
  5
77D7
 10
456.11556
 20
558.94866
 30
0.0
 11
456.11556
 21
556.74362
 31
0.0
  0
LINE
  8
01_DREHEN
  5
77D8
 10
456.11556
 20
556.74362
 30
0.0
 11
456.11556
 21
554.538624
 31
0.0
  0
LINE
  8
01_DREHEN
  5
77D9
 10
456.11556
 20
554.538624
 30
0.0
 11
456.11556
 21
552.333674
 31
0.0
  0
LINE
  8
01_DREHEN
  5
77DA
 10
456.11556
 20
552.333674
 30
0.0
 11
456.11556
 21
550.128767
 31
0.0
  0
LINE
  8
01_DREHEN
  5
77DB
 10
456.11556
 20
550.128767
 30
0.0
 11
456.11556
 21
547.923929
 31
0.0
  0
LINE
  8
01_DREHEN
  5
77DC
 10
418.582044
 20
574.777739
 30
0.0
 11
418.582044
 21
578.793934
 31
0.0
  0
LINE
  8
01_DREHEN
  5
77DD
 10
418.582044
 20
578.793934
 30
0.0
 11
422.110037
 21
578.793934
 31
0.0
  0
LINE
  8
01_DREHEN
  5
77DE
 10
422.110037
 20
578.793934
 30
0.0
 11
422.110037
 21
587.613916
 31
0.0
  0
LINE
  8
01_DREHEN
  5
77DF
 10
422.110037
 20
587.613916
 30
0.0
 11
433.787541
 21
587.613916
 31
0.0
  0
LINE
  8
01_DREHEN
  5
77E0
 10
433.787541
 20
587.613916
 30
0.0
 11
433.787541
 21
591.273078
 31
0.0
  0
LINE
  8
01_DREHEN
  5
77E1
 10
433.787541
 20
591.273078
 30
0.0
 11
437.342798
 21
591.273078
 31
0.0
  0
LINE
  8
01_DREHEN
  5
77E2
 10
437.342798
 20
591.273078
 30
0.0
 11
437.342798
 21
587.613916
 31
0.0
  0
LINE
  8
01_DREHEN
  5
77E3
 10
437.342798
 20
587.613916
 30
0.0
 11
456.11556
 21
587.613916
 31
0.0
  0
LINE
  8
01_DREHEN
  5
77E4
 10
456.11556
 20
587.613916
 30
0.0
 11
456.11556
 21
578.793934
 31
0.0
  0
LINE
  8
01_DREHEN
  5
77E5
 10
456.11556
 20
578.793934
 30
0.0
 11
452.587545
 21
578.793934
 31
0.0
  0
LINE
  8
01_DREHEN
  5
77E6
 10
452.587545
 20
578.793934
 30
0.0
 11
452.587545
 21
565.563915
 31
0.0
  0
LINE
  8
01_DREHEN
  5
77E7
 10
452.587545
 20
565.563915
 30
0.0
 11
456.11556
 21
565.563915
 31
0.0
  0
LINE
  8
03_DUENN
  5
77E8
 10
370.550698
 20
586.98621
 30
0.0
 11
370.550698
 21
573.756214
 31
0.0
  0
LINE
  8
03_DUENN
  5
77E9
 10
370.550698
 20
573.756214
 30
0.0
 11
379.903598
 21
573.756214
 31
0.0
  0
LINE
  8
03_DUENN
  5
77EA
 10
374.960712
 20
591.396201
 30
0.0
 11
372.739497
 21
590.791818
 31
0.0
  0
LINE
  8
03_DUENN
  5
77EB
 10
372.739497
 20
590.791818
 30
0.0
 11
371.155104
 21
589.207425
 31
0.0
  0
LINE
  8
03_DUENN
  5
77EC
 10
371.155104
 20
589.207425
 30
0.0
 11
370.550698
 21
586.98621
 31
0.0
  0
LINE
  8
03_DUENN
  5
77ED
 10
375.493607
 20
591.396201
 30
0.0
 11
374.960712
 21
591.396201
 31
0.0
  0
LINE
  8
03_DUENN
  5
77EE
 10
379.903598
 20
586.98621
 30
0.0
 11
379.299216
 21
589.207537
 31
0.0
  0
LINE
  8
03_DUENN
  5
77EF
 10
379.299216
 20
589.207537
 30
0.0
 11
377.714823
 21
590.791886
 31
0.0
  0
LINE
  8
03_DUENN
  5
77F0
 10
377.714823
 20
590.791886
 30
0.0
 11
375.493607
 21
591.396201
 31
0.0
  0
LINE
  8
03_DUENN
  5
77F1
 10
379.903598
 20
573.756214
 30
0.0
 11
379.903598
 21
586.98621
 31
0.0
  0
LINE
  8
01_DREHEN
  5
77F2
 10
395.752616
 20
556.116205
 30
0.0
 11
392.224623
 21
556.116205
 31
0.0
  0
LINE
  8
01_DREHEN
  5
77F3
 10
392.224623
 20
556.116205
 30
0.0
 11
392.225497
 21
547.2962
 31
0.0
  0
LINE
  8
01_DREHEN
  5
77F4
 10
392.225497
 20
547.2962
 30
0.0
 11
376.98075
 21
547.2962
 31
0.0
  0
LINE
  8
01_DREHEN
  5
77F5
 10
376.98075
 20
547.2962
 30
0.0
 11
376.98075
 21
543.637061
 31
0.0
  0
LINE
  8
01_DREHEN
  5
77F6
 10
376.98075
 20
543.637061
 30
0.0
 11
373.425493
 21
543.637061
 31
0.0
  0
LINE
  8
01_DREHEN
  5
77F7
 10
373.425493
 20
543.637061
 30
0.0
 11
373.425493
 21
547.2962
 31
0.0
  0
LINE
  8
01_DREHEN
  5
77F8
 10
373.425493
 20
547.2962
 30
0.0
 11
358.2191
 21
547.2962
 31
0.0
  0
LINE
  8
01_DREHEN
  5
77F9
 10
358.2191
 20
547.2962
 30
0.0
 11
358.2191
 21
556.116205
 31
0.0
  0
LINE
  8
01_DREHEN
  5
77FA
 10
358.2191
 20
556.116205
 30
0.0
 11
361.747115
 21
556.116205
 31
0.0
  0
LINE
  8
01_DREHEN
  5
77FB
 10
361.747115
 20
556.116205
 30
0.0
 11
361.747115
 21
573.756214
 31
0.0
  0
LINE
  8
01_DREHEN
  5
77FC
 10
361.747115
 20
573.756214
 30
0.0
 11
358.2191
 21
573.756214
 31
0.0
  0
LINE
  8
01_DREHEN
  5
77FD
 10
358.2191
 20
573.756214
 30
0.0
 11
358.2191
 21
580.566127
 31
0.0
  0
LINE
  8
01_DREHEN
  5
77FE
 10
395.752616
 20
573.756214
 30
0.0
 11
395.752616
 21
571.551107
 31
0.0
  0
LINE
  8
01_DREHEN
  5
77FF
 10
395.752616
 20
571.551107
 30
0.0
 11
395.752616
 21
569.346021
 31
0.0
  0
LINE
  8
01_DREHEN
  5
7800
 10
395.752616
 20
569.346021
 30
0.0
 11
395.752616
 21
567.140959
 31
0.0
  0
LINE
  8
01_DREHEN
  5
7801
 10
395.752616
 20
567.140959
 30
0.0
 11
395.752616
 21
564.935918
 31
0.0
  0
LINE
  8
01_DREHEN
  5
7802
 10
395.752616
 20
564.935918
 30
0.0
 11
395.752616
 21
562.730922
 31
0.0
  0
LINE
  8
01_DREHEN
  5
7803
 10
395.752616
 20
562.730922
 30
0.0
 11
395.752616
 21
560.52595
 31
0.0
  0
LINE
  8
01_DREHEN
  5
7804
 10
395.752616
 20
560.52595
 30
0.0
 11
395.752616
 21
558.321066
 31
0.0
  0
LINE
  8
01_DREHEN
  5
7805
 10
395.752616
 20
558.321066
 30
0.0
 11
395.752616
 21
556.116205
 31
0.0
  0
LINE
  8
01_DREHEN
  5
7806
 10
358.2191
 20
582.970015
 30
0.0
 11
358.2191
 21
586.98621
 31
0.0
  0
LINE
  8
01_DREHEN
  5
7807
 10
358.2191
 20
586.98621
 30
0.0
 11
361.747115
 21
586.98621
 31
0.0
  0
LINE
  8
01_DREHEN
  5
7808
 10
361.747115
 20
586.98621
 30
0.0
 11
361.747115
 21
595.806215
 31
0.0
  0
LINE
  8
01_DREHEN
  5
7809
 10
361.747115
 20
595.806215
 30
0.0
 11
373.424619
 21
595.806215
 31
0.0
  0
LINE
  8
01_DREHEN
  5
780A
 10
373.424619
 20
595.806215
 30
0.0
 11
373.424619
 21
599.465354
 31
0.0
  0
LINE
  8
01_DREHEN
  5
780B
 10
373.424619
 20
599.465354
 30
0.0
 11
376.979854
 21
599.465354
 31
0.0
  0
LINE
  8
01_DREHEN
  5
780C
 10
376.979854
 20
599.465354
 30
0.0
 11
376.979854
 21
595.806215
 31
0.0
  0
LINE
  8
01_DREHEN
  5
780D
 10
376.979854
 20
595.806215
 30
0.0
 11
395.752616
 21
595.806215
 31
0.0
  0
LINE
  8
01_DREHEN
  5
780E
 10
395.752616
 20
595.806215
 30
0.0
 11
395.752616
 21
586.98621
 31
0.0
  0
LINE
  8
01_DREHEN
  5
780F
 10
395.752616
 20
586.98621
 30
0.0
 11
392.224623
 21
586.98621
 31
0.0
  0
LINE
  8
01_DREHEN
  5
7810
 10
392.224623
 20
586.98621
 30
0.0
 11
392.224623
 21
573.756214
 31
0.0
  0
LINE
  8
01_DREHEN
  5
7811
 10
392.224623
 20
573.756214
 30
0.0
 11
395.752616
 21
573.756214
 31
0.0
  0
LINE
  8
03_DUENN
  5
7812
 10
323.518059
 20
586.98621
 30
0.0
 11
323.518059
 21
573.756214
 31
0.0
  0
LINE
  8
03_DUENN
  5
7813
 10
323.518059
 20
573.756214
 30
0.0
 11
332.870959
 21
573.756214
 31
0.0
  0
LINE
  8
03_DUENN
  5
7814
 10
327.92805
 20
591.396201
 30
0.0
 11
325.706834
 21
590.791818
 31
0.0
  0
LINE
  8
03_DUENN
  5
7815
 10
325.706834
 20
590.791818
 30
0.0
 11
324.122441
 21
589.207425
 31
0.0
  0
LINE
  8
03_DUENN
  5
7816
 10
324.122441
 20
589.207425
 30
0.0
 11
323.518059
 21
586.98621
 31
0.0
  0
LINE
  8
03_DUENN
  5
7817
 10
328.460968
 20
591.396201
 30
0.0
 11
327.92805
 21
591.396201
 31
0.0
  0
LINE
  8
03_DUENN
  5
7818
 10
332.870959
 20
586.98621
 30
0.0
 11
332.266553
 21
589.207537
 31
0.0
  0
LINE
  8
03_DUENN
  5
7819
 10
332.266553
 20
589.207537
 30
0.0
 11
330.682182
 21
590.791886
 31
0.0
  0
LINE
  8
03_DUENN
  5
781A
 10
330.682182
 20
590.791886
 30
0.0
 11
328.460968
 21
591.396201
 31
0.0
  0
LINE
  8
03_DUENN
  5
781B
 10
332.870959
 20
573.756214
 30
0.0
 11
332.870959
 21
586.98621
 31
0.0
  0
LINE
  8
01_DREHEN
  5
781C
 10
348.719977
 20
556.116205
 30
0.0
 11
345.191961
 21
556.116205
 31
0.0
  0
LINE
  8
01_DREHEN
  5
781D
 10
345.191961
 20
556.116205
 30
0.0
 11
345.192857
 21
547.2962
 31
0.0
  0
LINE
  8
01_DREHEN
  5
781E
 10
345.192857
 20
547.2962
 30
0.0
 11
329.948088
 21
547.2962
 31
0.0
  0
LINE
  8
01_DREHEN
  5
781F
 10
329.948088
 20
547.2962
 30
0.0
 11
329.948088
 21
543.637061
 31
0.0
  0
LINE
  8
01_DREHEN
  5
7820
 10
329.948088
 20
543.637061
 30
0.0
 11
326.392853
 21
543.637061
 31
0.0
  0
LINE
  8
01_DREHEN
  5
7821
 10
326.392853
 20
543.637061
 30
0.0
 11
326.392853
 21
547.2962
 31
0.0
  0
LINE
  8
01_DREHEN
  5
7822
 10
326.392853
 20
547.2962
 30
0.0
 11
311.18646
 21
547.2962
 31
0.0
  0
LINE
  8
01_DREHEN
  5
7823
 10
311.18646
 20
547.2962
 30
0.0
 11
311.18646
 21
556.116205
 31
0.0
  0
LINE
  8
01_DREHEN
  5
7824
 10
311.18646
 20
556.116205
 30
0.0
 11
314.714453
 21
556.116205
 31
0.0
  0
LINE
  8
01_DREHEN
  5
7825
 10
314.714453
 20
556.116205
 30
0.0
 11
314.714453
 21
573.756214
 31
0.0
  0
LINE
  8
01_DREHEN
  5
7826
 10
314.714453
 20
573.756214
 30
0.0
 11
311.18646
 21
573.756214
 31
0.0
  0
LINE
  8
01_DREHEN
  5
7827
 10
311.18646
 20
573.756214
 30
0.0
 11
311.18646
 21
580.566127
 31
0.0
  0
LINE
  8
01_DREHEN
  5
7828
 10
348.719977
 20
573.756214
 30
0.0
 11
348.719977
 21
571.551107
 31
0.0
  0
LINE
  8
01_DREHEN
  5
7829
 10
348.719977
 20
571.551107
 30
0.0
 11
348.719977
 21
569.346021
 31
0.0
  0
LINE
  8
01_DREHEN
  5
782A
 10
348.719977
 20
569.346021
 30
0.0
 11
348.719977
 21
567.140959
 31
0.0
  0
LINE
  8
01_DREHEN
  5
782B
 10
348.719977
 20
567.140959
 30
0.0
 11
348.719977
 21
564.935918
 31
0.0
  0
LINE
  8
01_DREHEN
  5
782C
 10
348.719977
 20
564.935918
 30
0.0
 11
348.719977
 21
562.730922
 31
0.0
  0
LINE
  8
01_DREHEN
  5
782D
 10
348.719977
 20
562.730922
 30
0.0
 11
348.719977
 21
560.52595
 31
0.0
  0
LINE
  8
01_DREHEN
  5
782E
 10
348.719977
 20
560.52595
 30
0.0
 11
348.719977
 21
558.321066
 31
0.0
  0
LINE
  8
01_DREHEN
  5
782F
 10
348.719977
 20
558.321066
 30
0.0
 11
348.719977
 21
556.116205
 31
0.0
  0
LINE
  8
01_DREHEN
  5
7830
 10
311.18646
 20
582.970015
 30
0.0
 11
311.18646
 21
586.98621
 31
0.0
  0
LINE
  8
01_DREHEN
  5
7831
 10
311.18646
 20
586.98621
 30
0.0
 11
314.714453
 21
586.98621
 31
0.0
  0
LINE
  8
01_DREHEN
  5
7832
 10
314.714453
 20
586.98621
 30
0.0
 11
314.714453
 21
595.806215
 31
0.0
  0
LINE
  8
01_DREHEN
  5
7833
 10
314.714453
 20
595.806215
 30
0.0
 11
326.391957
 21
595.806215
 31
0.0
  0
LINE
  8
01_DREHEN
  5
7834
 10
326.391957
 20
595.806215
 30
0.0
 11
326.391957
 21
599.465354
 31
0.0
  0
LINE
  8
01_DREHEN
  5
7835
 10
326.391957
 20
599.465354
 30
0.0
 11
329.947214
 21
599.465354
 31
0.0
  0
LINE
  8
01_DREHEN
  5
7836
 10
329.947214
 20
599.465354
 30
0.0
 11
329.947214
 21
595.806215
 31
0.0
  0
LINE
  8
01_DREHEN
  5
7837
 10
329.947214
 20
595.806215
 30
0.0
 11
348.719977
 21
595.806215
 31
0.0
  0
LINE
  8
01_DREHEN
  5
7838
 10
348.719977
 20
595.806215
 30
0.0
 11
348.719977
 21
586.98621
 31
0.0
  0
LINE
  8
01_DREHEN
  5
7839
 10
348.719977
 20
586.98621
 30
0.0
 11
345.191961
 21
586.98621
 31
0.0
  0
LINE
  8
01_DREHEN
  5
783A
 10
345.191961
 20
586.98621
 30
0.0
 11
345.191961
 21
573.756214
 31
0.0
  0
LINE
  8
01_DREHEN
  5
783B
 10
345.191961
 20
573.756214
 30
0.0
 11
348.719977
 21
573.756214
 31
0.0
  0
LINE
  8
03_DUENN
  5
783C
 10
276.445721
 20
586.98621
 30
0.0
 11
276.445721
 21
573.756214
 31
0.0
  0
LINE
  8
03_DUENN
  5
783D
 10
276.445721
 20
573.756214
 30
0.0
 11
285.798621
 21
573.756214
 31
0.0
  0
LINE
  8
03_DUENN
  5
783E
 10
280.855712
 20
591.396201
 30
0.0
 11
278.634497
 21
590.791818
 31
0.0
  0
LINE
  8
03_DUENN
  5
783F
 10
278.634497
 20
590.791818
 30
0.0
 11
277.050103
 21
589.207425
 31
0.0
  0
LINE
  8
03_DUENN
  5
7840
 10
277.050103
 20
589.207425
 30
0.0
 11
276.445721
 21
586.98621
 31
0.0
  0
LINE
  8
03_DUENN
  5
7841
 10
281.388607
 20
591.396201
 30
0.0
 11
280.855712
 21
591.396201
 31
0.0
  0
LINE
  8
03_DUENN
  5
7842
 10
285.798621
 20
586.98621
 30
0.0
 11
285.194216
 21
589.207537
 31
0.0
  0
LINE
  8
03_DUENN
  5
7843
 10
285.194216
 20
589.207537
 30
0.0
 11
283.609823
 21
590.791886
 31
0.0
  0
LINE
  8
03_DUENN
  5
7844
 10
283.609823
 20
590.791886
 30
0.0
 11
281.388607
 21
591.396201
 31
0.0
  0
LINE
  8
03_DUENN
  5
7845
 10
285.798621
 20
573.756214
 30
0.0
 11
285.798621
 21
586.98621
 31
0.0
  0
LINE
  8
01_DREHEN
  5
7846
 10
301.647638
 20
556.116205
 30
0.0
 11
298.119623
 21
556.116205
 31
0.0
  0
LINE
  8
01_DREHEN
  5
7847
 10
298.119623
 20
556.116205
 30
0.0
 11
298.12052
 21
547.2962
 31
0.0
  0
LINE
  8
01_DREHEN
  5
7848
 10
298.12052
 20
547.2962
 30
0.0
 11
282.87575
 21
547.2962
 31
0.0
  0
LINE
  8
01_DREHEN
  5
7849
 10
282.87575
 20
547.2962
 30
0.0
 11
282.87575
 21
543.637061
 31
0.0
  0
LINE
  8
01_DREHEN
  5
784A
 10
282.87575
 20
543.637061
 30
0.0
 11
279.320493
 21
543.637061
 31
0.0
  0
LINE
  8
01_DREHEN
  5
784B
 10
279.320493
 20
543.637061
 30
0.0
 11
279.320493
 21
547.2962
 31
0.0
  0
LINE
  8
01_DREHEN
  5
784C
 10
279.320493
 20
547.2962
 30
0.0
 11
264.114122
 21
547.2962
 31
0.0
  0
LINE
  8
01_DREHEN
  5
784D
 10
264.114122
 20
547.2962
 30
0.0
 11
264.114122
 21
556.116205
 31
0.0
  0
LINE
  8
01_DREHEN
  5
784E
 10
264.114122
 20
556.116205
 30
0.0
 11
267.642115
 21
556.116205
 31
0.0
  0
LINE
  8
01_DREHEN
  5
784F
 10
267.642115
 20
556.116205
 30
0.0
 11
267.642115
 21
573.756214
 31
0.0
  0
LINE
  8
01_DREHEN
  5
7850
 10
267.642115
 20
573.756214
 30
0.0
 11
264.114122
 21
573.756214
 31
0.0
  0
LINE
  8
01_DREHEN
  5
7851
 10
264.114122
 20
573.756214
 30
0.0
 11
264.114122
 21
580.566127
 31
0.0
  0
LINE
  8
01_DREHEN
  5
7852
 10
301.647638
 20
573.756214
 30
0.0
 11
301.647638
 21
571.551107
 31
0.0
  0
LINE
  8
01_DREHEN
  5
7853
 10
301.647638
 20
571.551107
 30
0.0
 11
301.647638
 21
569.346021
 31
0.0
  0
LINE
  8
01_DREHEN
  5
7854
 10
301.647638
 20
569.346021
 30
0.0
 11
301.647638
 21
567.140959
 31
0.0
  0
LINE
  8
01_DREHEN
  5
7855
 10
301.647638
 20
567.140959
 30
0.0
 11
301.647638
 21
564.935918
 31
0.0
  0
LINE
  8
01_DREHEN
  5
7856
 10
301.647638
 20
564.935918
 30
0.0
 11
301.647638
 21
562.730922
 31
0.0
  0
LINE
  8
01_DREHEN
  5
7857
 10
301.647638
 20
562.730922
 30
0.0
 11
301.647638
 21
560.52595
 31
0.0
  0
LINE
  8
01_DREHEN
  5
7858
 10
301.647638
 20
560.52595
 30
0.0
 11
301.647638
 21
558.321066
 31
0.0
  0
LINE
  8
01_DREHEN
  5
7859
 10
301.647638
 20
558.321066
 30
0.0
 11
301.647638
 21
556.116205
 31
0.0
  0
LINE
  8
01_DREHEN
  5
785A
 10
264.114122
 20
582.970015
 30
0.0
 11
264.114122
 21
586.98621
 31
0.0
  0
LINE
  8
01_DREHEN
  5
785B
 10
264.114122
 20
586.98621
 30
0.0
 11
267.642115
 21
586.98621
 31
0.0
  0
LINE
  8
01_DREHEN
  5
785C
 10
267.642115
 20
586.98621
 30
0.0
 11
267.642115
 21
595.806215
 31
0.0
  0
LINE
  8
01_DREHEN
  5
785D
 10
267.642115
 20
595.806215
 30
0.0
 11
279.319619
 21
595.806215
 31
0.0
  0
LINE
  8
01_DREHEN
  5
785E
 10
279.319619
 20
595.806215
 30
0.0
 11
279.319619
 21
599.465354
 31
0.0
  0
LINE
  8
01_DREHEN
  5
785F
 10
279.319619
 20
599.465354
 30
0.0
 11
282.874876
 21
599.465354
 31
0.0
  0
LINE
  8
01_DREHEN
  5
7860
 10
282.874876
 20
599.465354
 30
0.0
 11
282.874876
 21
595.806215
 31
0.0
  0
LINE
  8
01_DREHEN
  5
7861
 10
282.874876
 20
595.806215
 30
0.0
 11
301.647638
 21
595.806215
 31
0.0
  0
LINE
  8
01_DREHEN
  5
7862
 10
301.647638
 20
595.806215
 30
0.0
 11
301.647638
 21
586.98621
 31
0.0
  0
LINE
  8
01_DREHEN
  5
7863
 10
301.647638
 20
586.98621
 30
0.0
 11
298.119623
 21
586.98621
 31
0.0
  0
LINE
  8
01_DREHEN
  5
7864
 10
298.119623
 20
586.98621
 30
0.0
 11
298.119623
 21
573.756214
 31
0.0
  0
LINE
  8
01_DREHEN
  5
7865
 10
298.119623
 20
573.756214
 30
0.0
 11
301.647638
 21
573.756214
 31
0.0
  0
LINE
  8
03_DUENN
  5
7866
 10
229.413058
 20
586.98621
 30
0.0
 11
229.413058
 21
573.756214
 31
0.0
  0
LINE
  8
03_DUENN
  5
7867
 10
229.413058
 20
573.756214
 30
0.0
 11
238.765958
 21
573.756214
 31
0.0
  0
LINE
  8
03_DUENN
  5
7868
 10
233.823072
 20
591.396201
 30
0.0
 11
231.601857
 21
590.791818
 31
0.0
  0
LINE
  8
03_DUENN
  5
7869
 10
231.601857
 20
590.791818
 30
0.0
 11
230.017464
 21
589.207425
 31
0.0
  0
LINE
  8
03_DUENN
  5
786A
 10
230.017464
 20
589.207425
 30
0.0
 11
229.413058
 21
586.98621
 31
0.0
  0
LINE
  8
03_DUENN
  5
786B
 10
234.355967
 20
591.396201
 30
0.0
 11
233.823072
 21
591.396201
 31
0.0
  0
LINE
  8
03_DUENN
  5
786C
 10
238.765958
 20
586.98621
 30
0.0
 11
238.161576
 21
589.207537
 31
0.0
  0
LINE
  8
03_DUENN
  5
786D
 10
238.161576
 20
589.207537
 30
0.0
 11
236.577183
 21
590.791886
 31
0.0
  0
LINE
  8
03_DUENN
  5
786E
 10
236.577183
 20
590.791886
 30
0.0
 11
234.355967
 21
591.396201
 31
0.0
  0
LINE
  8
03_DUENN
  5
786F
 10
238.765958
 20
573.756214
 30
0.0
 11
238.765958
 21
586.98621
 31
0.0
  0
LINE
  8
01_DREHEN
  5
7870
 10
254.614976
 20
556.116205
 30
0.0
 11
251.086983
 21
556.116205
 31
0.0
  0
LINE
  8
01_DREHEN
  5
7871
 10
251.086983
 20
556.116205
 30
0.0
 11
251.087857
 21
547.2962
 31
0.0
  0
LINE
  8
01_DREHEN
  5
7872
 10
251.087857
 20
547.2962
 30
0.0
 11
235.84311
 21
547.2962
 31
0.0
  0
LINE
  8
01_DREHEN
  5
7873
 10
235.84311
 20
547.2962
 30
0.0
 11
235.84311
 21
543.637061
 31
0.0
  0
LINE
  8
01_DREHEN
  5
7874
 10
235.84311
 20
543.637061
 30
0.0
 11
232.287853
 21
543.637061
 31
0.0
  0
LINE
  8
01_DREHEN
  5
7875
 10
232.287853
 20
543.637061
 30
0.0
 11
232.287853
 21
547.2962
 31
0.0
  0
LINE
  8
01_DREHEN
  5
7876
 10
232.287853
 20
547.2962
 30
0.0
 11
217.08146
 21
547.2962
 31
0.0
  0
LINE
  8
01_DREHEN
  5
7877
 10
217.08146
 20
547.2962
 30
0.0
 11
217.08146
 21
556.116205
 31
0.0
  0
LINE
  8
01_DREHEN
  5
7878
 10
217.08146
 20
556.116205
 30
0.0
 11
220.609475
 21
556.116205
 31
0.0
  0
LINE
  8
01_DREHEN
  5
7879
 10
220.609475
 20
556.116205
 30
0.0
 11
220.609475
 21
573.756214
 31
0.0
  0
LINE
  8
01_DREHEN
  5
787A
 10
220.609475
 20
573.756214
 30
0.0
 11
217.08146
 21
573.756214
 31
0.0
  0
LINE
  8
01_DREHEN
  5
787B
 10
217.08146
 20
573.756214
 30
0.0
 11
217.08146
 21
580.566127
 31
0.0
  0
LINE
  8
01_DREHEN
  5
787C
 10
254.614976
 20
573.756214
 30
0.0
 11
254.614976
 21
571.551107
 31
0.0
  0
LINE
  8
01_DREHEN
  5
787D
 10
254.614976
 20
571.551107
 30
0.0
 11
254.614976
 21
569.346021
 31
0.0
  0
LINE
  8
01_DREHEN
  5
787E
 10
254.614976
 20
569.346021
 30
0.0
 11
254.614976
 21
567.140959
 31
0.0
  0
LINE
  8
01_DREHEN
  5
787F
 10
254.614976
 20
567.140959
 30
0.0
 11
254.614976
 21
564.935918
 31
0.0
  0
LINE
  8
01_DREHEN
  5
7880
 10
254.614976
 20
564.935918
 30
0.0
 11
254.614976
 21
562.730922
 31
0.0
  0
LINE
  8
01_DREHEN
  5
7881
 10
254.614976
 20
562.730922
 30
0.0
 11
254.614976
 21
560.52595
 31
0.0
  0
LINE
  8
01_DREHEN
  5
7882
 10
254.614976
 20
560.52595
 30
0.0
 11
254.614976
 21
558.321066
 31
0.0
  0
LINE
  8
01_DREHEN
  5
7883
 10
254.614976
 20
558.321066
 30
0.0
 11
254.614976
 21
556.116205
 31
0.0
  0
LINE
  8
01_DREHEN
  5
7884
 10
217.08146
 20
582.970015
 30
0.0
 11
217.08146
 21
586.98621
 31
0.0
  0
LINE
  8
01_DREHEN
  5
7885
 10
217.08146
 20
586.98621
 30
0.0
 11
220.609475
 21
586.98621
 31
0.0
  0
LINE
  8
01_DREHEN
  5
7886
 10
220.609475
 20
586.98621
 30
0.0
 11
220.609475
 21
595.806215
 31
0.0
  0
LINE
  8
01_DREHEN
  5
7887
 10
220.609475
 20
595.806215
 30
0.0
 11
232.286979
 21
595.806215
 31
0.0
  0
LINE
  8
01_DREHEN
  5
7888
 10
232.286979
 20
595.806215
 30
0.0
 11
232.286979
 21
599.465354
 31
0.0
  0
LINE
  8
01_DREHEN
  5
7889
 10
232.286979
 20
599.465354
 30
0.0
 11
235.842214
 21
599.465354
 31
0.0
  0
LINE
  8
01_DREHEN
  5
788A
 10
235.842214
 20
599.465354
 30
0.0
 11
235.842214
 21
595.806215
 31
0.0
  0
LINE
  8
01_DREHEN
  5
788B
 10
235.842214
 20
595.806215
 30
0.0
 11
254.614976
 21
595.806215
 31
0.0
  0
LINE
  8
01_DREHEN
  5
788C
 10
254.614976
 20
595.806215
 30
0.0
 11
254.614976
 21
586.98621
 31
0.0
  0
LINE
  8
01_DREHEN
  5
788D
 10
254.614976
 20
586.98621
 30
0.0
 11
251.086983
 21
586.98621
 31
0.0
  0
LINE
  8
01_DREHEN
  5
788E
 10
251.086983
 20
586.98621
 30
0.0
 11
251.086983
 21
573.756214
 31
0.0
  0
LINE
  8
01_DREHEN
  5
788F
 10
251.086983
 20
573.756214
 30
0.0
 11
254.614976
 21
573.756214
 31
0.0
  0
LINE
  8
03_DUENN
  5
7890
 10
368.59967
 20
514.964522
 30
0.0
 11
368.59967
 21
501.734526
 31
0.0
  0
LINE
  8
03_DUENN
  5
7891
 10
368.59967
 20
501.734526
 30
0.0
 11
377.95257
 21
501.734526
 31
0.0
  0
LINE
  8
03_DUENN
  5
7892
 10
373.009684
 20
519.374513
 30
0.0
 11
370.788468
 21
518.770131
 31
0.0
  0
LINE
  8
03_DUENN
  5
7893
 10
370.788468
 20
518.770131
 30
0.0
 11
369.204075
 21
517.185738
 31
0.0
  0
LINE
  8
03_DUENN
  5
7894
 10
369.204075
 20
517.185738
 30
0.0
 11
368.59967
 21
514.964522
 31
0.0
  0
LINE
  8
03_DUENN
  5
7895
 10
373.542579
 20
519.374513
 30
0.0
 11
373.009684
 21
519.374513
 31
0.0
  0
LINE
  8
03_DUENN
  5
7896
 10
377.95257
 20
514.964522
 30
0.0
 11
377.348187
 21
517.18585
 31
0.0
  0
LINE
  8
03_DUENN
  5
7897
 10
377.348187
 20
517.18585
 30
0.0
 11
375.763794
 21
518.770198
 31
0.0
  0
LINE
  8
03_DUENN
  5
7898
 10
375.763794
 20
518.770198
 30
0.0
 11
373.542579
 21
519.374513
 31
0.0
  0
LINE
  8
03_DUENN
  5
7899
 10
377.95257
 20
501.734526
 30
0.0
 11
377.95257
 21
514.964522
 31
0.0
  0
LINE
  8
01_DREHEN
  5
789A
 10
393.801588
 20
484.094517
 30
0.0
 11
390.273595
 21
484.094517
 31
0.0
  0
LINE
  8
01_DREHEN
  5
789B
 10
390.273595
 20
484.094517
 30
0.0
 11
390.274469
 21
475.274512
 31
0.0
  0
LINE
  8
01_DREHEN
  5
789C
 10
390.274469
 20
475.274512
 30
0.0
 11
375.029721
 21
475.274512
 31
0.0
  0
LINE
  8
01_DREHEN
  5
789D
 10
375.029721
 20
475.274512
 30
0.0
 11
375.029721
 21
471.615373
 31
0.0
  0
LINE
  8
01_DREHEN
  5
789E
 10
375.029721
 20
471.615373
 30
0.0
 11
371.474464
 21
471.615373
 31
0.0
  0
LINE
  8
01_DREHEN
  5
789F
 10
371.474464
 20
471.615373
 30
0.0
 11
371.474464
 21
475.274512
 31
0.0
  0
LINE
  8
01_DREHEN
  5
78A0
 10
371.474464
 20
475.274512
 30
0.0
 11
356.268071
 21
475.274512
 31
0.0
  0
LINE
  8
01_DREHEN
  5
78A1
 10
356.268071
 20
475.274512
 30
0.0
 11
356.268071
 21
484.094517
 31
0.0
  0
LINE
  8
01_DREHEN
  5
78A2
 10
356.268071
 20
484.094517
 30
0.0
 11
359.796086
 21
484.094517
 31
0.0
  0
LINE
  8
01_DREHEN
  5
78A3
 10
359.796086
 20
484.094517
 30
0.0
 11
359.796086
 21
501.734526
 31
0.0
  0
LINE
  8
01_DREHEN
  5
78A4
 10
359.796086
 20
501.734526
 30
0.0
 11
356.268071
 21
501.734526
 31
0.0
  0
LINE
  8
01_DREHEN
  5
78A5
 10
356.268071
 20
501.734526
 30
0.0
 11
356.268071
 21
508.54444
 31
0.0
  0
LINE
  8
01_DREHEN
  5
78A6
 10
393.801588
 20
501.734526
 30
0.0
 11
393.801588
 21
499.529419
 31
0.0
  0
LINE
  8
01_DREHEN
  5
78A7
 10
393.801588
 20
499.529419
 30
0.0
 11
393.801588
 21
497.324333
 31
0.0
  0
LINE
  8
01_DREHEN
  5
78A8
 10
393.801588
 20
497.324333
 30
0.0
 11
393.801588
 21
495.119271
 31
0.0
  0
LINE
  8
01_DREHEN
  5
78A9
 10
393.801588
 20
495.119271
 30
0.0
 11
393.801588
 21
492.91423
 31
0.0
  0
LINE
  8
01_DREHEN
  5
78AA
 10
393.801588
 20
492.91423
 30
0.0
 11
393.801588
 21
490.709234
 31
0.0
  0
LINE
  8
01_DREHEN
  5
78AB
 10
393.801588
 20
490.709234
 30
0.0
 11
393.801588
 21
488.504262
 31
0.0
  0
LINE
  8
01_DREHEN
  5
78AC
 10
393.801588
 20
488.504262
 30
0.0
 11
393.801588
 21
486.299378
 31
0.0
  0
LINE
  8
01_DREHEN
  5
78AD
 10
393.801588
 20
486.299378
 30
0.0
 11
393.801588
 21
484.094517
 31
0.0
  0
LINE
  8
01_DREHEN
  5
78AE
 10
356.268071
 20
510.948327
 30
0.0
 11
356.268071
 21
514.964522
 31
0.0
  0
LINE
  8
01_DREHEN
  5
78AF
 10
356.268071
 20
514.964522
 30
0.0
 11
359.796086
 21
514.964522
 31
0.0
  0
LINE
  8
01_DREHEN
  5
78B0
 10
359.796086
 20
514.964522
 30
0.0
 11
359.796086
 21
523.784527
 31
0.0
  0
LINE
  8
01_DREHEN
  5
78B1
 10
359.796086
 20
523.784527
 30
0.0
 11
371.473591
 21
523.784527
 31
0.0
  0
LINE
  8
01_DREHEN
  5
78B2
 10
371.473591
 20
523.784527
 30
0.0
 11
371.473591
 21
527.443666
 31
0.0
  0
LINE
  8
01_DREHEN
  5
78B3
 10
371.473591
 20
527.443666
 30
0.0
 11
375.028825
 21
527.443666
 31
0.0
  0
LINE
  8
01_DREHEN
  5
78B4
 10
375.028825
 20
527.443666
 30
0.0
 11
375.028825
 21
523.784527
 31
0.0
  0
LINE
  8
01_DREHEN
  5
78B5
 10
375.028825
 20
523.784527
 30
0.0
 11
393.801588
 21
523.784527
 31
0.0
  0
LINE
  8
01_DREHEN
  5
78B6
 10
393.801588
 20
523.784527
 30
0.0
 11
393.801588
 21
514.964522
 31
0.0
  0
LINE
  8
01_DREHEN
  5
78B7
 10
393.801588
 20
514.964522
 30
0.0
 11
390.273595
 21
514.964522
 31
0.0
  0
LINE
  8
01_DREHEN
  5
78B8
 10
390.273595
 20
514.964522
 30
0.0
 11
390.273595
 21
501.734526
 31
0.0
  0
LINE
  8
01_DREHEN
  5
78B9
 10
390.273595
 20
501.734526
 30
0.0
 11
393.801588
 21
501.734526
 31
0.0
  0
LINE
  8
03_DUENN
  5
78BA
 10
321.56703
 20
514.964522
 30
0.0
 11
321.56703
 21
501.734526
 31
0.0
  0
LINE
  8
03_DUENN
  5
78BB
 10
321.56703
 20
501.734526
 30
0.0
 11
330.91993
 21
501.734526
 31
0.0
  0
LINE
  8
03_DUENN
  5
78BC
 10
325.977021
 20
519.374513
 30
0.0
 11
323.755806
 21
518.770131
 31
0.0
  0
LINE
  8
03_DUENN
  5
78BD
 10
323.755806
 20
518.770131
 30
0.0
 11
322.171413
 21
517.185738
 31
0.0
  0
LINE
  8
03_DUENN
  5
78BE
 10
322.171413
 20
517.185738
 30
0.0
 11
321.56703
 21
514.964522
 31
0.0
  0
LINE
  8
03_DUENN
  5
78BF
 10
326.509939
 20
519.374513
 30
0.0
 11
325.977021
 21
519.374513
 31
0.0
  0
LINE
  8
03_DUENN
  5
78C0
 10
330.91993
 20
514.964522
 30
0.0
 11
330.315525
 21
517.18585
 31
0.0
  0
LINE
  8
03_DUENN
  5
78C1
 10
330.315525
 20
517.18585
 30
0.0
 11
328.731154
 21
518.770198
 31
0.0
  0
LINE
  8
03_DUENN
  5
78C2
 10
328.731154
 20
518.770198
 30
0.0
 11
326.509939
 21
519.374513
 31
0.0
  0
LINE
  8
03_DUENN
  5
78C3
 10
330.91993
 20
501.734526
 30
0.0
 11
330.91993
 21
514.964522
 31
0.0
  0
LINE
  8
01_DREHEN
  5
78C4
 10
346.768948
 20
484.094517
 30
0.0
 11
343.240932
 21
484.094517
 31
0.0
  0
LINE
  8
01_DREHEN
  5
78C5
 10
343.240932
 20
484.094517
 30
0.0
 11
343.241828
 21
475.274512
 31
0.0
  0
LINE
  8
01_DREHEN
  5
78C6
 10
343.241828
 20
475.274512
 30
0.0
 11
327.997059
 21
475.274512
 31
0.0
  0
LINE
  8
01_DREHEN
  5
78C7
 10
327.997059
 20
475.274512
 30
0.0
 11
327.997059
 21
471.615373
 31
0.0
  0
LINE
  8
01_DREHEN
  5
78C8
 10
327.997059
 20
471.615373
 30
0.0
 11
324.441825
 21
471.615373
 31
0.0
  0
LINE
  8
01_DREHEN
  5
78C9
 10
324.441825
 20
471.615373
 30
0.0
 11
324.441825
 21
475.274512
 31
0.0
  0
LINE
  8
01_DREHEN
  5
78CA
 10
324.441825
 20
475.274512
 30
0.0
 11
309.235431
 21
475.274512
 31
0.0
  0
LINE
  8
01_DREHEN
  5
78CB
 10
309.235431
 20
475.274512
 30
0.0
 11
309.235431
 21
484.094517
 31
0.0
  0
LINE
  8
01_DREHEN
  5
78CC
 10
309.235431
 20
484.094517
 30
0.0
 11
312.763424
 21
484.094517
 31
0.0
  0
LINE
  8
01_DREHEN
  5
78CD
 10
312.763424
 20
484.094517
 30
0.0
 11
312.763424
 21
501.734526
 31
0.0
  0
LINE
  8
01_DREHEN
  5
78CE
 10
312.763424
 20
501.734526
 30
0.0
 11
309.235431
 21
501.734526
 31
0.0
  0
LINE
  8
01_DREHEN
  5
78CF
 10
309.235431
 20
501.734526
 30
0.0
 11
309.235431
 21
508.54444
 31
0.0
  0
LINE
  8
01_DREHEN
  5
78D0
 10
346.768948
 20
501.734526
 30
0.0
 11
346.768948
 21
499.529419
 31
0.0
  0
LINE
  8
01_DREHEN
  5
78D1
 10
346.768948
 20
499.529419
 30
0.0
 11
346.768948
 21
497.324333
 31
0.0
  0
LINE
  8
01_DREHEN
  5
78D2
 10
346.768948
 20
497.324333
 30
0.0
 11
346.768948
 21
495.119271
 31
0.0
  0
LINE
  8
01_DREHEN
  5
78D3
 10
346.768948
 20
495.119271
 30
0.0
 11
346.768948
 21
492.91423
 31
0.0
  0
LINE
  8
01_DREHEN
  5
78D4
 10
346.768948
 20
492.91423
 30
0.0
 11
346.768948
 21
490.709234
 31
0.0
  0
LINE
  8
01_DREHEN
  5
78D5
 10
346.768948
 20
490.709234
 30
0.0
 11
346.768948
 21
488.504262
 31
0.0
  0
LINE
  8
01_DREHEN
  5
78D6
 10
346.768948
 20
488.504262
 30
0.0
 11
346.768948
 21
486.299378
 31
0.0
  0
LINE
  8
01_DREHEN
  5
78D7
 10
346.768948
 20
486.299378
 30
0.0
 11
346.768948
 21
484.094517
 31
0.0
  0
LINE
  8
01_DREHEN
  5
78D8
 10
309.235431
 20
510.948327
 30
0.0
 11
309.235431
 21
514.964522
 31
0.0
  0
LINE
  8
01_DREHEN
  5
78D9
 10
309.235431
 20
514.964522
 30
0.0
 11
312.763424
 21
514.964522
 31
0.0
  0
LINE
  8
01_DREHEN
  5
78DA
 10
312.763424
 20
514.964522
 30
0.0
 11
312.763424
 21
523.784527
 31
0.0
  0
LINE
  8
01_DREHEN
  5
78DB
 10
312.763424
 20
523.784527
 30
0.0
 11
324.440929
 21
523.784527
 31
0.0
  0
LINE
  8
01_DREHEN
  5
78DC
 10
324.440929
 20
523.784527
 30
0.0
 11
324.440929
 21
527.443666
 31
0.0
  0
LINE
  8
01_DREHEN
  5
78DD
 10
324.440929
 20
527.443666
 30
0.0
 11
327.996186
 21
527.443666
 31
0.0
  0
LINE
  8
01_DREHEN
  5
78DE
 10
327.996186
 20
527.443666
 30
0.0
 11
327.996186
 21
523.784527
 31
0.0
  0
LINE
  8
01_DREHEN
  5
78DF
 10
327.996186
 20
523.784527
 30
0.0
 11
346.768948
 21
523.784527
 31
0.0
  0
LINE
  8
01_DREHEN
  5
78E0
 10
346.768948
 20
523.784527
 30
0.0
 11
346.768948
 21
514.964522
 31
0.0
  0
LINE
  8
01_DREHEN
  5
78E1
 10
346.768948
 20
514.964522
 30
0.0
 11
343.240932
 21
514.964522
 31
0.0
  0
LINE
  8
01_DREHEN
  5
78E2
 10
343.240932
 20
514.964522
 30
0.0
 11
343.240932
 21
501.734526
 31
0.0
  0
LINE
  8
01_DREHEN
  5
78E3
 10
343.240932
 20
501.734526
 30
0.0
 11
346.768948
 21
501.734526
 31
0.0
  0
LINE
  8
03_DUENN
  5
78E4
 10
274.494692
 20
514.964522
 30
0.0
 11
274.494692
 21
501.734526
 31
0.0
  0
LINE
  8
03_DUENN
  5
78E5
 10
274.494692
 20
501.734526
 30
0.0
 11
283.847592
 21
501.734526
 31
0.0
  0
LINE
  8
03_DUENN
  5
78E6
 10
278.904683
 20
519.374513
 30
0.0
 11
276.683469
 21
518.770131
 31
0.0
  0
LINE
  8
03_DUENN
  5
78E7
 10
276.683469
 20
518.770131
 30
0.0
 11
275.099075
 21
517.185738
 31
0.0
  0
LINE
  8
03_DUENN
  5
78E8
 10
275.099075
 20
517.185738
 30
0.0
 11
274.494692
 21
514.964522
 31
0.0
  0
LINE
  8
03_DUENN
  5
78E9
 10
279.437579
 20
519.374513
 30
0.0
 11
278.904683
 21
519.374513
 31
0.0
  0
LINE
  8
03_DUENN
  5
78EA
 10
283.847592
 20
514.964522
 30
0.0
 11
283.243187
 21
517.18585
 31
0.0
  0
LINE
  8
03_DUENN
  5
78EB
 10
283.243187
 20
517.18585
 30
0.0
 11
281.658794
 21
518.770198
 31
0.0
  0
LINE
  8
03_DUENN
  5
78EC
 10
281.658794
 20
518.770198
 30
0.0
 11
279.437579
 21
519.374513
 31
0.0
  0
LINE
  8
03_DUENN
  5
78ED
 10
283.847592
 20
501.734526
 30
0.0
 11
283.847592
 21
514.964522
 31
0.0
  0
LINE
  8
01_DREHEN
  5
78EE
 10
299.69661
 20
484.094517
 30
0.0
 11
296.168595
 21
484.094517
 31
0.0
  0
LINE
  8
01_DREHEN
  5
78EF
 10
296.168595
 20
484.094517
 30
0.0
 11
296.169491
 21
475.274512
 31
0.0
  0
LINE
  8
01_DREHEN
  5
78F0
 10
296.169491
 20
475.274512
 30
0.0
 11
280.924722
 21
475.274512
 31
0.0
  0
LINE
  8
01_DREHEN
  5
78F1
 10
280.924722
 20
475.274512
 30
0.0
 11
280.924722
 21
471.615373
 31
0.0
  0
LINE
  8
01_DREHEN
  5
78F2
 10
280.924722
 20
471.615373
 30
0.0
 11
277.369464
 21
471.615373
 31
0.0
  0
LINE
  8
01_DREHEN
  5
78F3
 10
277.369464
 20
471.615373
 30
0.0
 11
277.369464
 21
475.274512
 31
0.0
  0
LINE
  8
01_DREHEN
  5
78F4
 10
277.369464
 20
475.274512
 30
0.0
 11
262.163094
 21
475.274512
 31
0.0
  0
LINE
  8
01_DREHEN
  5
78F5
 10
262.163094
 20
475.274512
 30
0.0
 11
262.163094
 21
484.094517
 31
0.0
  0
LINE
  8
01_DREHEN
  5
78F6
 10
262.163094
 20
484.094517
 30
0.0
 11
265.691087
 21
484.094517
 31
0.0
  0
LINE
  8
01_DREHEN
  5
78F7
 10
265.691087
 20
484.094517
 30
0.0
 11
265.691087
 21
501.734526
 31
0.0
  0
LINE
  8
01_DREHEN
  5
78F8
 10
265.691087
 20
501.734526
 30
0.0
 11
262.163094
 21
501.734526
 31
0.0
  0
LINE
  8
01_DREHEN
  5
78F9
 10
262.163094
 20
501.734526
 30
0.0
 11
262.163094
 21
508.54444
 31
0.0
  0
LINE
  8
01_DREHEN
  5
78FA
 10
299.69661
 20
501.734526
 30
0.0
 11
299.69661
 21
499.529419
 31
0.0
  0
LINE
  8
01_DREHEN
  5
78FB
 10
299.69661
 20
499.529419
 30
0.0
 11
299.69661
 21
497.324333
 31
0.0
  0
LINE
  8
01_DREHEN
  5
78FC
 10
299.69661
 20
497.324333
 30
0.0
 11
299.69661
 21
495.119271
 31
0.0
  0
LINE
  8
01_DREHEN
  5
78FD
 10
299.69661
 20
495.119271
 30
0.0
 11
299.69661
 21
492.91423
 31
0.0
  0
LINE
  8
01_DREHEN
  5
78FE
 10
299.69661
 20
492.91423
 30
0.0
 11
299.69661
 21
490.709234
 31
0.0
  0
LINE
  8
01_DREHEN
  5
78FF
 10
299.69661
 20
490.709234
 30
0.0
 11
299.69661
 21
488.504262
 31
0.0
  0
LINE
  8
01_DREHEN
  5
7900
 10
299.69661
 20
488.504262
 30
0.0
 11
299.69661
 21
486.299378
 31
0.0
  0
LINE
  8
01_DREHEN
  5
7901
 10
299.69661
 20
486.299378
 30
0.0
 11
299.69661
 21
484.094517
 31
0.0
  0
LINE
  8
01_DREHEN
  5
7902
 10
262.163094
 20
510.948327
 30
0.0
 11
262.163094
 21
514.964522
 31
0.0
  0
LINE
  8
01_DREHEN
  5
7903
 10
262.163094
 20
514.964522
 30
0.0
 11
265.691087
 21
514.964522
 31
0.0
  0
LINE
  8
01_DREHEN
  5
7904
 10
265.691087
 20
514.964522
 30
0.0
 11
265.691087
 21
523.784527
 31
0.0
  0
LINE
  8
01_DREHEN
  5
7905
 10
265.691087
 20
523.784527
 30
0.0
 11
277.36859
 21
523.784527
 31
0.0
  0
LINE
  8
01_DREHEN
  5
7906
 10
277.36859
 20
523.784527
 30
0.0
 11
277.36859
 21
527.443666
 31
0.0
  0
LINE
  8
01_DREHEN
  5
7907
 10
277.36859
 20
527.443666
 30
0.0
 11
280.923848
 21
527.443666
 31
0.0
  0
LINE
  8
01_DREHEN
  5
7908
 10
280.923848
 20
527.443666
 30
0.0
 11
280.923848
 21
523.784527
 31
0.0
  0
LINE
  8
01_DREHEN
  5
7909
 10
280.923848
 20
523.784527
 30
0.0
 11
299.69661
 21
523.784527
 31
0.0
  0
LINE
  8
01_DREHEN
  5
790A
 10
299.69661
 20
523.784527
 30
0.0
 11
299.69661
 21
514.964522
 31
0.0
  0
LINE
  8
01_DREHEN
  5
790B
 10
299.69661
 20
514.964522
 30
0.0
 11
296.168595
 21
514.964522
 31
0.0
  0
LINE
  8
01_DREHEN
  5
790C
 10
296.168595
 20
514.964522
 30
0.0
 11
296.168595
 21
501.734526
 31
0.0
  0
LINE
  8
01_DREHEN
  5
790D
 10
296.168595
 20
501.734526
 30
0.0
 11
299.69661
 21
501.734526
 31
0.0
  0
LINE
  8
03_DUENN
  5
790E
 10
227.46203
 20
514.964522
 30
0.0
 11
227.46203
 21
501.734526
 31
0.0
  0
LINE
  8
03_DUENN
  5
790F
 10
227.46203
 20
501.734526
 30
0.0
 11
236.81493
 21
501.734526
 31
0.0
  0
LINE
  8
03_DUENN
  5
7910
 10
231.872044
 20
519.374513
 30
0.0
 11
229.650828
 21
518.770131
 31
0.0
  0
LINE
  8
03_DUENN
  5
7911
 10
229.650828
 20
518.770131
 30
0.0
 11
228.066435
 21
517.185738
 31
0.0
  0
LINE
  8
03_DUENN
  5
7912
 10
228.066435
 20
517.185738
 30
0.0
 11
227.46203
 21
514.964522
 31
0.0
  0
LINE
  8
03_DUENN
  5
7913
 10
232.404939
 20
519.374513
 30
0.0
 11
231.872044
 21
519.374513
 31
0.0
  0
LINE
  8
03_DUENN
  5
7914
 10
236.81493
 20
514.964522
 30
0.0
 11
236.210547
 21
517.18585
 31
0.0
  0
LINE
  8
03_DUENN
  5
7915
 10
236.210547
 20
517.18585
 30
0.0
 11
234.626154
 21
518.770198
 31
0.0
  0
LINE
  8
03_DUENN
  5
7916
 10
234.626154
 20
518.770198
 30
0.0
 11
232.404939
 21
519.374513
 31
0.0
  0
LINE
  8
03_DUENN
  5
7917
 10
236.81493
 20
501.734526
 30
0.0
 11
236.81493
 21
514.964522
 31
0.0
  0
LINE
  8
01_DREHEN
  5
7918
 10
252.663948
 20
484.094517
 30
0.0
 11
249.135955
 21
484.094517
 31
0.0
  0
LINE
  8
01_DREHEN
  5
7919
 10
249.135955
 20
484.094517
 30
0.0
 11
249.136829
 21
475.274512
 31
0.0
  0
LINE
  8
01_DREHEN
  5
791A
 10
249.136829
 20
475.274512
 30
0.0
 11
233.892081
 21
475.274512
 31
0.0
  0
LINE
  8
01_DREHEN
  5
791B
 10
233.892081
 20
475.274512
 30
0.0
 11
233.892081
 21
471.615373
 31
0.0
  0
LINE
  8
01_DREHEN
  5
791C
 10
233.892081
 20
471.615373
 30
0.0
 11
230.336824
 21
471.615373
 31
0.0
  0
LINE
  8
01_DREHEN
  5
791D
 10
230.336824
 20
471.615373
 30
0.0
 11
230.336824
 21
475.274512
 31
0.0
  0
LINE
  8
01_DREHEN
  5
791E
 10
230.336824
 20
475.274512
 30
0.0
 11
215.130431
 21
475.274512
 31
0.0
  0
LINE
  8
01_DREHEN
  5
791F
 10
215.130431
 20
475.274512
 30
0.0
 11
215.130431
 21
484.094517
 31
0.0
  0
LINE
  8
01_DREHEN
  5
7920
 10
215.130431
 20
484.094517
 30
0.0
 11
218.658446
 21
484.094517
 31
0.0
  0
LINE
  8
01_DREHEN
  5
7921
 10
218.658446
 20
484.094517
 30
0.0
 11
218.658446
 21
501.734526
 31
0.0
  0
LINE
  8
01_DREHEN
  5
7922
 10
218.658446
 20
501.734526
 30
0.0
 11
215.130431
 21
501.734526
 31
0.0
  0
LINE
  8
01_DREHEN
  5
7923
 10
215.130431
 20
501.734526
 30
0.0
 11
215.130431
 21
508.54444
 31
0.0
  0
LINE
  8
01_DREHEN
  5
7924
 10
252.663948
 20
501.734526
 30
0.0
 11
252.663948
 21
499.529419
 31
0.0
  0
LINE
  8
01_DREHEN
  5
7925
 10
252.663948
 20
499.529419
 30
0.0
 11
252.663948
 21
497.324333
 31
0.0
  0
LINE
  8
01_DREHEN
  5
7926
 10
252.663948
 20
497.324333
 30
0.0
 11
252.663948
 21
495.119271
 31
0.0
  0
LINE
  8
01_DREHEN
  5
7927
 10
252.663948
 20
495.119271
 30
0.0
 11
252.663948
 21
492.91423
 31
0.0
  0
LINE
  8
01_DREHEN
  5
7928
 10
252.663948
 20
492.91423
 30
0.0
 11
252.663948
 21
490.709234
 31
0.0
  0
LINE
  8
01_DREHEN
  5
7929
 10
252.663948
 20
490.709234
 30
0.0
 11
252.663948
 21
488.504262
 31
0.0
  0
LINE
  8
01_DREHEN
  5
792A
 10
252.663948
 20
488.504262
 30
0.0
 11
252.663948
 21
486.299378
 31
0.0
  0
LINE
  8
01_DREHEN
  5
792B
 10
252.663948
 20
486.299378
 30
0.0
 11
252.663948
 21
484.094517
 31
0.0
  0
LINE
  8
01_DREHEN
  5
792C
 10
215.130431
 20
510.948327
 30
0.0
 11
215.130431
 21
514.964522
 31
0.0
  0
LINE
  8
01_DREHEN
  5
792D
 10
215.130431
 20
514.964522
 30
0.0
 11
218.658446
 21
514.964522
 31
0.0
  0
LINE
  8
01_DREHEN
  5
792E
 10
218.658446
 20
514.964522
 30
0.0
 11
218.658446
 21
523.784527
 31
0.0
  0
LINE
  8
01_DREHEN
  5
792F
 10
218.658446
 20
523.784527
 30
0.0
 11
230.335951
 21
523.784527
 31
0.0
  0
LINE
  8
01_DREHEN
  5
7930
 10
230.335951
 20
523.784527
 30
0.0
 11
230.335951
 21
527.443666
 31
0.0
  0
LINE
  8
01_DREHEN
  5
7931
 10
230.335951
 20
527.443666
 30
0.0
 11
233.891185
 21
527.443666
 31
0.0
  0
LINE
  8
01_DREHEN
  5
7932
 10
233.891185
 20
527.443666
 30
0.0
 11
233.891185
 21
523.784527
 31
0.0
  0
LINE
  8
01_DREHEN
  5
7933
 10
233.891185
 20
523.784527
 30
0.0
 11
252.663948
 21
523.784527
 31
0.0
  0
LINE
  8
01_DREHEN
  5
7934
 10
252.663948
 20
523.784527
 30
0.0
 11
252.663948
 21
514.964522
 31
0.0
  0
LINE
  8
01_DREHEN
  5
7935
 10
252.663948
 20
514.964522
 30
0.0
 11
249.135955
 21
514.964522
 31
0.0
  0
LINE
  8
01_DREHEN
  5
7936
 10
249.135955
 20
514.964522
 30
0.0
 11
249.135955
 21
501.734526
 31
0.0
  0
LINE
  8
01_DREHEN
  5
7937
 10
249.135955
 20
501.734526
 30
0.0
 11
252.663948
 21
501.734526
 31
0.0
  0
LINE
  8
03_DUENN
  5
7F73
 10
304.971648
 20
442.065887
 30
0.0
 11
313.791652
 21
442.065887
 31
0.0
  0
LINE
  8
03_DUENN
  5
7F74
 10
313.791652
 20
442.065887
 30
0.0
 11
313.791652
 21
433.686881
 31
0.0
  0
LINE
  8
03_DUENN
  5
7F75
 10
313.791652
 20
433.686881
 30
0.0
 11
304.971648
 21
433.686881
 31
0.0
  0
LINE
  8
03_DUENN
  5
7F76
 10
304.971648
 20
433.686881
 30
0.0
 11
304.971648
 21
442.065887
 31
0.0
  0
LINE
  8
03_DUENN
  5
7F77
 10
304.971648
 20
455.736882
 30
0.0
 11
313.791652
 21
455.736882
 31
0.0
  0
LINE
  8
03_DUENN
  5
7F78
 10
313.791652
 20
455.736882
 30
0.0
 11
313.791652
 21
445.59388
 31
0.0
  0
LINE
  8
03_DUENN
  5
7F79
 10
313.791652
 20
445.59388
 30
0.0
 11
304.971648
 21
445.59388
 31
0.0
  0
LINE
  8
03_DUENN
  5
7F7A
 10
304.971648
 20
445.59388
 30
0.0
 11
304.971648
 21
455.736882
 31
0.0
  0
LINE
  8
03_DUENN
  5
7F7B
 10
292.62365
 20
442.065887
 30
0.0
 11
301.443655
 21
442.065887
 31
0.0
  0
LINE
  8
03_DUENN
  5
7F7C
 10
301.443655
 20
442.065887
 30
0.0
 11
301.443655
 21
433.686881
 31
0.0
  0
LINE
  8
03_DUENN
  5
7F7D
 10
301.443655
 20
433.686881
 30
0.0
 11
292.62365
 21
433.686881
 31
0.0
  0
LINE
  8
03_DUENN
  5
7F7E
 10
292.62365
 20
433.686881
 30
0.0
 11
292.62365
 21
442.065887
 31
0.0
  0
LINE
  8
03_DUENN
  5
7F7F
 10
292.62365
 20
455.736882
 30
0.0
 11
301.443655
 21
455.736882
 31
0.0
  0
LINE
  8
03_DUENN
  5
7F80
 10
301.443655
 20
455.736882
 30
0.0
 11
301.443655
 21
445.59388
 31
0.0
  0
LINE
  8
03_DUENN
  5
7F81
 10
301.443655
 20
445.59388
 30
0.0
 11
292.62365
 21
445.59388
 31
0.0
  0
LINE
  8
03_DUENN
  5
7F82
 10
292.62365
 20
445.59388
 30
0.0
 11
292.62365
 21
455.736882
 31
0.0
  0
LINE
  8
03_DUENN
  5
7F83
 10
230.883639
 20
442.065887
 30
0.0
 11
239.703643
 21
442.065887
 31
0.0
  0
LINE
  8
03_DUENN
  5
7F84
 10
239.703643
 20
442.065887
 30
0.0
 11
239.703643
 21
433.686881
 31
0.0
  0
LINE
  8
03_DUENN
  5
7F85
 10
239.703643
 20
433.686881
 30
0.0
 11
230.883639
 21
433.686881
 31
0.0
  0
LINE
  8
03_DUENN
  5
7F86
 10
230.883639
 20
433.686881
 30
0.0
 11
230.883639
 21
442.065887
 31
0.0
  0
LINE
  8
03_DUENN
  5
7F87
 10
230.883639
 20
455.736882
 30
0.0
 11
239.703643
 21
455.736882
 31
0.0
  0
LINE
  8
03_DUENN
  5
7F88
 10
239.703643
 20
455.736882
 30
0.0
 11
239.703643
 21
445.59388
 31
0.0
  0
LINE
  8
03_DUENN
  5
7F89
 10
239.703643
 20
445.59388
 30
0.0
 11
230.883639
 21
445.59388
 31
0.0
  0
LINE
  8
03_DUENN
  5
7F8A
 10
230.883639
 20
445.59388
 30
0.0
 11
230.883639
 21
455.736882
 31
0.0
  0
LINE
  8
03_DUENN
  5
7F8B
 10
218.535641
 20
442.065887
 30
0.0
 11
227.355646
 21
442.065887
 31
0.0
  0
LINE
  8
03_DUENN
  5
7F8C
 10
227.355646
 20
442.065887
 30
0.0
 11
227.355646
 21
433.686881
 31
0.0
  0
LINE
  8
03_DUENN
  5
7F8D
 10
227.355646
 20
433.686881
 30
0.0
 11
218.535641
 21
433.686881
 31
0.0
  0
LINE
  8
03_DUENN
  5
7F8E
 10
218.535641
 20
433.686881
 30
0.0
 11
218.535641
 21
442.065887
 31
0.0
  0
LINE
  8
03_DUENN
  5
7F8F
 10
218.535641
 20
455.736882
 30
0.0
 11
227.355646
 21
455.736882
 31
0.0
  0
LINE
  8
03_DUENN
  5
7F90
 10
227.355646
 20
455.736882
 30
0.0
 11
227.355646
 21
445.59388
 31
0.0
  0
LINE
  8
03_DUENN
  5
7F91
 10
227.355646
 20
445.59388
 30
0.0
 11
218.535641
 21
445.59388
 31
0.0
  0
LINE
  8
03_DUENN
  5
7F92
 10
218.535641
 20
445.59388
 30
0.0
 11
218.535641
 21
455.736882
 31
0.0
  0
LINE
  8
03_DUENN
  5
7F93
 10
255.579635
 20
442.065887
 30
0.0
 11
264.399639
 21
442.065887
 31
0.0
  0
LINE
  8
03_DUENN
  5
7F94
 10
264.399639
 20
442.065887
 30
0.0
 11
264.399639
 21
433.686881
 31
0.0
  0
LINE
  8
03_DUENN
  5
7F95
 10
264.399639
 20
433.686881
 30
0.0
 11
255.579635
 21
433.686881
 31
0.0
  0
LINE
  8
03_DUENN
  5
7F96
 10
255.579635
 20
433.686881
 30
0.0
 11
255.579635
 21
442.065887
 31
0.0
  0
LINE
  8
03_DUENN
  5
7F97
 10
255.579635
 20
455.736882
 30
0.0
 11
264.399639
 21
455.736882
 31
0.0
  0
LINE
  8
03_DUENN
  5
7F98
 10
264.399639
 20
455.736882
 30
0.0
 11
264.399639
 21
445.59388
 31
0.0
  0
LINE
  8
03_DUENN
  5
7F99
 10
264.399639
 20
445.59388
 30
0.0
 11
255.579635
 21
445.59388
 31
0.0
  0
LINE
  8
03_DUENN
  5
7F9A
 10
255.579635
 20
445.59388
 30
0.0
 11
255.579635
 21
455.736882
 31
0.0
  0
LINE
  8
03_DUENN
  5
7F9B
 10
243.231636
 20
442.065887
 30
0.0
 11
252.051642
 21
442.065887
 31
0.0
  0
LINE
  8
03_DUENN
  5
7F9C
 10
252.051642
 20
442.065887
 30
0.0
 11
252.051642
 21
433.686881
 31
0.0
  0
LINE
  8
03_DUENN
  5
7F9D
 10
252.051642
 20
433.686881
 30
0.0
 11
243.231636
 21
433.686881
 31
0.0
  0
LINE
  8
03_DUENN
  5
7F9E
 10
243.231636
 20
433.686881
 30
0.0
 11
243.231636
 21
442.065887
 31
0.0
  0
LINE
  8
03_DUENN
  5
7F9F
 10
243.231636
 20
455.736882
 30
0.0
 11
252.051642
 21
455.736882
 31
0.0
  0
LINE
  8
03_DUENN
  5
7FA0
 10
252.051642
 20
455.736882
 30
0.0
 11
252.051642
 21
445.59388
 31
0.0
  0
LINE
  8
03_DUENN
  5
7FA1
 10
252.051642
 20
445.59388
 30
0.0
 11
243.231636
 21
445.59388
 31
0.0
  0
LINE
  8
03_DUENN
  5
7FA2
 10
243.231636
 20
445.59388
 30
0.0
 11
243.231636
 21
455.736882
 31
0.0
  0
LINE
  8
03_DUENN
  5
7FA3
 10
280.275652
 20
442.065887
 30
0.0
 11
289.095635
 21
442.065887
 31
0.0
  0
LINE
  8
03_DUENN
  5
7FA4
 10
289.095635
 20
442.065887
 30
0.0
 11
289.095635
 21
433.686881
 31
0.0
  0
LINE
  8
03_DUENN
  5
7FA5
 10
289.095635
 20
433.686881
 30
0.0
 11
280.275652
 21
433.686881
 31
0.0
  0
LINE
  8
03_DUENN
  5
7FA6
 10
280.275652
 20
433.686881
 30
0.0
 11
280.275652
 21
442.065887
 31
0.0
  0
LINE
  8
03_DUENN
  5
7FA7
 10
280.275652
 20
455.736882
 30
0.0
 11
289.095635
 21
455.736882
 31
0.0
  0
LINE
  8
03_DUENN
  5
7FA8
 10
289.095635
 20
455.736882
 30
0.0
 11
289.095635
 21
445.59388
 31
0.0
  0
LINE
  8
03_DUENN
  5
7FA9
 10
289.095635
 20
445.59388
 30
0.0
 11
280.275652
 21
445.59388
 31
0.0
  0
LINE
  8
03_DUENN
  5
7FAA
 10
280.275652
 20
445.59388
 30
0.0
 11
280.275652
 21
455.736882
 31
0.0
  0
LINE
  8
03_DUENN
  5
7FAB
 10
267.927654
 20
442.065887
 30
0.0
 11
276.747636
 21
442.065887
 31
0.0
  0
LINE
  8
03_DUENN
  5
7FAC
 10
276.747636
 20
442.065887
 30
0.0
 11
276.747636
 21
433.686881
 31
0.0
  0
LINE
  8
03_DUENN
  5
7FAD
 10
276.747636
 20
433.686881
 30
0.0
 11
267.927654
 21
433.686881
 31
0.0
  0
LINE
  8
03_DUENN
  5
7FAE
 10
267.927654
 20
433.686881
 30
0.0
 11
267.927654
 21
442.065887
 31
0.0
  0
LINE
  8
03_DUENN
  5
7FAF
 10
267.927654
 20
455.736882
 30
0.0
 11
276.747636
 21
455.736882
 31
0.0
  0
LINE
  8
03_DUENN
  5
7FB0
 10
276.747636
 20
455.736882
 30
0.0
 11
276.747636
 21
445.59388
 31
0.0
  0
LINE
  8
03_DUENN
  5
7FB1
 10
276.747636
 20
445.59388
 30
0.0
 11
267.927654
 21
445.59388
 31
0.0
  0
LINE
  8
03_DUENN
  5
7FB2
 10
267.927654
 20
445.59388
 30
0.0
 11
267.927654
 21
455.736882
 31
0.0
  0
LINE
  8
03_DUENN
  5
7FB3
 10
329.667643
 20
442.065887
 30
0.0
 11
338.487648
 21
442.065887
 31
0.0
  0
LINE
  8
03_DUENN
  5
7FB4
 10
338.487648
 20
442.065887
 30
0.0
 11
338.487648
 21
433.686881
 31
0.0
  0
LINE
  8
03_DUENN
  5
7FB5
 10
338.487648
 20
433.686881
 30
0.0
 11
329.667643
 21
433.686881
 31
0.0
  0
LINE
  8
03_DUENN
  5
7FB6
 10
329.667643
 20
433.686881
 30
0.0
 11
329.667643
 21
442.065887
 31
0.0
  0
LINE
  8
03_DUENN
  5
7FB7
 10
329.667643
 20
455.736882
 30
0.0
 11
338.487648
 21
455.736882
 31
0.0
  0
LINE
  8
03_DUENN
  5
7FB8
 10
338.487648
 20
455.736882
 30
0.0
 11
338.487648
 21
445.59388
 31
0.0
  0
LINE
  8
03_DUENN
  5
7FB9
 10
338.487648
 20
445.59388
 30
0.0
 11
329.667643
 21
445.59388
 31
0.0
  0
LINE
  8
03_DUENN
  5
7FBA
 10
329.667643
 20
445.59388
 30
0.0
 11
329.667643
 21
455.736882
 31
0.0
  0
LINE
  8
03_DUENN
  5
7FBB
 10
317.319645
 20
442.065887
 30
0.0
 11
326.13965
 21
442.065887
 31
0.0
  0
LINE
  8
03_DUENN
  5
7FBC
 10
326.13965
 20
442.065887
 30
0.0
 11
326.13965
 21
433.686881
 31
0.0
  0
LINE
  8
03_DUENN
  5
7FBD
 10
326.13965
 20
433.686881
 30
0.0
 11
317.319645
 21
433.686881
 31
0.0
  0
LINE
  8
03_DUENN
  5
7FBE
 10
317.319645
 20
433.686881
 30
0.0
 11
317.319645
 21
442.065887
 31
0.0
  0
LINE
  8
03_DUENN
  5
7FBF
 10
317.319645
 20
455.736882
 30
0.0
 11
326.13965
 21
455.736882
 31
0.0
  0
LINE
  8
03_DUENN
  5
7FC0
 10
326.13965
 20
455.736882
 30
0.0
 11
326.13965
 21
445.59388
 31
0.0
  0
LINE
  8
03_DUENN
  5
7FC1
 10
326.13965
 20
445.59388
 30
0.0
 11
317.319645
 21
445.59388
 31
0.0
  0
LINE
  8
03_DUENN
  5
7FC2
 10
317.319645
 20
445.59388
 30
0.0
 11
317.319645
 21
455.736882
 31
0.0
  0
LINE
  8
01_DREHEN
  5
7FC3
 10
215.007648
 20
447.704246
 30
0.0
 11
215.007648
 21
459.264875
 31
0.0
  0
LINE
  8
01_DREHEN
  5
7FC4
 10
215.007648
 20
459.264875
 30
0.0
 11
333.06794
 21
459.264875
 31
0.0
  0
LINE
  8
01_DREHEN
  5
7FC5
 10
333.06794
 20
459.264875
 30
0.0
 11
335.173087
 21
459.264875
 31
0.0
  0
LINE
  8
01_DREHEN
  5
7FC6
 10
335.173087
 20
459.264875
 30
0.0
 11
342.015641
 21
459.264875
 31
0.0
  0
LINE
  8
01_DREHEN
  5
7FC7
 10
342.015641
 20
459.264875
 30
0.0
 11
342.015641
 21
433.686881
 31
0.0
  0
LINE
  8
01_DREHEN
  5
7FC8
 10
342.015641
 20
433.686881
 30
0.0
 11
356.120668
 21
433.686881
 31
0.0
  0
LINE
  8
01_DREHEN
  5
7FC9
 10
356.120668
 20
433.686881
 30
0.0
 11
359.655651
 21
435.450878
 31
0.0
  0
LINE
  8
01_DREHEN
  5
7FCA
 10
359.655651
 20
435.450878
 30
0.0
 11
370.239651
 21
435.450878
 31
0.0
  0
LINE
  8
01_DREHEN
  5
7FCB
 10
370.239651
 20
435.450878
 30
0.0
 11
370.239651
 21
424.866877
 31
0.0
  0
LINE
  8
01_DREHEN
  5
7FCC
 10
370.239651
 20
424.866877
 30
0.0
 11
359.655651
 21
424.866877
 31
0.0
  0
LINE
  8
01_DREHEN
  5
7FCD
 10
359.655651
 20
424.866877
 30
0.0
 11
356.120668
 21
426.630873
 31
0.0
  0
LINE
  8
01_DREHEN
  5
7FCE
 10
356.120668
 20
426.630873
 30
0.0
 11
342.015641
 21
426.630873
 31
0.0
  0
LINE
  8
01_DREHEN
  5
7FCF
 10
342.015641
 20
426.630873
 30
0.0
 11
338.487648
 21
428.39487
 31
0.0
  0
LINE
  8
01_DREHEN
  5
7FD0
 10
338.487648
 20
428.39487
 30
0.0
 11
215.007648
 21
428.39487
 31
0.0
  0
LINE
  8
01_DREHEN
  5
7FD1
 10
215.007648
 20
428.39487
 30
0.0
 11
215.007648
 21
445.423641
 31
0.0
  0
LINE
  8
01_DREHEN
  5
7FD2
 10
215.007648
 20
445.423641
 30
0.0
 11
215.007648
 21
447.704246
 31
0.0
  0
LINE
  8
03_DUENN
  5
7FD3
 10
362.94764
 20
432.158877
 30
0.0
 11
366.94764
 21
432.158877
 31
0.0
  0
LINE
  8
03_DUENN
  5
7FD4
 10
362.94764
 20
428.158877
 30
0.0
 11
366.94764
 21
428.158877
 31
0.0
  0
LINE
  8
03_DUENN
  5
7FD5
 10
366.94764
 20
432.158877
 30
0.0
 11
366.94764
 21
428.158877
 31
0.0
  0
LINE
  8
03_DUENN
  5
7FD6
 10
362.94764
 20
432.158877
 30
0.0
 11
362.94764
 21
428.158877
 31
0.0
  0
LINE
  8
03_DUENN
  5
7FD7
 10
304.971648
 20
398.108478
 30
0.0
 11
313.791652
 21
398.108478
 31
0.0
  0
LINE
  8
03_DUENN
  5
7FD8
 10
313.791652
 20
398.108478
 30
0.0
 11
313.791652
 21
389.729471
 31
0.0
  0
LINE
  8
03_DUENN
  5
7FD9
 10
313.791652
 20
389.729471
 30
0.0
 11
304.971648
 21
389.729471
 31
0.0
  0
LINE
  8
03_DUENN
  5
7FDA
 10
304.971648
 20
389.729471
 30
0.0
 11
304.971648
 21
398.108478
 31
0.0
  0
LINE
  8
03_DUENN
  5
7FDB
 10
304.971648
 20
411.779472
 30
0.0
 11
313.791652
 21
411.779472
 31
0.0
  0
LINE
  8
03_DUENN
  5
7FDC
 10
313.791652
 20
411.779472
 30
0.0
 11
313.791652
 21
401.636471
 31
0.0
  0
LINE
  8
03_DUENN
  5
7FDD
 10
313.791652
 20
401.636471
 30
0.0
 11
304.971648
 21
401.636471
 31
0.0
  0
LINE
  8
03_DUENN
  5
7FDE
 10
304.971648
 20
401.636471
 30
0.0
 11
304.971648
 21
411.779472
 31
0.0
  0
LINE
  8
03_DUENN
  5
7FDF
 10
292.62365
 20
398.108478
 30
0.0
 11
301.443655
 21
398.108478
 31
0.0
  0
LINE
  8
03_DUENN
  5
7FE0
 10
301.443655
 20
398.108478
 30
0.0
 11
301.443655
 21
389.729471
 31
0.0
  0
LINE
  8
03_DUENN
  5
7FE1
 10
301.443655
 20
389.729471
 30
0.0
 11
292.62365
 21
389.729471
 31
0.0
  0
LINE
  8
03_DUENN
  5
7FE2
 10
292.62365
 20
389.729471
 30
0.0
 11
292.62365
 21
398.108478
 31
0.0
  0
LINE
  8
03_DUENN
  5
7FE3
 10
292.62365
 20
411.779472
 30
0.0
 11
301.443655
 21
411.779472
 31
0.0
  0
LINE
  8
03_DUENN
  5
7FE4
 10
301.443655
 20
411.779472
 30
0.0
 11
301.443655
 21
401.636471
 31
0.0
  0
LINE
  8
03_DUENN
  5
7FE5
 10
301.443655
 20
401.636471
 30
0.0
 11
292.62365
 21
401.636471
 31
0.0
  0
LINE
  8
03_DUENN
  5
7FE6
 10
292.62365
 20
401.636471
 30
0.0
 11
292.62365
 21
411.779472
 31
0.0
  0
LINE
  8
03_DUENN
  5
7FE7
 10
230.883639
 20
398.108478
 30
0.0
 11
239.703643
 21
398.108478
 31
0.0
  0
LINE
  8
03_DUENN
  5
7FE8
 10
239.703643
 20
398.108478
 30
0.0
 11
239.703643
 21
389.729471
 31
0.0
  0
LINE
  8
03_DUENN
  5
7FE9
 10
239.703643
 20
389.729471
 30
0.0
 11
230.883639
 21
389.729471
 31
0.0
  0
LINE
  8
03_DUENN
  5
7FEA
 10
230.883639
 20
389.729471
 30
0.0
 11
230.883639
 21
398.108478
 31
0.0
  0
LINE
  8
03_DUENN
  5
7FEB
 10
230.883639
 20
411.779472
 30
0.0
 11
239.703643
 21
411.779472
 31
0.0
  0
LINE
  8
03_DUENN
  5
7FEC
 10
239.703643
 20
411.779472
 30
0.0
 11
239.703643
 21
401.636471
 31
0.0
  0
LINE
  8
03_DUENN
  5
7FED
 10
239.703643
 20
401.636471
 30
0.0
 11
230.883639
 21
401.636471
 31
0.0
  0
LINE
  8
03_DUENN
  5
7FEE
 10
230.883639
 20
401.636471
 30
0.0
 11
230.883639
 21
411.779472
 31
0.0
  0
LINE
  8
03_DUENN
  5
7FEF
 10
218.535641
 20
398.108478
 30
0.0
 11
227.355646
 21
398.108478
 31
0.0
  0
LINE
  8
03_DUENN
  5
7FF0
 10
227.355646
 20
398.108478
 30
0.0
 11
227.355646
 21
389.729471
 31
0.0
  0
LINE
  8
03_DUENN
  5
7FF1
 10
227.355646
 20
389.729471
 30
0.0
 11
218.535641
 21
389.729471
 31
0.0
  0
LINE
  8
03_DUENN
  5
7FF2
 10
218.535641
 20
389.729471
 30
0.0
 11
218.535641
 21
398.108478
 31
0.0
  0
LINE
  8
03_DUENN
  5
7FF3
 10
218.535641
 20
411.779472
 30
0.0
 11
227.355646
 21
411.779472
 31
0.0
  0
LINE
  8
03_DUENN
  5
7FF4
 10
227.355646
 20
411.779472
 30
0.0
 11
227.355646
 21
401.636471
 31
0.0
  0
LINE
  8
03_DUENN
  5
7FF5
 10
227.355646
 20
401.636471
 30
0.0
 11
218.535641
 21
401.636471
 31
0.0
  0
LINE
  8
03_DUENN
  5
7FF6
 10
218.535641
 20
401.636471
 30
0.0
 11
218.535641
 21
411.779472
 31
0.0
  0
LINE
  8
03_DUENN
  5
7FF7
 10
255.579635
 20
398.108478
 30
0.0
 11
264.399639
 21
398.108478
 31
0.0
  0
LINE
  8
03_DUENN
  5
7FF8
 10
264.399639
 20
398.108478
 30
0.0
 11
264.399639
 21
389.729471
 31
0.0
  0
LINE
  8
03_DUENN
  5
7FF9
 10
264.399639
 20
389.729471
 30
0.0
 11
255.579635
 21
389.729471
 31
0.0
  0
LINE
  8
03_DUENN
  5
7FFA
 10
255.579635
 20
389.729471
 30
0.0
 11
255.579635
 21
398.108478
 31
0.0
  0
LINE
  8
03_DUENN
  5
7FFB
 10
255.579635
 20
411.779472
 30
0.0
 11
264.399639
 21
411.779472
 31
0.0
  0
LINE
  8
03_DUENN
  5
7FFC
 10
264.399639
 20
411.779472
 30
0.0
 11
264.399639
 21
401.636471
 31
0.0
  0
LINE
  8
03_DUENN
  5
7FFD
 10
264.399639
 20
401.636471
 30
0.0
 11
255.579635
 21
401.636471
 31
0.0
  0
LINE
  8
03_DUENN
  5
7FFE
 10
255.579635
 20
401.636471
 30
0.0
 11
255.579635
 21
411.779472
 31
0.0
  0
LINE
  8
03_DUENN
  5
7FFF
 10
243.231636
 20
398.108478
 30
0.0
 11
252.051642
 21
398.108478
 31
0.0
  0
LINE
  8
03_DUENN
  5
8000
 10
252.051642
 20
398.108478
 30
0.0
 11
252.051642
 21
389.729471
 31
0.0
  0
LINE
  8
03_DUENN
  5
8001
 10
252.051642
 20
389.729471
 30
0.0
 11
243.231636
 21
389.729471
 31
0.0
  0
LINE
  8
03_DUENN
  5
8002
 10
243.231636
 20
389.729471
 30
0.0
 11
243.231636
 21
398.108478
 31
0.0
  0
LINE
  8
03_DUENN
  5
8003
 10
243.231636
 20
411.779472
 30
0.0
 11
252.051642
 21
411.779472
 31
0.0
  0
LINE
  8
03_DUENN
  5
8004
 10
252.051642
 20
411.779472
 30
0.0
 11
252.051642
 21
401.636471
 31
0.0
  0
LINE
  8
03_DUENN
  5
8005
 10
252.051642
 20
401.636471
 30
0.0
 11
243.231636
 21
401.636471
 31
0.0
  0
LINE
  8
03_DUENN
  5
8006
 10
243.231636
 20
401.636471
 30
0.0
 11
243.231636
 21
411.779472
 31
0.0
  0
LINE
  8
03_DUENN
  5
8007
 10
280.275652
 20
398.108478
 30
0.0
 11
289.095635
 21
398.108478
 31
0.0
  0
LINE
  8
03_DUENN
  5
8008
 10
289.095635
 20
398.108478
 30
0.0
 11
289.095635
 21
389.729471
 31
0.0
  0
LINE
  8
03_DUENN
  5
8009
 10
289.095635
 20
389.729471
 30
0.0
 11
280.275652
 21
389.729471
 31
0.0
  0
LINE
  8
03_DUENN
  5
800A
 10
280.275652
 20
389.729471
 30
0.0
 11
280.275652
 21
398.108478
 31
0.0
  0
LINE
  8
03_DUENN
  5
800B
 10
280.275652
 20
411.779472
 30
0.0
 11
289.095635
 21
411.779472
 31
0.0
  0
LINE
  8
03_DUENN
  5
800C
 10
289.095635
 20
411.779472
 30
0.0
 11
289.095635
 21
401.636471
 31
0.0
  0
LINE
  8
03_DUENN
  5
800D
 10
289.095635
 20
401.636471
 30
0.0
 11
280.275652
 21
401.636471
 31
0.0
  0
LINE
  8
03_DUENN
  5
800E
 10
280.275652
 20
401.636471
 30
0.0
 11
280.275652
 21
411.779472
 31
0.0
  0
LINE
  8
03_DUENN
  5
800F
 10
267.927654
 20
398.108478
 30
0.0
 11
276.747636
 21
398.108478
 31
0.0
  0
LINE
  8
03_DUENN
  5
8010
 10
276.747636
 20
398.108478
 30
0.0
 11
276.747636
 21
389.729471
 31
0.0
  0
LINE
  8
03_DUENN
  5
8011
 10
276.747636
 20
389.729471
 30
0.0
 11
267.927654
 21
389.729471
 31
0.0
  0
LINE
  8
03_DUENN
  5
8012
 10
267.927654
 20
389.729471
 30
0.0
 11
267.927654
 21
398.108478
 31
0.0
  0
LINE
  8
03_DUENN
  5
8013
 10
267.927654
 20
411.779472
 30
0.0
 11
276.747636
 21
411.779472
 31
0.0
  0
LINE
  8
03_DUENN
  5
8014
 10
276.747636
 20
411.779472
 30
0.0
 11
276.747636
 21
401.636471
 31
0.0
  0
LINE
  8
03_DUENN
  5
8015
 10
276.747636
 20
401.636471
 30
0.0
 11
267.927654
 21
401.636471
 31
0.0
  0
LINE
  8
03_DUENN
  5
8016
 10
267.927654
 20
401.636471
 30
0.0
 11
267.927654
 21
411.779472
 31
0.0
  0
LINE
  8
03_DUENN
  5
8017
 10
329.667643
 20
398.108478
 30
0.0
 11
338.487648
 21
398.108478
 31
0.0
  0
LINE
  8
03_DUENN
  5
8018
 10
338.487648
 20
398.108478
 30
0.0
 11
338.487648
 21
389.729471
 31
0.0
  0
LINE
  8
03_DUENN
  5
8019
 10
338.487648
 20
389.729471
 30
0.0
 11
329.667643
 21
389.729471
 31
0.0
  0
LINE
  8
03_DUENN
  5
801A
 10
329.667643
 20
389.729471
 30
0.0
 11
329.667643
 21
398.108478
 31
0.0
  0
LINE
  8
03_DUENN
  5
801B
 10
329.667643
 20
411.779472
 30
0.0
 11
338.487648
 21
411.779472
 31
0.0
  0
LINE
  8
03_DUENN
  5
801C
 10
338.487648
 20
411.779472
 30
0.0
 11
338.487648
 21
401.636471
 31
0.0
  0
LINE
  8
03_DUENN
  5
801D
 10
338.487648
 20
401.636471
 30
0.0
 11
329.667643
 21
401.636471
 31
0.0
  0
LINE
  8
03_DUENN
  5
801E
 10
329.667643
 20
401.636471
 30
0.0
 11
329.667643
 21
411.779472
 31
0.0
  0
LINE
  8
03_DUENN
  5
801F
 10
317.319645
 20
398.108478
 30
0.0
 11
326.13965
 21
398.108478
 31
0.0
  0
LINE
  8
03_DUENN
  5
8020
 10
326.13965
 20
398.108478
 30
0.0
 11
326.13965
 21
389.729471
 31
0.0
  0
LINE
  8
03_DUENN
  5
8021
 10
326.13965
 20
389.729471
 30
0.0
 11
317.319645
 21
389.729471
 31
0.0
  0
LINE
  8
03_DUENN
  5
8022
 10
317.319645
 20
389.729471
 30
0.0
 11
317.319645
 21
398.108478
 31
0.0
  0
LINE
  8
03_DUENN
  5
8023
 10
317.319645
 20
411.779472
 30
0.0
 11
326.13965
 21
411.779472
 31
0.0
  0
LINE
  8
03_DUENN
  5
8024
 10
326.13965
 20
411.779472
 30
0.0
 11
326.13965
 21
401.636471
 31
0.0
  0
LINE
  8
03_DUENN
  5
8025
 10
326.13965
 20
401.636471
 30
0.0
 11
317.319645
 21
401.636471
 31
0.0
  0
LINE
  8
03_DUENN
  5
8026
 10
317.319645
 20
401.636471
 30
0.0
 11
317.319645
 21
411.779472
 31
0.0
  0
LINE
  8
01_DREHEN
  5
8027
 10
215.007648
 20
403.746836
 30
0.0
 11
215.007648
 21
415.307465
 31
0.0
  0
LINE
  8
01_DREHEN
  5
8028
 10
215.007648
 20
415.307465
 30
0.0
 11
333.06794
 21
415.307465
 31
0.0
  0
LINE
  8
01_DREHEN
  5
8029
 10
333.06794
 20
415.307465
 30
0.0
 11
335.173087
 21
415.307465
 31
0.0
  0
LINE
  8
01_DREHEN
  5
802A
 10
335.173087
 20
415.307465
 30
0.0
 11
342.015641
 21
415.307465
 31
0.0
  0
LINE
  8
01_DREHEN
  5
802B
 10
342.015641
 20
415.307465
 30
0.0
 11
342.015641
 21
389.729471
 31
0.0
  0
LINE
  8
01_DREHEN
  5
802C
 10
342.015641
 20
389.729471
 30
0.0
 11
356.120668
 21
389.729471
 31
0.0
  0
LINE
  8
01_DREHEN
  5
802D
 10
356.120668
 20
389.729471
 30
0.0
 11
359.655651
 21
391.493468
 31
0.0
  0
LINE
  8
01_DREHEN
  5
802E
 10
359.655651
 20
391.493468
 30
0.0
 11
370.239651
 21
391.493468
 31
0.0
  0
LINE
  8
01_DREHEN
  5
802F
 10
370.239651
 20
391.493468
 30
0.0
 11
370.239651
 21
380.909467
 31
0.0
  0
LINE
  8
01_DREHEN
  5
8030
 10
370.239651
 20
380.909467
 30
0.0
 11
359.655651
 21
380.909467
 31
0.0
  0
LINE
  8
01_DREHEN
  5
8031
 10
359.655651
 20
380.909467
 30
0.0
 11
356.120668
 21
382.673463
 31
0.0
  0
LINE
  8
01_DREHEN
  5
8032
 10
356.120668
 20
382.673463
 30
0.0
 11
342.015641
 21
382.673463
 31
0.0
  0
LINE
  8
01_DREHEN
  5
8033
 10
342.015641
 20
382.673463
 30
0.0
 11
338.487648
 21
384.43746
 31
0.0
  0
LINE
  8
01_DREHEN
  5
8034
 10
338.487648
 20
384.43746
 30
0.0
 11
215.007648
 21
384.43746
 31
0.0
  0
LINE
  8
01_DREHEN
  5
8035
 10
215.007648
 20
384.43746
 30
0.0
 11
215.007648
 21
401.466231
 31
0.0
  0
LINE
  8
01_DREHEN
  5
8036
 10
215.007648
 20
401.466231
 30
0.0
 11
215.007648
 21
403.746836
 31
0.0
  0
LINE
  8
03_DUENN
  5
8037
 10
362.94764
 20
388.201467
 30
0.0
 11
366.94764
 21
388.201467
 31
0.0
  0
LINE
  8
03_DUENN
  5
8038
 10
362.94764
 20
384.201467
 30
0.0
 11
366.94764
 21
384.201467
 31
0.0
  0
LINE
  8
03_DUENN
  5
8039
 10
366.94764
 20
388.201467
 30
0.0
 11
366.94764
 21
384.201467
 31
0.0
  0
LINE
  8
03_DUENN
  5
803A
 10
362.94764
 20
388.201467
 30
0.0
 11
362.94764
 21
384.201467
 31
0.0
  0
ENDSEC
  0
EOF
