  0
SECTION
  2
HEADER
  9
$ACADVER
  1
AC1014
  9
$HANDSEED
  5
FFFF
  9
$MEASUREMENT
 70
     1
  0
ENDSEC
  0
SECTION
  2
TABLES
  0
TABLE
  2
VPORT
  5
8
330
0
100
AcDbSymbolTable
 70
     4
  0
VPORT
  5
2E
330
8
100
AcDbSymbolTableRecord
100
AcDbViewportTableRecord
  2
*ACTIVE
 70
     0
 10
0.0
 20
0.0
 11
1.0
 21
1.0
 12
210.0
 22
148.5
 13
0.0
 23
0.0
 14
10.0
 24
10.0
 15
10.0
 25
10.0
 16
0.0
 26
0.0
 36
1.0
 17
0.0
 27
0.0
 37
0.0
 40
341.0
 41
1.24
 42
50.0
 43
0.0
 44
0.0
 50
0.0
 51
0.0
 71
     0
 72
   100
 73
     1
 74
     3
 75
     0
 76
     0
 77
     0
 78
     0
  0
ENDTAB
  0
TABLE
  2
LTYPE
  5
5
330
0
100
AcDbSymbolTable
 70
     1
  0
LTYPE
  5
14
330
5
100
AcDbSymbolTableRecord
100
AcDbLinetypeTableRecord
  2
BYBLOCK
 70
     0
  3

 72
    65
 73
     0
 40
0.0
  0
LTYPE
  5
15
330
5
100
AcDbSymbolTableRecord
100
AcDbLinetypeTableRecord
  2
BYLAYER
 70
     0
  3

 72
    65
 73
     0
 40
0.0
  0
LTYPE
  5
16
330
5
100
AcDbSymbolTableRecord
100
AcDbLinetypeTableRecord
  2
CONTINUOUS
 70
     0
  3
Solid line
 72
    65
 73
     0
 40
0.0
  0
ENDTAB
  0
TABLE
  2
LAYER
  5
2
100
AcDbSymbolTable
 70
1
  0
LAYER
  5
50
100
AcDbSymbolTableRecord
100
AcDbLayerTableRecord
  2
0
 70
0
  6
CONTINUOUS
  0
ENDTAB
  0
TABLE
  2
STYLE
  5
3
330
0
100
AcDbSymbolTable
 70
     1
  0
STYLE
  5
11
330
3
100
AcDbSymbolTableRecord
100
AcDbTextStyleTableRecord
  2
STANDARD
 70
     0
 40
0.0
 41
1.0
 50
0.0
 71
     0
 42
2.5
  3
txt
  4

  0
ENDTAB
  0
TABLE
  2
VIEW
  5
6
330
0
100
AcDbSymbolTable
 70
     0
  0
ENDTAB
  0
TABLE
  2
UCS
  5
7
330
0
100
AcDbSymbolTable
 70
     0
  0
ENDTAB
  0
TABLE
  2
APPID
  5
9
330
0
100
AcDbSymbolTable
 70
     2
  0
APPID
  5
12
330
9
100
AcDbSymbolTableRecord
100
AcDbRegAppTableRecord
  2
ACAD
 70
     0
  0
ENDTAB
  0
TABLE
  2
DIMSTYLE
  5
A
330
0
100
AcDbSymbolTable
 70
     1
  0
DIMSTYLE
105
27
330
A
100
AcDbSymbolTableRecord
100
AcDbDimStyleTableRecord
  2
ISO-25
 70
     0
  3

  4

  5

  6

  7

 40
1.0
 41
2.5
 42
0.625
 43
3.75
 44
1.25
 45
0.0
 46
0.0
 47
0.0
 48
0.0
140
2.5
141
2.5
142
0.0
143
0.03937007874016
144
1.0
145
0.0
146
1.0
147
0.625
 71
     0
 72
     0
 73
     0
 74
     0
 75
     0
 76
     0
 77
     1
 78
     8
170
     0
171
     3
172
     1
173
     0
174
     0
175
     0
176
     0
177
     0
178
     0
270
     2
271
     2
272
     2
273
     2
274
     3
340
11
275
     0
280
     0
281
     0
282
     0
283
     0
284
     8
285
     0
286
     0
287
     3
288
     0
  0
ENDTAB
  0
TABLE
  2
BLOCK_RECORD
  5
1
330
0
100
AcDbSymbolTable
 70
     1
  0
BLOCK_RECORD
  5
1F
330
1
100
AcDbSymbolTableRecord
100
AcDbBlockTableRecord
  2
*MODEL_SPACE
  0
BLOCK_RECORD
  5
1B
330
1
100
AcDbSymbolTableRecord
100
AcDbBlockTableRecord
  2
*PAPER_SPACE
  0
ENDTAB
  0
ENDSEC
  0
SECTION
  2
BLOCKS
  0
BLOCK
  5
20
330
1F
100
AcDbEntity
  8
0
100
AcDbBlockBegin
  2
*MODEL_SPACE
 70
     0
 10
0.0
 20
0.0
 30
0.0
  3
*MODEL_SPACE
  1

  0
ENDBLK
  5
21
330
1F
100
AcDbEntity
  8
0
100
AcDbBlockEnd
  0
BLOCK
  5
1C
330
1B
100
AcDbEntity
 67
     1
  8
0
100
AcDbBlockBegin
  2
*PAPER_SPACE
  1

  0
ENDBLK
  5
1D
330
1B
100
AcDbEntity
 67
     1
  8
0
100
AcDbBlockEnd
  0
ENDSEC
  0
SECTION
  2
ENTITIES
  0
LWPOLYLINE
  5
100
100
AcDbEntity
  8
0
 62
7
100
AcDbPolyline
 90
40
 70
0
 10
367.444552
 20
547.974171
 30
0.0
 10
344.855955
 20
547.974171
 30
0.0
 10
344.855955
 20
555.946618
 30
0.0
 10
322.267350
 20
555.946618
 30
0.0
 10
322.267350
 20
547.974171
 30
0.0
 10
306.322455
 20
547.974171
 30
0.0
 10
306.322455
 20
555.946618
 30
0.0
 10
290.377560
 20
555.946618
 30
0.0
 10
290.377560
 20
547.974171
 30
0.0
 10
274.432665
 20
547.974171
 30
0.0
 10
274.432665
 20
555.946618
 30
0.0
 10
258.487770
 20
555.946618
 30
0.0
 10
258.487770
 20
547.974171
 30
0.0
 10
242.542875
 20
547.974171
 30
0.0
 10
242.542875
 20
555.946618
 30
0.0
 10
226.597980
 20
555.946618
 30
0.0
 10
226.597980
 20
547.974171
 30
0.0
 10
210.653085
 20
547.974171
 30
0.0
 10
210.653085
 20
555.946618
 30
0.0
 10
194.708190
 20
555.946618
 30
0.0
 10
194.708190
 20
547.974171
 30
0.0
 10
178.763295
 20
547.974171
 30
0.0
 10
178.763295
 20
555.946618
 30
0.0
 10
162.818400
 20
555.946618
 30
0.0
 10
162.818400
 20
547.974171
 30
0.0
 10
146.873505
 20
547.974171
 30
0.0
 10
146.873505
 20
555.946618
 30
0.0
 10
124.284904
 20
555.946618
 30
0.0
 10
124.284904
 20
547.974171
 30
0.0
 10
101.696303
 20
547.974171
 30
0.0
 10
101.696303
 20
570.562768
 30
0.0
 10
109.668750
 20
570.562768
 30
0.0
 10
109.668750
 20
593.151373
 30
0.0
 10
101.696303
 20
593.151373
 30
0.0
 10
101.696303
 20
609.096268
 30
0.0
 10
109.668750
 20
609.096268
 30
0.0
 10
109.668750
 20
631.684870
 30
0.0
 10
101.696303
 20
631.684870
 30
0.0
 10
101.696303
 20
654.273471
 30
0.0
 10
367.444552
 20
654.273471
 30
0.0
  0
LWPOLYLINE
  5
101
100
AcDbEntity
  8
0
 62
7
100
AcDbPolyline
 90
39
 70
0
 10
101.696310
 20
654.273471
 30
0.0
 10
101.696310
 20
676.862072
 30
0.0
 10
109.668757
 20
676.862072
 30
0.0
 10
109.668757
 20
699.450673
 30
0.0
 10
101.696310
 20
699.450673
 30
0.0
 10
101.696310
 20
715.395568
 30
0.0
 10
109.668757
 20
715.395568
 30
0.0
 10
109.668757
 20
737.984173
 30
0.0
 10
101.696310
 20
737.984173
 30
0.0
 10
101.696310
 20
760.572771
 30
0.0
 10
124.284907
 20
760.572771
 30
0.0
 10
124.284907
 20
752.600323
 30
0.0
 10
146.873512
 20
752.600323
 30
0.0
 10
146.873512
 20
760.572771
 30
0.0
 10
162.818407
 20
760.572771
 30
0.0
 10
162.818407
 20
752.600323
 30
0.0
 10
178.763302
 20
752.600323
 30
0.0
 10
178.763302
 20
760.572771
 30
0.0
 10
194.708197
 20
760.572771
 30
0.0
 10
194.708197
 20
752.600323
 30
0.0
 10
210.653092
 20
752.600323
 30
0.0
 10
210.653092
 20
760.572771
 30
0.0
 10
226.597987
 20
760.572771
 30
0.0
 10
226.597987
 20
752.600323
 30
0.0
 10
242.542882
 20
752.600323
 30
0.0
 10
242.542882
 20
760.572771
 30
0.0
 10
258.487777
 20
760.572771
 30
0.0
 10
258.487777
 20
752.600323
 30
0.0
 10
274.432672
 20
752.600323
 30
0.0
 10
274.432672
 20
760.572771
 30
0.0
 10
290.377567
 20
760.572771
 30
0.0
 10
290.377567
 20
752.600323
 30
0.0
 10
306.322462
 20
752.600323
 30
0.0
 10
306.322462
 20
760.572771
 30
0.0
 10
322.267358
 20
760.572771
 30
0.0
 10
322.267358
 20
752.600323
 30
0.0
 10
344.855959
 20
752.600323
 30
0.0
 10
344.855959
 20
760.572771
 30
0.0
 10
367.444560
 20
760.572771
 30
0.0
  0
LWPOLYLINE
  5
102
100
AcDbEntity
  8
0
 62
7
100
AcDbPolyline
 90
4
 70
0
 10
668.404448
 20
547.974171
 30
0.0
 10
668.404448
 20
555.946618
 30
0.0
 10
645.151470
 20
555.946618
 30
0.0
 10
645.151470
 20
547.974171
 30
0.0
  0
LWPOLYLINE
  5
103
100
AcDbEntity
  8
0
 62
7
100
AcDbPolyline
 90
4
 70
0
 10
629.206575
 20
547.974171
 30
0.0
 10
629.206575
 20
555.946618
 30
0.0
 10
613.261680
 20
555.946618
 30
0.0
 10
613.261680
 20
547.974171
 30
0.0
  0
LWPOLYLINE
  5
104
100
AcDbEntity
  8
0
 62
7
100
AcDbPolyline
 90
4
 70
0
 10
597.316785
 20
547.974171
 30
0.0
 10
597.316785
 20
555.946618
 30
0.0
 10
581.371898
 20
555.946618
 30
0.0
 10
581.371898
 20
547.974171
 30
0.0
  0
LWPOLYLINE
  5
105
100
AcDbEntity
  8
0
 62
7
100
AcDbPolyline
 90
4
 70
0
 10
565.427003
 20
547.974171
 30
0.0
 10
565.427003
 20
555.946618
 30
0.0
 10
549.482100
 20
555.946618
 30
0.0
 10
549.482100
 20
547.974171
 30
0.0
  0
LWPOLYLINE
  5
106
100
AcDbEntity
  8
0
 62
7
100
AcDbPolyline
 90
4
 70
0
 10
533.537205
 20
547.974171
 30
0.0
 10
533.537205
 20
555.946618
 30
0.0
 10
517.592310
 20
555.946618
 30
0.0
 10
517.592310
 20
547.974171
 30
0.0
  0
LWPOLYLINE
  5
107
100
AcDbEntity
  8
0
 62
7
100
AcDbPolyline
 90
4
 70
0
 10
501.647415
 20
547.974171
 30
0.0
 10
501.647415
 20
555.946618
 30
0.0
 10
485.702527
 20
555.946618
 30
0.0
 10
485.702527
 20
547.974171
 30
0.0
  0
LWPOLYLINE
  5
108
100
AcDbEntity
  8
0
 62
7
100
AcDbPolyline
 90
4
 70
0
 10
469.757632
 20
547.974171
 30
0.0
 10
469.757632
 20
555.946618
 30
0.0
 10
453.812730
 20
555.946618
 30
0.0
 10
453.812730
 20
547.974171
 30
0.0
  0
LWPOLYLINE
  5
109
100
AcDbEntity
  8
0
 62
7
100
AcDbPolyline
 90
4
 70
0
 10
437.867842
 20
547.974171
 30
0.0
 10
437.867842
 20
555.946618
 30
0.0
 10
421.922944
 20
555.946618
 30
0.0
 10
421.922944
 20
547.974171
 30
0.0
  0
LWPOLYLINE
  5
10a
100
AcDbEntity
  8
0
 62
7
100
AcDbPolyline
 90
4
 70
0
 10
405.978049
 20
547.974171
 30
0.0
 10
405.978049
 20
555.946618
 30
0.0
 10
382.725077
 20
555.946618
 30
0.0
 10
382.725077
 20
547.974171
 30
0.0
  0
LWPOLYLINE
  5
10b
100
AcDbEntity
  8
0
 62
7
100
AcDbPolyline
 90
20
 70
0
 10
367.444552
 20
547.974171
 30
0.0
 10
367.444552
 20
570.562768
 30
0.0
 10
359.472105
 20
570.562768
 30
0.0
 10
359.472105
 20
593.151373
 30
0.0
 10
367.444552
 20
593.151373
 30
0.0
 10
367.444552
 20
609.096268
 30
0.0
 10
359.472105
 20
609.096268
 30
0.0
 10
359.472105
 20
631.684870
 30
0.0
 10
367.444552
 20
631.684870
 30
0.0
 10
367.444552
 20
654.273471
 30
0.0
 10
683.684970
 20
654.273471
 30
0.0
 10
683.684970
 20
631.684870
 30
0.0
 10
691.657418
 20
631.684870
 30
0.0
 10
691.657418
 20
609.096268
 30
0.0
 10
683.684970
 20
609.096268
 30
0.0
 10
683.684970
 20
593.151373
 30
0.0
 10
691.657418
 20
593.151373
 30
0.0
 10
691.657418
 20
570.562768
 30
0.0
 10
683.684970
 20
570.562768
 30
0.0
 10
683.684970
 20
547.974171
 30
0.0
  0
LWPOLYLINE
  5
10c
100
AcDbEntity
  8
0
 62
7
100
AcDbPolyline
 90
56
 70
0
 10
367.444545
 20
654.273471
 30
0.0
 10
367.444545
 20
676.862072
 30
0.0
 10
359.472098
 20
676.862072
 30
0.0
 10
359.472098
 20
699.450673
 30
0.0
 10
367.444545
 20
699.450673
 30
0.0
 10
367.444545
 20
715.395568
 30
0.0
 10
359.472098
 20
715.395568
 30
0.0
 10
359.472098
 20
737.984173
 30
0.0
 10
367.444545
 20
737.984173
 30
0.0
 10
367.444545
 20
760.572771
 30
0.0
 10
382.725068
 20
760.572771
 30
0.0
 10
382.725068
 20
752.600323
 30
0.0
 10
405.978045
 20
752.600323
 30
0.0
 10
405.978045
 20
760.572771
 30
0.0
 10
421.922940
 20
760.572771
 30
0.0
 10
421.922940
 20
752.600323
 30
0.0
 10
437.867835
 20
752.600323
 30
0.0
 10
437.867835
 20
760.572771
 30
0.0
 10
453.812730
 20
760.572771
 30
0.0
 10
453.812730
 20
752.600323
 30
0.0
 10
469.757618
 20
752.600323
 30
0.0
 10
469.757618
 20
760.572771
 30
0.0
 10
485.702513
 20
760.572771
 30
0.0
 10
485.702513
 20
752.600323
 30
0.0
 10
501.647415
 20
752.600323
 30
0.0
 10
501.647415
 20
760.572771
 30
0.0
 10
517.592310
 20
760.572771
 30
0.0
 10
517.592310
 20
752.600323
 30
0.0
 10
533.537205
 20
752.600323
 30
0.0
 10
533.537205
 20
760.572771
 30
0.0
 10
549.482100
 20
760.572771
 30
0.0
 10
549.482100
 20
752.600323
 30
0.0
 10
565.426987
 20
752.600323
 30
0.0
 10
565.426987
 20
760.572771
 30
0.0
 10
581.371883
 20
760.572771
 30
0.0
 10
581.371883
 20
752.600323
 30
0.0
 10
597.316785
 20
752.600323
 30
0.0
 10
597.316785
 20
760.572771
 30
0.0
 10
613.261673
 20
760.572771
 30
0.0
 10
613.261673
 20
752.600323
 30
0.0
 10
629.206571
 20
752.600323
 30
0.0
 10
629.206571
 20
760.572771
 30
0.0
 10
645.151466
 20
760.572771
 30
0.0
 10
645.151466
 20
752.600323
 30
0.0
 10
668.404439
 20
752.600323
 30
0.0
 10
668.404439
 20
760.572771
 30
0.0
 10
683.684963
 20
760.572771
 30
0.0
 10
683.684962
 20
737.984173
 30
0.0
 10
691.657410
 20
737.984173
 30
0.0
 10
691.657410
 20
715.395568
 30
0.0
 10
683.684962
 20
715.395568
 30
0.0
 10
683.684962
 20
699.450673
 30
0.0
 10
691.657410
 20
699.450673
 30
0.0
 10
691.657410
 20
676.862072
 30
0.0
 10
683.684962
 20
676.862072
 30
0.0
 10
683.684962
 20
654.273471
 30
0.0
  0
LWPOLYLINE
  5
10d
100
AcDbEntity
  8
0
 62
7
100
AcDbPolyline
 90
3
 70
0
 10
359.472097
 20
547.974171
 30
0.0
 10
359.472097
 20
532.693648
 30
0.0
 10
367.444545
 20
532.693648
 30
0.0
  0
LWPOLYLINE
  5
10e
100
AcDbEntity
  8
0
 62
7
100
AcDbPolyline
 90
4
 70
0
 10
367.444545
 20
509.440671
 30
0.0
 10
359.472097
 20
509.440671
 30
0.0
 10
359.472097
 20
493.495776
 30
0.0
 10
367.444545
 20
493.495776
 30
0.0
  0
LWPOLYLINE
  5
10f
100
AcDbEntity
  8
0
 62
7
100
AcDbPolyline
 90
4
 70
0
 10
367.444545
 20
477.550881
 30
0.0
 10
359.472097
 20
477.550881
 30
0.0
 10
359.472097
 20
461.605986
 30
0.0
 10
367.444545
 20
461.605986
 30
0.0
  0
LWPOLYLINE
  5
110
100
AcDbEntity
  8
0
 62
7
100
AcDbPolyline
 90
4
 70
0
 10
367.444545
 20
445.661098
 30
0.0
 10
359.472097
 20
445.661098
 30
0.0
 10
359.472097
 20
429.716203
 30
0.0
 10
367.444545
 20
429.716203
 30
0.0
  0
LWPOLYLINE
  5
111
100
AcDbEntity
  8
0
 62
7
100
AcDbPolyline
 90
4
 70
0
 10
367.444545
 20
413.771301
 30
0.0
 10
359.472097
 20
413.771301
 30
0.0
 10
359.472097
 20
397.826406
 30
0.0
 10
367.444545
 20
397.826406
 30
0.0
  0
LWPOLYLINE
  5
112
100
AcDbEntity
  8
0
 62
7
100
AcDbPolyline
 90
4
 70
0
 10
367.444545
 20
381.881511
 30
0.0
 10
359.472097
 20
381.881511
 30
0.0
 10
359.472097
 20
365.936616
 30
0.0
 10
367.444545
 20
365.936616
 30
0.0
  0
LWPOLYLINE
  5
113
100
AcDbEntity
  8
0
 62
7
100
AcDbPolyline
 90
4
 70
0
 10
367.444545
 20
349.991728
 30
0.0
 10
359.472097
 20
349.991728
 30
0.0
 10
359.472097
 20
334.046833
 30
0.0
 10
367.444545
 20
334.046833
 30
0.0
  0
LWPOLYLINE
  5
114
100
AcDbEntity
  8
0
 62
7
100
AcDbPolyline
 90
4
 70
0
 10
367.444545
 20
318.101931
 30
0.0
 10
359.472097
 20
318.101931
 30
0.0
 10
359.472097
 20
302.157043
 30
0.0
 10
367.444545
 20
302.157043
 30
0.0
  0
LWPOLYLINE
  5
115
100
AcDbEntity
  8
0
 62
7
100
AcDbPolyline
 90
4
 70
0
 10
367.444545
 20
286.212145
 30
0.0
 10
359.472097
 20
286.212145
 30
0.0
 10
359.472097
 20
270.267250
 30
0.0
 10
367.444545
 20
270.267250
 30
0.0
  0
LWPOLYLINE
  5
116
100
AcDbEntity
  8
0
 62
7
100
AcDbPolyline
 90
69
 70
0
 10
367.444545
 20
247.014277
 30
0.0
 10
359.472097
 20
247.014277
 30
0.0
 10
359.472097
 20
231.733753
 30
0.0
 10
344.855944
 20
231.733753
 30
0.0
 10
344.855944
 20
223.761306
 30
0.0
 10
322.267342
 20
223.761306
 30
0.0
 10
322.267342
 20
231.733753
 30
0.0
 10
306.322447
 20
231.733753
 30
0.0
 10
306.322447
 20
223.761306
 30
0.0
 10
290.377552
 20
223.761306
 30
0.0
 10
290.377552
 20
231.733753
 30
0.0
 10
274.432657
 20
231.733753
 30
0.0
 10
274.432657
 20
223.761306
 30
0.0
 10
258.487762
 20
223.761306
 30
0.0
 10
258.487762
 20
231.733753
 30
0.0
 10
242.542867
 20
231.733753
 30
0.0
 10
242.542867
 20
223.761306
 30
0.0
 10
226.597972
 20
223.761306
 30
0.0
 10
226.597972
 20
231.733753
 30
0.0
 10
210.653077
 20
231.733753
 30
0.0
 10
210.653077
 20
223.761306
 30
0.0
 10
194.708182
 20
223.761306
 30
0.0
 10
194.708182
 20
231.733753
 30
0.0
 10
178.763287
 20
231.733753
 30
0.0
 10
178.763287
 20
223.761306
 30
0.0
 10
162.818392
 20
223.761306
 30
0.0
 10
162.818392
 20
231.733753
 30
0.0
 10
146.873497
 20
231.733753
 30
0.0
 10
146.873497
 20
223.761306
 30
0.0
 10
124.284892
 20
223.761306
 30
0.0
 10
124.284892
 20
231.733753
 30
0.0
 10
109.668742
 20
231.733753
 30
0.0
 10
109.668742
 20
247.014277
 30
0.0
 10
101.696295
 20
247.014277
 30
0.0
 10
101.696295
 20
270.267250
 30
0.0
 10
109.668742
 20
270.267250
 30
0.0
 10
109.668742
 20
286.212145
 30
0.0
 10
101.696295
 20
286.212145
 30
0.0
 10
101.696295
 20
302.157043
 30
0.0
 10
109.668742
 20
302.157043
 30
0.0
 10
109.668742
 20
318.101931
 30
0.0
 10
101.696295
 20
318.101931
 30
0.0
 10
101.696295
 20
334.046833
 30
0.0
 10
109.668742
 20
334.046833
 30
0.0
 10
109.668742
 20
349.991728
 30
0.0
 10
101.696295
 20
349.991728
 30
0.0
 10
101.696295
 20
365.936616
 30
0.0
 10
109.668742
 20
365.936616
 30
0.0
 10
109.668742
 20
381.881511
 30
0.0
 10
101.696295
 20
381.881511
 30
0.0
 10
101.696295
 20
397.826406
 30
0.0
 10
109.668742
 20
397.826406
 30
0.0
 10
109.668742
 20
413.771301
 30
0.0
 10
101.696295
 20
413.771301
 30
0.0
 10
101.696295
 20
429.716203
 30
0.0
 10
109.668742
 20
429.716203
 30
0.0
 10
109.668742
 20
445.661098
 30
0.0
 10
101.696295
 20
445.661098
 30
0.0
 10
101.696295
 20
461.605986
 30
0.0
 10
109.668743
 20
461.605986
 30
0.0
 10
109.668743
 20
477.550881
 30
0.0
 10
101.696295
 20
477.550881
 30
0.0
 10
101.696295
 20
493.495776
 30
0.0
 10
109.668743
 20
493.495776
 30
0.0
 10
109.668743
 20
509.440671
 30
0.0
 10
101.696295
 20
509.440671
 30
0.0
 10
101.696295
 20
532.693648
 30
0.0
 10
109.668743
 20
532.693648
 30
0.0
 10
109.668743
 20
547.974171
 30
0.0
  0
LWPOLYLINE
  5
117
100
AcDbEntity
  8
0
 62
7
100
AcDbPolyline
 90
4
 70
1
 10
633.099938
 20
547.974174
 30
0.0
 10
367.444553
 20
547.974174
 30
0.0
 10
367.444553
 20
215.881734
 30
0.0
 10
633.099938
 20
215.881734
 30
0.0
  0
LWPOLYLINE
  5
118
100
AcDbEntity
  8
0
 62
7
100
AcDbPolyline
 90
4
 70
0
 10
633.099960
 20
231.733762
 30
0.0
 10
882.903315
 20
231.733762
 30
0.0
 10
882.903315
 20
547.974179
 30
0.0
 10
633.099960
 20
547.974179
 30
0.0
  0
LWPOLYLINE
  5
119
100
AcDbEntity
  8
0
 62
7
100
AcDbPolyline
 90
4
 70
1
 10
868.665664
 20
534.975731
 30
0.0
 10
647.337616
 20
534.975731
 30
0.0
 10
647.337616
 20
244.732214
 30
0.0
 10
868.665664
 20
244.732214
 30
0.0
  0
SPLINE
  5
11a
100
AcDbEntity
  8
0
 62
3
100
AcDbSpline
 70
8
 71
3
 72
8
 73
4
 74
0
 40
0
 40
0
 40
0
 40
0
 40
1
 40
1
 40
1
 40
1
 10
537.624863
 20
282.588957
 30
0.0
 10
518.405404
 20
282.588957
 30
0.0
 10
500.645892
 20
292.842417
 30
0.0
 10
491.036163
 20
309.486956
 30
0.0
  0
SPLINE
  5
11b
100
AcDbEntity
  8
0
 62
3
100
AcDbSpline
 70
8
 71
3
 72
8
 73
4
 74
0
 40
0
 40
0
 40
0
 40
0
 40
1
 40
1
 40
1
 40
1
 10
491.036163
 20
309.486956
 30
0.0
 10
481.426433
 20
326.131495
 30
0.0
 10
481.426433
 20
346.638414
 30
0.0
 10
491.036163
 20
363.282953
 30
0.0
  0
SPLINE
  5
11c
100
AcDbEntity
  8
0
 62
3
100
AcDbSpline
 70
8
 71
3
 72
8
 73
4
 74
0
 40
0
 40
0
 40
0
 40
0
 40
1
 40
1
 40
1
 40
1
 10
491.036163
 20
363.282953
 30
0.0
 10
500.645892
 20
379.927493
 30
0.0
 10
518.405404
 20
390.180952
 30
0.0
 10
537.624863
 20
390.180952
 30
0.0
  0
SPLINE
  5
11d
100
AcDbEntity
  8
0
 62
3
100
AcDbSpline
 70
8
 71
3
 72
8
 73
4
 74
0
 40
0
 40
0
 40
0
 40
0
 40
1
 40
1
 40
1
 40
1
 10
537.624863
 20
390.180952
 30
0.0
 10
556.844321
 20
390.180952
 30
0.0
 10
574.603834
 20
379.927493
 30
0.0
 10
584.213563
 20
363.282953
 30
0.0
  0
SPLINE
  5
11e
100
AcDbEntity
  8
0
 62
3
100
AcDbSpline
 70
8
 71
3
 72
8
 73
4
 74
0
 40
0
 40
0
 40
0
 40
0
 40
1
 40
1
 40
1
 40
1
 10
584.213563
 20
363.282953
 30
0.0
 10
593.823292
 20
346.638414
 30
0.0
 10
593.823292
 20
326.131495
 30
0.0
 10
584.213563
 20
309.486956
 30
0.0
  0
SPLINE
  5
11f
100
AcDbEntity
  8
0
 62
3
100
AcDbSpline
 70
8
 71
3
 72
8
 73
4
 74
0
 40
0
 40
0
 40
0
 40
0
 40
1
 40
1
 40
1
 40
1
 10
584.213563
 20
309.486956
 30
0.0
 10
574.603834
 20
292.842417
 30
0.0
 10
556.844321
 20
282.588957
 30
0.0
 10
537.624863
 20
282.588957
 30
0.0
  0
LWPOLYLINE
  5
120
100
AcDbEntity
  8
0
 62
3
100
AcDbPolyline
 90
4
 70
1
 10
612.499005
 20
526.793008
 30
0.0
 10
612.499005
 20
234.565101
 30
0.0
 10
390.435030
 20
234.565101
 30
0.0
 10
390.435030
 20
526.793008
 30
0.0
  0
SPLINE
  5
121
100
AcDbEntity
  8
0
 62
3
100
AcDbSpline
 70
8
 71
3
 72
8
 73
4
 74
0
 40
0
 40
0
 40
0
 40
0
 40
1
 40
1
 40
1
 40
1
 10
537.624863
 20
293.803332
 30
0.0
 10
522.411914
 20
293.803332
 30
0.0
 10
508.354570
 20
301.919343
 30
0.0
 10
500.748096
 20
315.094143
 30
0.0
  0
SPLINE
  5
122
100
AcDbEntity
  8
0
 62
3
100
AcDbSpline
 70
8
 71
3
 72
8
 73
4
 74
0
 40
0
 40
0
 40
0
 40
0
 40
1
 40
1
 40
1
 40
1
 10
500.748096
 20
315.094143
 30
0.0
 10
493.141622
 20
328.268943
 30
0.0
 10
493.141622
 20
344.500966
 30
0.0
 10
500.748096
 20
357.675766
 30
0.0
  0
SPLINE
  5
123
100
AcDbEntity
  8
0
 62
3
100
AcDbSpline
 70
8
 71
3
 72
8
 73
4
 74
0
 40
0
 40
0
 40
0
 40
0
 40
1
 40
1
 40
1
 40
1
 10
500.748096
 20
357.675766
 30
0.0
 10
508.354570
 20
370.850566
 30
0.0
 10
522.411914
 20
378.966577
 30
0.0
 10
537.624863
 20
378.966577
 30
0.0
  0
SPLINE
  5
124
100
AcDbEntity
  8
0
 62
3
100
AcDbSpline
 70
8
 71
3
 72
8
 73
4
 74
0
 40
0
 40
0
 40
0
 40
0
 40
1
 40
1
 40
1
 40
1
 10
537.624863
 20
378.966577
 30
0.0
 10
552.837811
 20
378.966577
 30
0.0
 10
566.895155
 20
370.850566
 30
0.0
 10
574.501630
 20
357.675766
 30
0.0
  0
SPLINE
  5
125
100
AcDbEntity
  8
0
 62
3
100
AcDbSpline
 70
8
 71
3
 72
8
 73
4
 74
0
 40
0
 40
0
 40
0
 40
0
 40
1
 40
1
 40
1
 40
1
 10
574.501630
 20
357.675766
 30
0.0
 10
582.108104
 20
344.500966
 30
0.0
 10
582.108104
 20
328.268943
 30
0.0
 10
574.501630
 20
315.094143
 30
0.0
  0
SPLINE
  5
126
100
AcDbEntity
  8
0
 62
3
100
AcDbSpline
 70
8
 71
3
 72
8
 73
4
 74
0
 40
0
 40
0
 40
0
 40
0
 40
1
 40
1
 40
1
 40
1
 10
574.501630
 20
315.094143
 30
0.0
 10
566.895155
 20
301.919343
 30
0.0
 10
552.837811
 20
293.803332
 30
0.0
 10
537.624863
 20
293.803332
 30
0.0
  0
LWPOLYLINE
  5
127
100
AcDbEntity
  8
0
 62
3
100
AcDbPolyline
 90
1
 70
1
 10
537.624863
 20
282.588957
 30
0.0
  0
SPLINE
  5
128
100
AcDbEntity
  8
0
 62
3
100
AcDbSpline
 70
8
 71
3
 72
8
 73
4
 74
0
 40
0
 40
0
 40
0
 40
0
 40
1
 40
1
 40
1
 40
1
 10
537.624863
 20
303.208938
 30
0.0
 10
525.772214
 20
303.208938
 30
0.0
 10
514.819914
 20
309.532251
 30
0.0
 10
508.893590
 20
319.796946
 30
0.0
  0
SPLINE
  5
129
100
AcDbEntity
  8
0
 62
3
100
AcDbSpline
 70
8
 71
3
 72
8
 73
4
 74
0
 40
0
 40
0
 40
0
 40
0
 40
1
 40
1
 40
1
 40
1
 10
508.893590
 20
319.796946
 30
0.0
 10
502.967265
 20
330.061642
 30
0.0
 10
502.967265
 20
342.708268
 30
0.0
 10
508.893590
 20
352.972963
 30
0.0
  0
SPLINE
  5
12a
100
AcDbEntity
  8
0
 62
3
100
AcDbSpline
 70
8
 71
3
 72
8
 73
4
 74
0
 40
0
 40
0
 40
0
 40
0
 40
1
 40
1
 40
1
 40
1
 10
508.893590
 20
352.972963
 30
0.0
 10
514.819914
 20
363.237658
 30
0.0
 10
525.772214
 20
369.560971
 30
0.0
 10
537.624863
 20
369.560971
 30
0.0
  0
SPLINE
  5
12b
100
AcDbEntity
  8
0
 62
3
100
AcDbSpline
 70
8
 71
3
 72
8
 73
4
 74
0
 40
0
 40
0
 40
0
 40
0
 40
1
 40
1
 40
1
 40
1
 10
537.624863
 20
369.560971
 30
0.0
 10
549.477512
 20
369.560971
 30
0.0
 10
560.429811
 20
363.237658
 30
0.0
 10
566.356136
 20
352.972963
 30
0.0
  0
SPLINE
  5
12c
100
AcDbEntity
  8
0
 62
3
100
AcDbSpline
 70
8
 71
3
 72
8
 73
4
 74
0
 40
0
 40
0
 40
0
 40
0
 40
1
 40
1
 40
1
 40
1
 10
566.356136
 20
352.972963
 30
0.0
 10
572.282460
 20
342.708268
 30
0.0
 10
572.282460
 20
330.061642
 30
0.0
 10
566.356136
 20
319.796946
 30
0.0
  0
SPLINE
  5
12d
100
AcDbEntity
  8
0
 62
3
100
AcDbSpline
 70
8
 71
3
 72
8
 73
4
 74
0
 40
0
 40
0
 40
0
 40
0
 40
1
 40
1
 40
1
 40
1
 10
566.356136
 20
319.796946
 30
0.0
 10
560.429811
 20
309.532251
 30
0.0
 10
549.477512
 20
303.208938
 30
0.0
 10
537.624863
 20
303.208938
 30
0.0
  0
LWPOLYLINE
  5
12e
100
AcDbEntity
  8
0
 62
3
100
AcDbPolyline
 90
1
 70
1
 10
537.624863
 20
293.803332
 30
0.0
  0
SPLINE
  5
12f
100
AcDbEntity
  8
0
 62
3
100
AcDbSpline
 70
8
 71
3
 72
8
 73
4
 74
0
 40
0
 40
0
 40
0
 40
0
 40
1
 40
1
 40
1
 40
1
 10
537.624863
 20
311.529281
 30
0.0
 10
528.744786
 20
311.529281
 30
0.0
 10
520.539256
 20
316.266746
 30
0.0
 10
516.099218
 20
323.957118
 30
0.0
  0
SPLINE
  5
130
100
AcDbEntity
  8
0
 62
3
100
AcDbSpline
 70
8
 71
3
 72
8
 73
4
 74
0
 40
0
 40
0
 40
0
 40
0
 40
1
 40
1
 40
1
 40
1
 10
516.099218
 20
323.957118
 30
0.0
 10
511.659180
 20
331.647490
 30
0.0
 10
511.659180
 20
341.122419
 30
0.0
 10
516.099218
 20
348.812791
 30
0.0
  0
SPLINE
  5
131
100
AcDbEntity
  8
0
 62
3
100
AcDbSpline
 70
8
 71
3
 72
8
 73
4
 74
0
 40
0
 40
0
 40
0
 40
0
 40
1
 40
1
 40
1
 40
1
 10
516.099218
 20
348.812791
 30
0.0
 10
520.539256
 20
356.503164
 30
0.0
 10
528.744786
 20
361.240628
 30
0.0
 10
537.624863
 20
361.240628
 30
0.0
  0
SPLINE
  5
132
100
AcDbEntity
  8
0
 62
3
100
AcDbSpline
 70
8
 71
3
 72
8
 73
4
 74
0
 40
0
 40
0
 40
0
 40
0
 40
1
 40
1
 40
1
 40
1
 10
537.624863
 20
361.240628
 30
0.0
 10
546.504940
 20
361.240628
 30
0.0
 10
554.710469
 20
356.503164
 30
0.0
 10
559.150507
 20
348.812791
 30
0.0
  0
SPLINE
  5
133
100
AcDbEntity
  8
0
 62
3
100
AcDbSpline
 70
8
 71
3
 72
8
 73
4
 74
0
 40
0
 40
0
 40
0
 40
0
 40
1
 40
1
 40
1
 40
1
 10
559.150507
 20
348.812791
 30
0.0
 10
563.590546
 20
341.122419
 30
0.0
 10
563.590546
 20
331.647490
 30
0.0
 10
559.150507
 20
323.957118
 30
0.0
  0
SPLINE
  5
134
100
AcDbEntity
  8
0
 62
3
100
AcDbSpline
 70
8
 71
3
 72
8
 73
4
 74
0
 40
0
 40
0
 40
0
 40
0
 40
1
 40
1
 40
1
 40
1
 10
559.150507
 20
323.957118
 30
0.0
 10
554.710469
 20
316.266746
 30
0.0
 10
546.504940
 20
311.529281
 30
0.0
 10
537.624863
 20
311.529281
 30
0.0
  0
LWPOLYLINE
  5
135
100
AcDbEntity
  8
0
 62
3
100
AcDbPolyline
 90
1
 70
1
 10
537.624863
 20
303.208938
 30
0.0
  0
SPLINE
  5
136
100
AcDbEntity
  8
0
 62
3
100
AcDbSpline
 70
8
 71
3
 72
8
 73
4
 74
0
 40
0
 40
0
 40
0
 40
0
 40
1
 40
1
 40
1
 40
1
 10
537.624863
 20
319.849625
 30
0.0
 10
531.717359
 20
319.849625
 30
0.0
 10
526.258599
 20
323.001241
 30
0.0
 10
523.304847
 20
328.117290
 30
0.0
  0
SPLINE
  5
137
100
AcDbEntity
  8
0
 62
3
100
AcDbSpline
 70
8
 71
3
 72
8
 73
4
 74
0
 40
0
 40
0
 40
0
 40
0
 40
1
 40
1
 40
1
 40
1
 10
523.304847
 20
328.117290
 30
0.0
 10
520.351095
 20
333.233339
 30
0.0
 10
520.351095
 20
339.536571
 30
0.0
 10
523.304847
 20
344.652619
 30
0.0
  0
SPLINE
  5
138
100
AcDbEntity
  8
0
 62
3
100
AcDbSpline
 70
8
 71
3
 72
8
 73
4
 74
0
 40
0
 40
0
 40
0
 40
0
 40
1
 40
1
 40
1
 40
1
 10
523.304847
 20
344.652619
 30
0.0
 10
526.258599
 20
349.768668
 30
0.0
 10
531.717359
 20
352.920284
 30
0.0
 10
537.624863
 20
352.920284
 30
0.0
  0
SPLINE
  5
139
100
AcDbEntity
  8
0
 62
3
100
AcDbSpline
 70
8
 71
3
 72
8
 73
4
 74
0
 40
0
 40
0
 40
0
 40
0
 40
1
 40
1
 40
1
 40
1
 10
537.624863
 20
352.920284
 30
0.0
 10
543.532367
 20
352.920284
 30
0.0
 10
548.991126
 20
349.768668
 30
0.0
 10
551.944878
 20
344.652619
 30
0.0
  0
SPLINE
  5
13a
100
AcDbEntity
  8
0
 62
3
100
AcDbSpline
 70
8
 71
3
 72
8
 73
4
 74
0
 40
0
 40
0
 40
0
 40
0
 40
1
 40
1
 40
1
 40
1
 10
551.944878
 20
344.652619
 30
0.0
 10
554.898630
 20
339.536571
 30
0.0
 10
554.898630
 20
333.233339
 30
0.0
 10
551.944878
 20
328.117290
 30
0.0
  0
SPLINE
  5
13b
100
AcDbEntity
  8
0
 62
3
100
AcDbSpline
 70
8
 71
3
 72
8
 73
4
 74
0
 40
0
 40
0
 40
0
 40
0
 40
1
 40
1
 40
1
 40
1
 10
551.944878
 20
328.117290
 30
0.0
 10
548.991126
 20
323.001241
 30
0.0
 10
543.532367
 20
319.849625
 30
0.0
 10
537.624863
 20
319.849625
 30
0.0
  0
LWPOLYLINE
  5
13c
100
AcDbEntity
  8
0
 62
3
100
AcDbPolyline
 90
1
 70
1
 10
537.624863
 20
311.529281
 30
0.0
  0
LWPOLYLINE
  5
13d
100
AcDbEntity
  8
0
 62
3
100
AcDbPolyline
 90
1
 70
1
 10
537.624863
 20
319.849625
 30
0.0
  0
LWPOLYLINE
  5
13e
100
AcDbEntity
  8
0
 62
3
100
AcDbPolyline
 90
2
 70
0
 10
565.348464
 20
526.811845
 30
0.0
 10
565.348464
 20
382.746664
 30
0.0
  0
LWPOLYLINE
  5
13f
100
AcDbEntity
  8
0
 62
3
100
AcDbPolyline
 90
2
 70
0
 10
565.348464
 20
290.332593
 30
0.0
 10
565.348464
 20
234.546251
 30
0.0
  0
LWPOLYLINE
  5
140
100
AcDbEntity
  8
0
 62
3
100
AcDbPolyline
 90
2
 70
0
 10
513.013926
 20
234.546251
 30
0.0
 10
513.013926
 20
288.516596
 30
0.0
  0
LWPOLYLINE
  5
141
100
AcDbEntity
  8
0
 62
3
100
AcDbPolyline
 90
3
 70
0
 10
513.013926
 20
384.159108
 30
0.0
 10
513.013926
 20
526.811845
 30
0.0
 10
513.013926
 20
526.811845
 30
0.0
  0
LWPOLYLINE
  5
142
100
AcDbEntity
  8
0
 62
3
100
AcDbPolyline
 90
2
 70
0
 10
557.960422
 20
526.811845
 30
0.0
 10
557.960422
 20
386.378658
 30
0.0
  0
LWPOLYLINE
  5
143
100
AcDbEntity
  8
0
 62
3
100
AcDbPolyline
 90
2
 70
0
 10
557.960422
 20
286.297043
 30
0.0
 10
557.960422
 20
234.546251
 30
0.0
  0
LWPOLYLINE
  5
144
100
AcDbEntity
  8
0
 62
3
100
AcDbPolyline
 90
2
 70
0
 10
520.401976
 20
234.546251
 30
0.0
 10
520.401976
 20
285.691712
 30
0.0
  0
LWPOLYLINE
  5
145
100
AcDbEntity
  8
0
 62
3
100
AcDbPolyline
 90
3
 70
0
 10
520.401976
 20
387.185766
 30
0.0
 10
520.401976
 20
526.811845
 30
0.0
 10
520.401976
 20
526.811845
 30
0.0
  0
LWPOLYLINE
  5
146
100
AcDbEntity
  8
0
 62
3
100
AcDbPolyline
 90
2
 70
0
 10
552.284798
 20
526.811845
 30
0.0
 10
552.284798
 20
387.992874
 30
0.0
  0
LWPOLYLINE
  5
147
100
AcDbEntity
  8
0
 62
3
100
AcDbPolyline
 90
2
 70
0
 10
552.284798
 20
284.884602
 30
0.0
 10
552.284798
 20
234.546251
 30
0.0
  0
LWPOLYLINE
  5
148
100
AcDbEntity
  8
0
 62
3
100
AcDbPolyline
 90
2
 70
0
 10
526.077599
 20
234.546251
 30
0.0
 10
526.077599
 20
284.077493
 30
0.0
  0
LWPOLYLINE
  5
149
100
AcDbEntity
  8
0
 62
3
100
AcDbPolyline
 90
3
 70
0
 10
526.077599
 20
389.001772
 30
0.0
 10
526.077599
 20
526.811845
 30
0.0
 10
526.077599
 20
526.811845
 30
0.0
  0
LWPOLYLINE
  5
14a
100
AcDbEntity
  8
0
 62
3
100
AcDbPolyline
 90
2
 70
0
 10
546.236554
 20
526.811845
 30
0.0
 10
546.236554
 20
389.607108
 30
0.0
  0
LWPOLYLINE
  5
14b
100
AcDbEntity
  8
0
 62
3
100
AcDbPolyline
 90
2
 70
0
 10
546.236554
 20
283.068605
 30
0.0
 10
546.236554
 20
234.546251
 30
0.0
  0
LWPOLYLINE
  5
14c
100
AcDbEntity
  8
0
 62
3
100
AcDbPolyline
 90
2
 70
0
 10
532.125843
 20
234.546251
 30
0.0
 10
532.125843
 20
282.866827
 30
0.0
  0
LWPOLYLINE
  5
14d
100
AcDbEntity
  8
0
 62
3
100
AcDbPolyline
 90
3
 70
0
 10
532.125843
 20
390.010652
 30
0.0
 10
532.125843
 20
526.811845
 30
0.0
 10
532.125843
 20
526.811845
 30
0.0
  0
LWPOLYLINE
  5
14e
100
AcDbEntity
  8
0
 62
3
100
AcDbPolyline
 90
2
 70
0
 10
541.620159
 20
526.811845
 30
0.0
 10
541.620159
 20
389.808880
 30
0.0
  0
LWPOLYLINE
  5
14f
100
AcDbEntity
  8
0
 62
3
100
AcDbPolyline
 90
2
 70
0
 10
541.620159
 20
282.866827
 30
0.0
 10
541.620159
 20
234.546251
 30
0.0
  0
LWPOLYLINE
  5
150
100
AcDbEntity
  8
0
 62
3
100
AcDbPolyline
 90
2
 70
0
 10
536.742237
 20
234.546251
 30
0.0
 10
536.742237
 20
282.665049
 30
0.0
  0
SPLINE
  5
151
100
AcDbEntity
  8
0
 62
5
100
AcDbSpline
 70
8
 71
3
 72
8
 73
4
 74
0
 40
0
 40
0
 40
0
 40
0
 40
1
 40
1
 40
1
 40
1
 10
758.296877
 20
635.692464
 30
0.0
 10
755.724977
 20
635.692464
 30
0.0
 10
753.655127
 20
633.622576
 30
0.0
 10
753.655127
 20
631.050721
 30
0.0
  0
LWPOLYLINE
  5
152
100
AcDbEntity
  8
0
 62
3
100
AcDbPolyline
 90
3
 70
0
 10
536.742237
 20
390.414215
 30
0.0
 10
536.742237
 20
526.811845
 30
0.0
 10
536.742237
 20
526.811845
 30
0.0
  0
SPLINE
  5
153
100
AcDbEntity
  8
0
 62
5
100
AcDbSpline
 70
8
 71
3
 72
8
 73
4
 74
0
 40
0
 40
0
 40
0
 40
0
 40
1
 40
1
 40
1
 40
1
 10
753.655127
 20
561.018324
 30
0.0
 10
753.655127
 20
558.446439
 30
0.0
 10
755.724977
 20
556.375224
 30
0.0
 10
758.296877
 20
556.375224
 30
0.0
  0
LWPOLYLINE
  5
154
100
AcDbEntity
  8
0
 62
5
100
AcDbPolyline
 90
2
 70
0
 10
753.655127
 20
631.050721
 30
0.0
 10
753.655127
 20
561.018324
 30
0.0
  0
SPLINE
  5
155
100
AcDbEntity
  8
0
 62
5
100
AcDbSpline
 70
8
 71
3
 72
8
 73
4
 74
0
 40
0
 40
0
 40
0
 40
0
 40
1
 40
1
 40
1
 40
1
 10
774.832652
 20
556.375224
 30
0.0
 10
777.404552
 20
556.375224
 30
0.0
 10
779.475752
 20
558.446439
 30
0.0
 10
779.475752
 20
561.018324
 30
0.0
  0
LWPOLYLINE
  5
156
100
AcDbEntity
  8
0
 62
5
100
AcDbPolyline
 90
2
 70
0
 10
758.296877
 20
556.375224
 30
0.0
 10
774.832652
 20
556.375224
 30
0.0
  0
SPLINE
  5
157
100
AcDbEntity
  8
0
 62
5
100
AcDbSpline
 70
8
 71
3
 72
8
 73
4
 74
0
 40
0
 40
0
 40
0
 40
0
 40
1
 40
1
 40
1
 40
1
 10
779.475752
 20
631.050721
 30
0.0
 10
779.475752
 20
633.622576
 30
0.0
 10
777.404552
 20
635.692464
 30
0.0
 10
774.832652
 20
635.692464
 30
0.0
  0
LWPOLYLINE
  5
158
100
AcDbEntity
  8
0
 62
5
100
AcDbPolyline
 90
6
 70
0
 10
779.475752
 20
561.018324
 30
0.0
 10
779.475752
 20
592.138501
 30
0.0
 10
763.498877
 20
592.138501
 30
0.0
 10
763.498877
 20
599.930559
 30
0.0
 10
779.475752
 20
599.930559
 30
0.0
 10
779.475752
 20
631.050721
 30
0.0
  0
SPLINE
  5
159
100
AcDbEntity
  8
0
 62
5
100
AcDbSpline
 70
8
 71
3
 72
8
 73
4
 74
0
 40
0
 40
0
 40
0
 40
0
 40
1
 40
1
 40
1
 40
1
 10
766.919777
 20
626.557314
 30
0.0
 10
768.947789
 20
626.557132
 30
0.0
 10
770.591766
 20
624.913138
 30
0.0
 10
770.591927
 20
622.885126
 30
0.0
  0
SPLINE
  5
15a
100
AcDbEntity
  8
0
 62
5
100
AcDbSpline
 70
8
 71
3
 72
8
 73
4
 74
0
 40
0
 40
0
 40
0
 40
0
 40
1
 40
1
 40
1
 40
1
 10
770.591927
 20
622.885126
 30
0.0
 10
770.591766
 20
620.857115
 30
0.0
 10
768.947789
 20
619.213121
 30
0.0
 10
766.919777
 20
619.212939
 30
0.0
  0
SPLINE
  5
15b
100
AcDbEntity
  8
0
 62
5
100
AcDbSpline
 70
8
 71
3
 72
8
 73
4
 74
0
 40
0
 40
0
 40
0
 40
0
 40
1
 40
1
 40
1
 40
1
 10
766.919777
 20
619.212939
 30
0.0
 10
764.891736
 20
619.213079
 30
0.0
 10
763.247714
 20
620.857085
 30
0.0
 10
763.247552
 20
622.885126
 30
0.0
  0
SPLINE
  5
15c
100
AcDbEntity
  8
0
 62
5
100
AcDbSpline
 70
8
 71
3
 72
8
 73
4
 74
0
 40
0
 40
0
 40
0
 40
0
 40
1
 40
1
 40
1
 40
1
 10
763.247552
 20
622.885126
 30
0.0
 10
763.247714
 20
624.913167
 30
0.0
 10
764.891736
 20
626.557173
 30
0.0
 10
766.919777
 20
626.557314
 30
0.0
  0
LWPOLYLINE
  5
15d
100
AcDbEntity
  8
0
 62
5
100
AcDbPolyline
 90
2
 70
0
 10
774.832652
 20
635.692464
 30
0.0
 10
758.296877
 20
635.692464
 30
0.0
  0
SPLINE
  5
15e
100
AcDbEntity
  8
0
 62
5
100
AcDbSpline
 70
8
 71
3
 72
8
 73
4
 74
0
 40
0
 40
0
 40
0
 40
0
 40
1
 40
1
 40
1
 40
1
 10
766.919777
 20
609.683679
 30
0.0
 10
767.893911
 20
609.683591
 30
0.0
 10
768.828101
 20
609.296483
 30
0.0
 10
769.516784
 20
608.607533
 30
0.0
  0
SPLINE
  5
15f
100
AcDbEntity
  8
0
 62
5
100
AcDbSpline
 70
8
 71
3
 72
8
 73
4
 74
0
 40
0
 40
0
 40
0
 40
0
 40
1
 40
1
 40
1
 40
1
 10
769.516784
 20
608.607533
 30
0.0
 10
770.205468
 20
607.918584
 30
0.0
 10
770.592216
 20
606.984245
 30
0.0
 10
770.591927
 20
606.010111
 30
0.0
  0
SPLINE
  5
160
100
AcDbEntity
  8
0
 62
5
100
AcDbSpline
 70
8
 71
3
 72
8
 73
4
 74
0
 40
0
 40
0
 40
0
 40
0
 40
1
 40
1
 40
1
 40
1
 10
770.591927
 20
606.010111
 30
0.0
 10
770.591766
 20
603.982100
 30
0.0
 10
768.947789
 20
602.338106
 30
0.0
 10
766.919777
 20
602.337924
 30
0.0
  0
SPLINE
  5
161
100
AcDbEntity
  8
0
 62
5
100
AcDbSpline
 70
8
 71
3
 72
8
 73
4
 74
0
 40
0
 40
0
 40
0
 40
0
 40
1
 40
1
 40
1
 40
1
 10
766.919777
 20
602.337924
 30
0.0
 10
764.891736
 20
602.338064
 30
0.0
 10
763.247714
 20
603.982070
 30
0.0
 10
763.247552
 20
606.010111
 30
0.0
  0
SPLINE
  5
162
100
AcDbEntity
  8
0
 62
5
100
AcDbSpline
 70
8
 71
3
 72
8
 73
4
 74
0
 40
0
 40
0
 40
0
 40
0
 40
1
 40
1
 40
1
 40
1
 10
763.247552
 20
606.010111
 30
0.0
 10
763.247264
 20
606.984258
 30
0.0
 10
763.634022
 20
607.918608
 30
0.0
 10
764.322722
 20
608.607560
 30
0.0
  0
SPLINE
  5
163
100
AcDbEntity
  8
0
 62
5
100
AcDbSpline
 70
8
 71
3
 72
8
 73
4
 74
0
 40
0
 40
0
 40
0
 40
0
 40
1
 40
1
 40
1
 40
1
 10
764.322722
 20
608.607560
 30
0.0
 10
765.011422
 20
609.296511
 30
0.0
 10
765.945631
 20
609.683611
 30
0.0
 10
766.919777
 20
609.683679
 30
0.0
  0
LWPOLYLINE
  5
164
100
AcDbEntity
  8
0
 62
5
100
AcDbPolyline
 90
1
 70
1
 10
766.919777
 20
626.557314
 30
0.0
  0
SPLINE
  5
165
100
AcDbEntity
  8
0
 62
5
100
AcDbSpline
 70
8
 71
3
 72
8
 73
4
 74
0
 40
0
 40
0
 40
0
 40
0
 40
1
 40
1
 40
1
 40
1
 10
766.919777
 20
589.996149
 30
0.0
 10
768.947780
 20
589.995967
 30
0.0
 10
770.591753
 20
588.351987
 30
0.0
 10
770.591927
 20
586.323984
 30
0.0
  0
SPLINE
  5
166
100
AcDbEntity
  8
0
 62
5
100
AcDbSpline
 70
8
 71
3
 72
8
 73
4
 74
0
 40
0
 40
0
 40
0
 40
0
 40
1
 40
1
 40
1
 40
1
 10
770.591927
 20
586.323984
 30
0.0
 10
770.592216
 20
585.349850
 30
0.0
 10
770.205467
 20
584.415511
 30
0.0
 10
769.516784
 20
583.726562
 30
0.0
  0
SPLINE
  5
167
100
AcDbEntity
  8
0
 62
5
100
AcDbSpline
 70
8
 71
3
 72
8
 73
4
 74
0
 40
0
 40
0
 40
0
 40
0
 40
1
 40
1
 40
1
 40
1
 10
769.516784
 20
583.726562
 30
0.0
 10
768.828100
 20
583.037613
 30
0.0
 10
767.893911
 20
582.650504
 30
0.0
 10
766.919777
 20
582.650416
 30
0.0
  0
SPLINE
  5
168
100
AcDbEntity
  8
0
 62
5
100
AcDbSpline
 70
8
 71
3
 72
8
 73
4
 74
0
 40
0
 40
0
 40
0
 40
0
 40
1
 40
1
 40
1
 40
1
 10
766.919777
 20
582.650416
 30
0.0
 10
765.945631
 20
582.650484
 30
0.0
 10
765.011422
 20
583.037584
 30
0.0
 10
764.322722
 20
583.726535
 30
0.0
  0
SPLINE
  5
169
100
AcDbEntity
  8
0
 62
5
100
AcDbSpline
 70
8
 71
3
 72
8
 73
4
 74
0
 40
0
 40
0
 40
0
 40
0
 40
1
 40
1
 40
1
 40
1
 10
764.322722
 20
583.726535
 30
0.0
 10
763.634022
 20
584.415487
 30
0.0
 10
763.247264
 20
585.349837
 30
0.0
 10
763.247552
 20
586.323984
 30
0.0
  0
SPLINE
  5
16a
100
AcDbEntity
  8
0
 62
5
100
AcDbSpline
 70
8
 71
3
 72
8
 73
4
 74
0
 40
0
 40
0
 40
0
 40
0
 40
1
 40
1
 40
1
 40
1
 10
763.247552
 20
586.323984
 30
0.0
 10
763.247726
 20
588.352016
 30
0.0
 10
764.891745
 20
589.996008
 30
0.0
 10
766.919777
 20
589.996149
 30
0.0
  0
LWPOLYLINE
  5
16b
100
AcDbEntity
  8
0
 62
5
100
AcDbPolyline
 90
1
 70
1
 10
766.919777
 20
609.683679
 30
0.0
  0
SPLINE
  5
16c
100
AcDbEntity
  8
0
 62
5
100
AcDbSpline
 70
8
 71
3
 72
8
 73
4
 74
0
 40
0
 40
0
 40
0
 40
0
 40
1
 40
1
 40
1
 40
1
 10
766.919777
 20
573.121134
 30
0.0
 10
768.947780
 20
573.120952
 30
0.0
 10
770.591753
 20
571.476972
 30
0.0
 10
770.591927
 20
569.448969
 30
0.0
  0
SPLINE
  5
16d
100
AcDbEntity
  8
0
 62
5
100
AcDbSpline
 70
8
 71
3
 72
8
 73
4
 74
0
 40
0
 40
0
 40
0
 40
0
 40
1
 40
1
 40
1
 40
1
 10
770.591927
 20
569.448969
 30
0.0
 10
770.591766
 20
567.420957
 30
0.0
 10
768.947789
 20
565.776964
 30
0.0
 10
766.919777
 20
565.776781
 30
0.0
  0
SPLINE
  5
16e
100
AcDbEntity
  8
0
 62
5
100
AcDbSpline
 70
8
 71
3
 72
8
 73
4
 74
0
 40
0
 40
0
 40
0
 40
0
 40
1
 40
1
 40
1
 40
1
 10
766.919777
 20
565.776781
 30
0.0
 10
764.891736
 20
565.776922
 30
0.0
 10
763.247714
 20
567.420928
 30
0.0
 10
763.247552
 20
569.448969
 30
0.0
  0
SPLINE
  5
16f
100
AcDbEntity
  8
0
 62
5
100
AcDbSpline
 70
8
 71
3
 72
8
 73
4
 74
0
 40
0
 40
0
 40
0
 40
0
 40
1
 40
1
 40
1
 40
1
 10
763.247552
 20
569.448969
 30
0.0
 10
763.247726
 20
571.477001
 30
0.0
 10
764.891745
 20
573.120993
 30
0.0
 10
766.919777
 20
573.121134
 30
0.0
  0
LWPOLYLINE
  5
170
100
AcDbEntity
  8
0
 62
5
100
AcDbPolyline
 90
1
 70
1
 10
766.919777
 20
589.996149
 30
0.0
  0
SPLINE
  5
171
100
AcDbEntity
  8
0
 62
5
100
AcDbSpline
 70
8
 71
3
 72
8
 73
4
 74
0
 40
0
 40
0
 40
0
 40
0
 40
1
 40
1
 40
1
 40
1
 10
753.608311
 20
631.040115
 30
0.0
 10
753.608311
 20
633.612000
 30
0.0
 10
751.537101
 20
635.681860
 30
0.0
 10
748.965214
 20
635.681860
 30
0.0
  0
LWPOLYLINE
  5
172
100
AcDbEntity
  8
0
 62
5
100
AcDbPolyline
 90
1
 70
1
 10
766.919777
 20
573.121134
 30
0.0
  0
SPLINE
  5
173
100
AcDbEntity
  8
0
 62
5
100
AcDbSpline
 70
8
 71
3
 72
8
 73
4
 74
0
 40
0
 40
0
 40
0
 40
0
 40
1
 40
1
 40
1
 40
1
 10
732.429404
 20
635.681860
 30
0.0
 10
729.857511
 20
635.681860
 30
0.0
 10
727.787677
 20
633.612000
 30
0.0
 10
727.787677
 20
631.040115
 30
0.0
  0
LWPOLYLINE
  5
174
100
AcDbEntity
  8
0
 62
5
100
AcDbPolyline
 90
2
 70
0
 10
748.965214
 20
635.681860
 30
0.0
 10
732.429404
 20
635.681860
 30
0.0
  0
SPLINE
  5
175
100
AcDbEntity
  8
0
 62
5
100
AcDbSpline
 70
8
 71
3
 72
8
 73
4
 74
0
 40
0
 40
0
 40
0
 40
0
 40
1
 40
1
 40
1
 40
1
 10
727.787677
 20
561.007718
 30
0.0
 10
727.787677
 20
558.435833
 30
0.0
 10
729.857511
 20
556.364618
 30
0.0
 10
732.429404
 20
556.364618
 30
0.0
  0
LWPOLYLINE
  5
176
100
AcDbEntity
  8
0
 62
5
100
AcDbPolyline
 90
2
 70
0
 10
727.787677
 20
631.040115
 30
0.0
 10
727.787677
 20
561.007718
 30
0.0
  0
SPLINE
  5
177
100
AcDbEntity
  8
0
 62
5
100
AcDbSpline
 70
8
 71
3
 72
8
 73
4
 74
0
 40
0
 40
0
 40
0
 40
0
 40
1
 40
1
 40
1
 40
1
 10
748.965214
 20
556.364618
 30
0.0
 10
751.537101
 20
556.364618
 30
0.0
 10
753.608311
 20
558.435833
 30
0.0
 10
753.608311
 20
561.007718
 30
0.0
  0
SPLINE
  5
178
100
AcDbEntity
  8
0
 62
5
100
AcDbSpline
 70
8
 71
3
 72
8
 73
4
 74
0
 40
0
 40
0
 40
0
 40
0
 40
1
 40
1
 40
1
 40
1
 10
741.052302
 20
626.546711
 30
0.0
 10
743.080328
 20
626.546552
 30
0.0
 10
744.724329
 20
624.902553
 30
0.0
 10
744.724488
 20
622.874522
 30
0.0
  0
SPLINE
  5
179
100
AcDbEntity
  8
0
 62
5
100
AcDbSpline
 70
8
 71
3
 72
8
 73
4
 74
0
 40
0
 40
0
 40
0
 40
0
 40
1
 40
1
 40
1
 40
1
 10
744.724488
 20
622.874522
 30
0.0
 10
744.724329
 20
620.846491
 30
0.0
 10
743.080328
 20
619.202493
 30
0.0
 10
741.052302
 20
619.202333
 30
0.0
  0
SPLINE
  5
17a
100
AcDbEntity
  8
0
 62
5
100
AcDbSpline
 70
8
 71
3
 72
8
 73
4
 74
0
 40
0
 40
0
 40
0
 40
0
 40
1
 40
1
 40
1
 40
1
 10
741.052302
 20
619.202333
 30
0.0
 10
739.024276
 20
619.202493
 30
0.0
 10
737.380277
 20
620.846491
 30
0.0
 10
737.380118
 20
622.874522
 30
0.0
  0
SPLINE
  5
17b
100
AcDbEntity
  8
0
 62
5
100
AcDbSpline
 70
8
 71
3
 72
8
 73
4
 74
0
 40
0
 40
0
 40
0
 40
0
 40
1
 40
1
 40
1
 40
1
 10
737.380118
 20
622.874522
 30
0.0
 10
737.380277
 20
624.902553
 30
0.0
 10
739.024276
 20
626.546552
 30
0.0
 10
741.052302
 20
626.546711
 30
0.0
  0
LWPOLYLINE
  5
17c
100
AcDbEntity
  8
0
 62
5
100
AcDbPolyline
 90
2
 70
0
 10
732.429404
 20
556.364618
 30
0.0
 10
748.965214
 20
556.364618
 30
0.0
  0
SPLINE
  5
17d
100
AcDbEntity
  8
0
 62
5
100
AcDbSpline
 70
8
 71
3
 72
8
 73
4
 74
0
 40
0
 40
0
 40
0
 40
0
 40
1
 40
1
 40
1
 40
1
 10
741.052302
 20
609.673079
 30
0.0
 10
743.080867
 20
609.672920
 30
0.0
 10
744.725091
 20
608.028071
 30
0.0
 10
744.724488
 20
605.999508
 30
0.0
  0
SPLINE
  5
17e
100
AcDbEntity
  8
0
 62
5
100
AcDbSpline
 70
8
 71
3
 72
8
 73
4
 74
0
 40
0
 40
0
 40
0
 40
0
 40
1
 40
1
 40
1
 40
1
 10
744.724488
 20
605.999508
 30
0.0
 10
744.724329
 20
603.971477
 30
0.0
 10
743.080328
 20
602.327479
 30
0.0
 10
741.052302
 20
602.327319
 30
0.0
  0
SPLINE
  5
17f
100
AcDbEntity
  8
0
 62
5
100
AcDbSpline
 70
8
 71
3
 72
8
 73
4
 74
0
 40
0
 40
0
 40
0
 40
0
 40
1
 40
1
 40
1
 40
1
 10
741.052302
 20
602.327319
 30
0.0
 10
739.024276
 20
602.327479
 30
0.0
 10
737.380277
 20
603.971477
 30
0.0
 10
737.380118
 20
605.999508
 30
0.0
  0
SPLINE
  5
180
100
AcDbEntity
  8
0
 62
5
100
AcDbSpline
 70
8
 71
3
 72
8
 73
4
 74
0
 40
0
 40
0
 40
0
 40
0
 40
1
 40
1
 40
1
 40
1
 10
737.380118
 20
605.999508
 30
0.0
 10
737.379515
 20
608.028071
 30
0.0
 10
739.023736
 20
609.672920
 30
0.0
 10
741.052302
 20
609.673079
 30
0.0
  0
LWPOLYLINE
  5
181
100
AcDbEntity
  8
0
 62
5
100
AcDbPolyline
 90
1
 70
1
 10
741.052302
 20
626.546711
 30
0.0
  0
SPLINE
  5
182
100
AcDbEntity
  8
0
 62
5
100
AcDbSpline
 70
8
 71
3
 72
8
 73
4
 74
0
 40
0
 40
0
 40
0
 40
0
 40
1
 40
1
 40
1
 40
1
 10
741.052302
 20
589.985545
 30
0.0
 10
743.080317
 20
589.985386
 30
0.0
 10
744.724313
 20
588.341387
 30
0.0
 10
744.724488
 20
586.313383
 30
0.0
  0
SPLINE
  5
183
100
AcDbEntity
  8
0
 62
5
100
AcDbSpline
 70
8
 71
3
 72
8
 73
4
 74
0
 40
0
 40
0
 40
0
 40
0
 40
1
 40
1
 40
1
 40
1
 10
744.724488
 20
586.313383
 30
0.0
 10
744.725091
 20
584.284820
 30
0.0
 10
743.080867
 20
582.639971
 30
0.0
 10
741.052302
 20
582.639812
 30
0.0
  0
SPLINE
  5
184
100
AcDbEntity
  8
0
 62
5
100
AcDbSpline
 70
8
 71
3
 72
8
 73
4
 74
0
 40
0
 40
0
 40
0
 40
0
 40
1
 40
1
 40
1
 40
1
 10
741.052302
 20
582.639812
 30
0.0
 10
739.023736
 20
582.639971
 30
0.0
 10
737.379515
 20
584.284820
 30
0.0
 10
737.380118
 20
586.313383
 30
0.0
  0
SPLINE
  5
185
100
AcDbEntity
  8
0
 62
5
100
AcDbSpline
 70
8
 71
3
 72
8
 73
4
 74
0
 40
0
 40
0
 40
0
 40
0
 40
1
 40
1
 40
1
 40
1
 10
737.380118
 20
586.313383
 30
0.0
 10
737.380293
 20
588.341387
 30
0.0
 10
739.024287
 20
589.985386
 30
0.0
 10
741.052302
 20
589.985545
 30
0.0
  0
LWPOLYLINE
  5
186
100
AcDbEntity
  8
0
 62
5
100
AcDbPolyline
 90
1
 70
1
 10
741.052302
 20
609.673079
 30
0.0
  0
SPLINE
  5
187
100
AcDbEntity
  8
0
 62
5
100
AcDbSpline
 70
8
 71
3
 72
8
 73
4
 74
0
 40
0
 40
0
 40
0
 40
0
 40
1
 40
1
 40
1
 40
1
 10
741.052302
 20
573.110531
 30
0.0
 10
743.080317
 20
573.110372
 30
0.0
 10
744.724313
 20
571.466374
 30
0.0
 10
744.724488
 20
569.438369
 30
0.0
  0
SPLINE
  5
188
100
AcDbEntity
  8
0
 62
5
100
AcDbSpline
 70
8
 71
3
 72
8
 73
4
 74
0
 40
0
 40
0
 40
0
 40
0
 40
1
 40
1
 40
1
 40
1
 10
744.724488
 20
569.438369
 30
0.0
 10
744.724329
 20
567.410338
 30
0.0
 10
743.080328
 20
565.766339
 30
0.0
 10
741.052302
 20
565.766180
 30
0.0
  0
SPLINE
  5
189
100
AcDbEntity
  8
0
 62
5
100
AcDbSpline
 70
8
 71
3
 72
8
 73
4
 74
0
 40
0
 40
0
 40
0
 40
0
 40
1
 40
1
 40
1
 40
1
 10
741.052302
 20
565.766180
 30
0.0
 10
739.024276
 20
565.766339
 30
0.0
 10
737.380277
 20
567.410338
 30
0.0
 10
737.380118
 20
569.438369
 30
0.0
  0
SPLINE
  5
18a
100
AcDbEntity
  8
0
 62
5
100
AcDbSpline
 70
8
 71
3
 72
8
 73
4
 74
0
 40
0
 40
0
 40
0
 40
0
 40
1
 40
1
 40
1
 40
1
 10
737.380118
 20
569.438369
 30
0.0
 10
737.380293
 20
571.466374
 30
0.0
 10
739.024287
 20
573.110372
 30
0.0
 10
741.052302
 20
573.110531
 30
0.0
  0
LWPOLYLINE
  5
18b
100
AcDbEntity
  8
0
 62
5
100
AcDbPolyline
 90
1
 70
1
 10
741.052302
 20
589.985545
 30
0.0
  0
SPLINE
  5
18c
100
AcDbEntity
  8
0
 62
5
100
AcDbSpline
 70
8
 71
3
 72
8
 73
4
 74
0
 40
0
 40
0
 40
0
 40
0
 40
1
 40
1
 40
1
 40
1
 10
727.791754
 20
561.058769
 30
0.0
 10
727.791754
 20
558.486884
 30
0.0
 10
725.721245
 20
556.416359
 30
0.0
 10
723.149355
 20
556.416359
 30
0.0
  0
LWPOLYLINE
  5
18d
100
AcDbEntity
  8
0
 62
5
100
AcDbPolyline
 90
1
 70
1
 10
741.052302
 20
573.110531
 30
0.0
  0
SPLINE
  5
18e
100
AcDbEntity
  8
0
 62
5
100
AcDbSpline
 70
8
 71
3
 72
8
 73
4
 74
0
 40
0
 40
0
 40
0
 40
0
 40
1
 40
1
 40
1
 40
1
 10
706.613951
 20
556.416359
 30
0.0
 10
704.042064
 20
556.416359
 30
0.0
 10
701.971553
 20
558.486884
 30
0.0
 10
701.971553
 20
561.058769
 30
0.0
  0
LWPOLYLINE
  5
18f
100
AcDbEntity
  8
0
 62
5
100
AcDbPolyline
 90
2
 70
0
 10
723.149355
 20
556.416359
 30
0.0
 10
706.613951
 20
556.416359
 30
0.0
  0
SPLINE
  5
190
100
AcDbEntity
  8
0
 62
5
100
AcDbSpline
 70
8
 71
3
 72
8
 73
4
 74
0
 40
0
 40
0
 40
0
 40
0
 40
1
 40
1
 40
1
 40
1
 10
701.971553
 20
631.090634
 30
0.0
 10
701.971553
 20
633.662519
 30
0.0
 10
704.042064
 20
635.733044
 30
0.0
 10
706.613951
 20
635.733044
 30
0.0
  0
LWPOLYLINE
  5
191
100
AcDbEntity
  8
0
 62
5
100
AcDbPolyline
 90
2
 70
0
 10
701.971553
 20
561.058769
 30
0.0
 10
701.971553
 20
631.090634
 30
0.0
  0
SPLINE
  5
192
100
AcDbEntity
  8
0
 62
5
100
AcDbSpline
 70
8
 71
3
 72
8
 73
4
 74
0
 40
0
 40
0
 40
0
 40
0
 40
1
 40
1
 40
1
 40
1
 10
723.149355
 20
635.733044
 30
0.0
 10
725.721245
 20
635.733044
 30
0.0
 10
727.791754
 20
633.662519
 30
0.0
 10
727.791754
 20
631.090634
 30
0.0
  0
LWPOLYLINE
  5
193
100
AcDbEntity
  8
0
 62
5
100
AcDbPolyline
 90
2
 70
0
 10
706.613951
 20
635.733044
 30
0.0
 10
723.149355
 20
635.733044
 30
0.0
  0
ENDSEC
  0
SECTION
  2
OBJECTS
  0
DICTIONARY
  5
C
330
0
100
AcDbDictionary
  3
ACAD_GROUP
350
D
  3
ACAD_MLINESTYLE
350
17
  0
DICTIONARY
  5
D
330
C
100
AcDbDictionary
  0
DICTIONARY
  5
1A
330
C
100
AcDbDictionary
  0
DICTIONARY
  5
17
330
C
100
AcDbDictionary
  3
STANDARD
350
18
  0
DICTIONARY
  5
19
330
C
100
AcDbDictionary
  0
ENDSEC
  0
EOF
