  0
SECTION
  2
HEADER
  9
$ACADVER
  1
AC1014
  9
$ACADMAINTVER
 70
     0
  9
$DWGCODEPAGE
  3
ANSI_1252
  9
$INSBASE
 10
0.0
 20
0.0
 30
0.0
  9
$EXTMIN
 10
0.0
 20
0.0
 30
0.0
  9
$EXTMAX
 10
1117.6
 20
863.6
 30
0.0
  9
$LIMMIN
 10
0.0
 20
0.0
  9
$LIMMAX
 10
12.0
 20
9.0
  9
$ORTHOMODE
 70
     0
  9
$REGENMODE
 70
     1
  9
$FILLMODE
 70
     0
  9
$QTEXTMODE
 70
     0
  9
$MIRRTEXT
 70
     1
  9
$DRAGMODE
 70
     2
  9
$LTSCALE
 40
1.0
  9
$OSMODE
 70
    37
  9
$ATTMODE
 70
     1
  9
$TEXTSIZE
 40
0.2
  9
$TRACEWID
 40
0.05
  9
$TEXTSTYLE
  7
STANDARD
  9
$CLAYER
  8
0
  9
$CELTYPE
  6
BYLAYER
  9
$CECOLOR
 62
   256
  9
$CELTSCALE
 40
1.0
  9
$DELOBJ
 70
     1
  9
$DISPSILH
 70
     0
  9
$DIMSCALE
 40
1.0
  9
$DIMASZ
 40
0.18
  9
$DIMEXO
 40
0.0625
  9
$DIMDLI
 40
0.38
  9
$DIMRND
 40
0.0
  9
$DIMDLE
 40
0.0
  9
$DIMEXE
 40
0.18
  9
$DIMTP
 40
0.0
  9
$DIMTM
 40
0.0
  9
$DIMTXT
 40
0.18
  9
$DIMCEN
 40
0.09
  9
$DIMTSZ
 40
0.0
  9
$DIMTOL
 70
     0
  9
$DIMLIM
 70
     0
  9
$DIMTIH
 70
     0
  9
$DIMTOH
 70
     0
  9
$DIMSE1
 70
     0
  9
$DIMSE2
 70
     0
  9
$DIMTAD
 70
     1
  9
$DIMZIN
 70
     0
  9
$DIMBLK
  1

  9
$DIMASO
 70
     1
  9
$DIMSHO
 70
     1
  9
$DIMPOST
  1

  9
$DIMAPOST
  1

  9
$DIMALT
 70
     0
  9
$DIMALTD
 70
     2
  9
$DIMALTF
 40
25.4
  9
$DIMLFAC
 40
1.0
  9
$DIMTOFL
 70
     0
  9
$DIMTVP
 40
0.0
  9
$DIMTIX
 70
     0
  9
$DIMSOXD
 70
     0
  9
$DIMSAH
 70
     0
  9
$DIMBLK1
  1

  9
$DIMBLK2
  1

  9
$DIMSTYLE
  2
STANDARD
  9
$DIMCLRD
 70
     0
  9
$DIMCLRE
 70
     0
  9
$DIMCLRT
 70
     0
  9
$DIMTFAC
 40
1.0
  9
$DIMGAP
 40
0.09
  9
$DIMJUST
 70
     0
  9
$DIMSD1
 70
     0
  9
$DIMSD2
 70
     0
  9
$DIMTOLJ
 70
     1
  9
$DIMTZIN
 70
     0
  9
$DIMALTZ
 70
     0
  9
$DIMALTTZ
 70
     0
  9
$DIMFIT
 70
     5
  9
$DIMUPT
 70
     0
  9
$DIMUNIT
 70
     2
  9
$DIMDEC
 70
     2
  9
$DIMTDEC
 70
     4
  9
$DIMALTU
 70
     2
  9
$DIMALTTD
 70
     2
  9
$DIMTXSTY
  7
STANDARD
  9
$DIMAUNIT
 70
     0
  9
$LUNITS
 70
     2
  9
$LUPREC
 70
     4
  9
$SKETCHINC
 40
0.1
  9
$FILLETRAD
 40
0.5
  9
$AUNITS
 70
     0
  9
$AUPREC
 70
     0
  9
$MENU
  1
.
  9
$ELEVATION
 40
0.0
  9
$PELEVATION
 40
0.0
  9
$THICKNESS
 40
0.0
  9
$LIMCHECK
 70
     0
  9
$BLIPMODE
 70
     0
  9
$CHAMFERA
 40
0.5
  9
$CHAMFERB
 40
0.5
  9
$CHAMFERC
 40
1.0
  9
$CHAMFERD
 40
0.0
  9
$SKPOLY
 70
     0
  9
$TDCREATE
 40
2450772.666465926
  9
$TDUPDATE
 40
2459213.957511562
  9
$TDINDWG
 40
0.0011565046
  9
$TDUSRTIMER
 40
0.0011565046
  9
$USRTIMER
 70
     1
  9
$ANGBASE
 50
0.0
  9
$ANGDIR
 70
     0
  9
$PDMODE
 70
     0
  9
$PDSIZE
 40
0.0
  9
$PLINEWID
 40
0.0
  9
$COORDS
 70
     1
  9
$SPLFRAME
 70
     0
  9
$SPLINETYPE
 70
     6
  9
$SPLINESEGS
 70
     8
  9
$ATTDIA
 70
     0
  9
$ATTREQ
 70
     1
  9
$HANDLING
 70
     1
  9
$HANDSEED
  5
53
  9
$SURFTAB1
 70
     6
  9
$SURFTAB2
 70
     6
  9
$SURFTYPE
 70
     6
  9
$SURFU
 70
     6
  9
$SURFV
 70
     6
  9
$UCSNAME
  2

  9
$UCSORG
 10
0.0
 20
0.0
 30
0.0
  9
$UCSXDIR
 10
1.0
 20
0.0
 30
0.0
  9
$UCSYDIR
 10
0.0
 20
1.0
 30
0.0
  9
$PUCSNAME
  2

  9
$PUCSORG
 10
0.0
 20
0.0
 30
0.0
  9
$PUCSXDIR
 10
1.0
 20
0.0
 30
0.0
  9
$PUCSYDIR
 10
0.0
 20
1.0
 30
0.0
  9
$USERI1
 70
     0
  9
$USERI2
 70
     0
  9
$USERI3
 70
     0
  9
$USERI4
 70
     0
  9
$USERI5
 70
     0
  9
$USERR1
 40
0.0
  9
$USERR2
 40
0.0
  9
$USERR3
 40
0.0
  9
$USERR4
 40
0.0
  9
$USERR5
 40
0.0
  9
$WORLDVIEW
 70
     1
  9
$SHADEDGE
 70
     3
  9
$SHADEDIF
 70
    70
  9
$TILEMODE
 70
     1
  9
$MAXACTVP
 70
    48
  9
$PINSBASE
 10
0.0
 20
0.0
 30
0.0
  9
$PLIMCHECK
 70
     0
  9
$PEXTMIN
 10
0.0
 20
0.0
 30
0.0
  9
$PEXTMAX
 10
0.0
 20
0.0
 30
0.0
  9
$PLIMMIN
 10
0.0
 20
0.0
  9
$PLIMMAX
 10
12.0
 20
9.0
  9
$UNITMODE
 70
     0
  9
$VISRETAIN
 70
     1
  9
$PLINEGEN
 70
     0
  9
$PSLTSCALE
 70
     1
  9
$TREEDEPTH
 70
  3020
  9
$PICKSTYLE
 70
     1
  9
$CMLSTYLE
  2
STANDARD
  9
$CMLJUST
 70
     0
  9
$CMLSCALE
 40
1.0
  9
$PROXYGRAPHICS
 70
     1
  9
$MEASUREMENT
 70
     0
  0
ENDSEC
  0
SECTION
  2
CLASSES
  0
CLASS
  1
LWPOLYLINE
  2
AcDbPolyline
  3
AutoCAD 2000
 90
       20
280
     0
281
     1
  0
CLASS
  1
IMAGE
  2
AcDbRasterImage
  3
ISM
 90
       21
280
     0
281
     1
  0
CLASS
  1
OLE2FRAME
  2
AcDbOle2Frame
  3
AutoCAD 2000
 90
       21
280
     0
281
     1
  0
CLASS
  1
HATCH
  2
AcDbHatch
  3
AutoCAD 2000
 90
       20
280
     0
281
     1
  0
CLASS
  1
DICTIONARYVAR
  2
AcDbDictionaryVar
  3
ObjectDBX Classes
 90
       20
280
     0
281
     0
  0
CLASS
  1
RASTERVARIABLES
  2
AcDbRasterVariables
  3
ISM
 90
       21
280
     0
281
     0
  0
CLASS
  1
IMAGEDEF
  2
AcDbRasterImageDef
  3
ISM
 90
       21
280
     0
281
     0
  0
CLASS
  1
IMAGEDEF_REACTOR
  2
AcDbRasterImageDefReactor
  3
ISM
 90
       21
280
     0
281
     0
  0
CLASS
  1
IDBUFFER
  2
AcDbIdBuffer
  3
ObjectDBX Classes
 90
       20
280
     0
281
     0
  0
CLASS
  1
SPATIAL_FILTER
  2
AcDbSpatialFilter
  3
ObjectDBX Classes
 90
       20
280
     0
281
     0
  0
CLASS
  1
XRECORD
  2
AcDbXrecord
  3
AutoCAD 2000
 90
       21
280
     0
281
     0
  0
CLASS
  1
SORTENTSTABLE
  2
AcDbSortentsTable
  3
"AutoCAD"
 90
        0
280
     0
281
     0
  0
CLASS
  1
LAYER_INDEX
  2
AcDbLayerIndex
  3
"Acad"
 90
        0
280
     0
281
     0
  0
CLASS
  1
SPATIAL_INDEX
  2
AcDbSpatialIndex
  3
"Acad"
 90
        0
280
     0
281
     0
  0
CLASS
  1
OBJECT_PTR
  2
CAseDLPNTableRecord
  3
"ASE-LPNTableRecord"
 90
        1
280
     0
281
     0
  0
CLASS
  1
LAYOUT
  2
AcDbLayout
  3
"AutoCAD 2000"
 90
        1
280
     0
281
     0
  0
CLASS
  1
PLOTSETTINGS
  2
AcDbPlotsettings
  3
"AutoCAD 2000"
 90
        1
280
     0
281
     0
  0
CLASS
  1
ACDBDICTIONARYWDFLT
  2
AcDbDictionaryWithDefault
  3
"AutoCAD 2000"
 90
        1
280
     0
281
     0
  0
CLASS
  1
ACDBPLACEHOLDER
  2
AcDbPlaceholder
  3
"AutoCAD 2000"
 90
        1
280
     0
281
     0
  0
CLASS
  1
VBA_PROJECT
  2
AcDbVbaProject
  3
"AutoCAD 2000"
 90
        1
280
     0
281
     0
  0
CLASS
  1
WIPEOUT
  2
AcDbWipeout
  3
"AutoCAD 2000"
 90
        1
280
     0
281
     1
  0
CLASS
  1
WIPEOUTVARIABLES
  2
AcDbWipeoutVariables
  3
"AutoCAD 2000"
 90
        1
280
     0
281
     0
  0
CLASS
  1
RTEXT
  2
RText
  3
RText|AutoCAD Express Tool|expresstools@autodesk.com
 90
        1
280
     0
281
     1
  0
CLASS
  1
ARCALIGNEDTEXT
  2
AcDbArcAlignedText
  3
RText|AutoCAD Express Tool|expresstools@autodesk.com
 90
        1
280
     0
281
     1
  0
ENDSEC
  0
SECTION
  2
TABLES
  0
TABLE
  2
VPORT
  5
8
100
AcDbSymbolTable
 70
     1
  0
VPORT
  5
25
100
AcDbSymbolTableRecord
100
AcDbViewportTableRecord
  2
*ACTIVE
 70
     0
 10
0.0
 20
0.0
 11
1.0
 21
1.0
 12
558.8
 22
431.8
 13
0.0
 23
0.0
 14
0.5
 24
0.5
 15
0.5
 25
0.5
 16
0.0
 26
0.0
 36
1.0
 17
0.0
 27
0.0
 37
0.0
 40
863.6
 41
1.294118
 42
50.0
 43
0.0
 44
0.0
 50
0.0
 51
0.0
 71
     0
 72
   100
 73
     1
 74
     1
 75
     0
 76
     0
 77
     0
 78
     0
  0
ENDTAB
  0
TABLE
  2
LTYPE
  5
5
100
AcDbSymbolTable
 70
     3
  0
LTYPE
  5
12
100
AcDbSymbolTableRecord
100
AcDbLinetypeTableRecord
  2
BYBLOCK
 70
     0
  3

 72
    65
 73
     0
 40
0.0
  0
LTYPE
  5
13
100
AcDbSymbolTableRecord
100
AcDbLinetypeTableRecord
  2
BYLAYER
 70
     0
  3

 72
    65
 73
     0
 40
0.0
  0
LTYPE
  5
14
100
AcDbSymbolTableRecord
100
AcDbLinetypeTableRecord
  2
CONTINUOUS
 70
     0
  3
Solid line
 72
    65
 73
     0
 40
0.0
  0
ENDTAB
  0
TABLE
  2
LAYER
  5
2
100
AcDbSymbolTable
 70
     1
  0
LAYER
  5
E
100
AcDbSymbolTableRecord
100
AcDbLayerTableRecord
  2
0
 70
     0
 62
     7
  6
CONTINUOUS
  0
ENDTAB
  0
TABLE
  2
STYLE
  5
3
100
AcDbSymbolTable
 70
     1
  0
STYLE
  5
F
100
AcDbSymbolTableRecord
100
AcDbTextStyleTableRecord
  2
STANDARD
 70
     0
 40
0.0
 41
1.0
 50
0.0
 71
     0
 42
0.2
  3
txt.shx
  4

  0
ENDTAB
  0
TABLE
  2
VIEW
  5
6
100
AcDbSymbolTable
 70
     0
  0
ENDTAB
  0
TABLE
  2
UCS
  5
7
100
AcDbSymbolTable
 70
     0
  0
ENDTAB
  0
TABLE
  2
APPID
  5
9
100
AcDbSymbolTable
 70
     1
  0
APPID
  5
10
100
AcDbSymbolTableRecord
100
AcDbRegAppTableRecord
  2
ACAD
 70
     0
  0
ENDTAB
  0
TABLE
  2
DIMSTYLE
  5
A
100
AcDbSymbolTable
 70
     1
  0
DIMSTYLE
105
1D
100
AcDbSymbolTableRecord
100
AcDbDimStyleTableRecord
  2
STANDARD
 70
     0
  3

  4

  5

  6

  7

 40
1.0
 41
0.18
 42
0.0625
 43
0.38
 44
0.18
 45
0.0
 46
0.0
 47
0.0
 48
0.0
 71
     0
 72
     0
 73
     1
 74
     1
 75
     0
 76
     0
 77
     0
 78
     0
140
0.18
141
0.09
142
0.0
143
25.4
144
1.0
145
0.0
146
1.0
147
0.09
170
     0
171
     2
172
     0
173
     0
174
     0
175
     0
176
     0
177
     0
178
     0
270
     2
271
     4
272
     4
273
     2
274
     2
275
     0
280
     0
281
     0
282
     0
283
     1
284
     0
285
     0
286
     0
287
     3
288
     0
340
F
  0
ENDTAB
  0
TABLE
  2
BLOCK_RECORD
  5
1
100
AcDbSymbolTable
 70
     0
  0
BLOCK_RECORD
  5
18
100
AcDbSymbolTableRecord
100
AcDbBlockTableRecord
  2
*MODEL_SPACE
  0
BLOCK_RECORD
  5
15
100
AcDbSymbolTableRecord
100
AcDbBlockTableRecord
  2
*PAPER_SPACE
  0
ENDTAB
  0
ENDSEC
  0
SECTION
  2
BLOCKS
  0
BLOCK
  5
19
100
AcDbEntity
  8
0
100
AcDbBlockBegin
  2
*MODEL_SPACE
 70
     0
 10
0.0
 20
0.0
 30
0.0
  3
*MODEL_SPACE
  1

  0
ENDBLK
  5
1A
100
AcDbEntity
  8
0
100
AcDbBlockEnd
  0
BLOCK
  5
16
100
AcDbEntity
 67
     1
  8
0
100
AcDbBlockBegin
  2
*PAPER_SPACE
 70
     0
 10
0.0
 20
0.0
 30
0.0
  3
*PAPER_SPACE
  1

  0
ENDBLK
  5
17
100
AcDbEntity
 67
     1
  8
0
100
AcDbBlockEnd
  0
ENDSEC
  0
SECTION
  2
ENTITIES
  0
LWPOLYLINE
  5
32
102
{ACAD_REACTORS
330
31
102
}
100
AcDbEntity
  8
0
  6
CONTINUOUS
 62
    10
100
AcDbPolyline
 90
       26
 70
     1
 10
345.20337
 20
497.453374
 10
335.20337
 20
573.371471
 10
106.703364
 20
573.37147
 10
106.703364
 20
558.371469
 10
112.703366
 20
558.371469
 10
112.703384
 20
540.289586
 10
106.703364
 20
540.289586
 10
106.703364
 20
510.289564
 10
112.703364
 20
510.289564
 10
112.703364
 20
497.453374
 10
141.70336
 20
497.453374
 10
141.70336
 20
491.453374
 10
171.70336
 20
491.453374
 10
171.70336
 20
497.453374
 10
205.953367
 20
497.453374
 10
205.953367
 20
491.453374
 10
235.953367
 20
491.453374
 10
235.953367
 20
497.453374
 10
270.203375
 20
497.453374
 10
270.203375
 20
491.453374
 10
300.203374
 20
491.453374
 10
300.203374
 20
497.453374
 10
329.20337
 20
497.453374
 10
329.20337
 20
510.289565
 10
335.20337
 20
510.289565
 10
335.20337
 20
497.453374
  0
LWPOLYLINE
  5
33
102
{ACAD_REACTORS
330
31
102
}
100
AcDbEntity
  8
0
  6
CONTINUOUS
 62
    10
100
AcDbPolyline
 90
        4
 70
     1
 10
335.203371
 20
558.371469
 10
335.203371
 20
540.289565
 10
329.203373
 20
540.289565
 10
329.203373
 20
558.371469
  0
LWPOLYLINE
  5
35
102
{ACAD_REACTORS
330
34
102
}
100
AcDbEntity
  8
0
  6
CONTINUOUS
 62
    10
100
AcDbPolyline
 90
        4
 70
     1
 10
335.203351
 20
301.703379
 10
335.203351
 20
271.703369
 10
329.203354
 20
271.703369
 10
329.203354
 20
301.703379
  0
LWPOLYLINE
  5
36
102
{ACAD_REACTORS
330
34
102
}
100
AcDbEntity
  8
0
  6
CONTINUOUS
 62
    10
100
AcDbPolyline
 90
        4
 70
     1
 10
335.203363
 20
355.870041
 10
335.203363
 20
325.870041
 10
329.203363
 20
325.870041
 10
329.203363
 20
355.870041
  0
LWPOLYLINE
  5
37
102
{ACAD_REACTORS
330
34
102
}
100
AcDbEntity
  8
0
  6
CONTINUOUS
 62
    10
100
AcDbPolyline
 90
        4
 70
     1
 10
335.203351
 20
434.203383
 10
329.203354
 20
434.203383
 10
329.203354
 20
464.203368
 10
335.203351
 20
464.203368
  0
LWPOLYLINE
  5
38
102
{ACAD_REACTORS
330
34
102
}
100
AcDbEntity
  8
0
  6
CONTINUOUS
 62
    10
100
AcDbPolyline
 90
        4
 70
     1
 10
329.203354
 20
193.370045
 10
335.203351
 20
193.370045
 10
335.203351
 20
163.370041
 10
329.203354
 20
163.370041
  0
LWPOLYLINE
  5
39
102
{ACAD_REACTORS
330
34
102
}
100
AcDbEntity
  8
0
  6
CONTINUOUS
 62
    10
100
AcDbPolyline
 90
        4
 70
     1
 10
329.203354
 20
410.036713
 10
335.203351
 20
410.036713
 10
335.203351
 20
380.036703
 10
329.203354
 20
380.036703
  0
LWPOLYLINE
  5
3A
102
{ACAD_REACTORS
330
34
102
}
100
AcDbEntity
  8
0
  6
CONTINUOUS
 62
    10
100
AcDbPolyline
 90
        4
 70
     1
 10
335.203376
 20
109.203374
 10
329.203354
 20
109.203374
 10
329.203354
 20
139.203375
 10
335.203376
 20
139.203375
  0
LWPOLYLINE
  5
3B
102
{ACAD_REACTORS
330
34
102
}
100
AcDbEntity
  8
0
  6
CONTINUOUS
 62
    10
100
AcDbPolyline
 90
        4
 70
     1
 10
335.203363
 20
247.536707
 10
335.203363
 20
217.536708
 10
329.203363
 20
217.536708
 10
329.203363
 20
247.536708
  0
LWPOLYLINE
  5
3C
102
{ACAD_REACTORS
330
34
102
}
100
AcDbEntity
  8
0
  6
CONTINUOUS
 62
    10
100
AcDbPolyline
 90
       57
 70
     1
 10
345.203363
 20
247.536708
 10
345.20337
 20
483.953374
 10
300.20338
 20
483.953374
 10
300.20338
 20
477.953374
 10
270.203382
 20
477.953374
 10
270.203382
 20
483.953374
 10
235.953378
 20
483.953374
 10
235.953378
 20
477.953377
 10
205.953374
 20
477.953376
 10
205.953374
 20
483.953374
 10
171.703375
 20
483.953374
 10
171.703375
 20
477.953377
 10
141.703366
 20
477.953374
 10
141.703366
 20
483.953374
 10
106.70337
 20
483.953374
 10
106.70337
 20
464.203374
 10
112.70337
 20
464.203374
 10
112.70337
 20
434.203374
 10
106.70337
 20
434.203374
 10
106.70337
 20
410.036708
 10
112.70337
 20
410.036708
 10
112.703368
 20
380.036708
 10
106.70337
 20
380.036707
 10
106.70337
 20
355.870041
 10
112.70337
 20
355.870041
 10
112.70337
 20
325.870041
 10
106.70337
 20
325.870041
 10
106.70337
 20
301.703374
 10
112.70337
 20
301.703374
 10
112.70337
 20
271.703374
 10
106.70337
 20
271.703374
 10
106.70337
 20
247.536708
 10
112.70337
 20
247.536708
 10
112.70337
 20
217.536708
 10
106.70337
 20
217.536707
 10
106.70337
 20
193.370041
 10
112.70337
 20
193.370041
 10
112.70337
 20
163.370041
 10
106.70337
 20
163.370042
 10
106.70337
 20
139.203374
 10
112.70337
 20
139.203374
 10
112.70337
 20
109.203374
 10
106.70337
 20
109.203374
 10
106.70337
 20
89.453374
 10
141.703366
 20
89.453374
 10
141.703366
 20
95.453374
 10
171.703366
 20
95.453374
 10
171.703366
 20
89.453374
 10
205.953373
 20
89.453374
 10
205.953373
 20
95.453374
 10
235.953373
 20
95.453374
 10
235.953373
 20
89.453374
 10
270.20338
 20
89.453374
 10
270.20338
 20
95.453374
 10
300.20338
 20
95.453374
 10
300.20338
 20
89.453374
 10
345.20337
 20
89.453374
  0
LWPOLYLINE
  5
3D
100
AcDbEntity
  8
0
  6
CONTINUOUS
 62
    10
100
AcDbPolyline
 90
       44
 70
     1
 10
0.035278
 20
477.953375
 10
0.035278
 20
95.453375
 10
15.035278
 20
95.453375
 10
15.035278
 20
89.453375
 10
33.117184
 20
89.453375
 10
33.117184
 20
95.453375
 10
63.117182
 20
95.453375
 10
63.117182
 20
89.453375
 10
75.953373
 20
89.453375
 10
75.953373
 20
109.203375
 10
81.953373
 20
109.203375
 10
81.953373
 20
139.203376
 10
75.953373
 20
139.203376
 10
75.953373
 20
163.370041
 10
81.953373
 20
163.370041
 10
81.953373
 20
193.370043
 10
75.953373
 20
193.370043
 10
75.953373
 20
217.536708
 10
81.953373
 20
217.536708
 10
81.953373
 20
247.536707
 10
75.953373
 20
247.536707
 10
75.953373
 20
271.703375
 10
81.953373
 20
271.703375
 10
81.953373
 20
301.703374
 10
75.953373
 20
301.703374
 10
75.953373
 20
325.870041
 10
81.953373
 20
325.870041
 10
81.953373
 20
355.870041
 10
75.953373
 20
355.870041
 10
75.953373
 20
380.036708
 10
81.953373
 20
380.036708
 10
81.953373
 20
410.036708
 10
75.953373
 20
410.036708
 10
75.953373
 20
434.203375
 10
81.953373
 20
434.203375
 10
81.953373
 20
464.203375
 10
75.953373
 20
464.203375
 10
75.953373
 20
483.953374
 10
63.117183
 20
483.953374
 10
63.117183
 20
477.953375
 10
33.117182
 20
477.953375
 10
33.117182
 20
483.953374
 10
15.035278
 20
483.953374
 10
15.035278
 20
477.953375
  0
LWPOLYLINE
  5
3E
100
AcDbEntity
  8
0
  6
CONTINUOUS
 62
    10
100
AcDbPolyline
 90
       44
 70
     1
 10
448.621465
 20
477.953374
 10
433.621465
 20
477.953374
 10
433.621465
 20
483.953374
 10
415.53956
 20
483.953374
 10
415.53956
 20
477.953374
 10
385.53956
 20
477.953374
 10
385.53956
 20
483.953374
 10
372.70337
 20
483.953374
 10
372.70337
 20
464.203375
 10
366.70337
 20
464.203375
 10
366.70337
 20
434.203374
 10
372.70337
 20
434.203374
 10
372.70337
 20
410.036708
 10
366.70337
 20
410.036708
 10
366.70337
 20
380.036708
 10
372.70337
 20
380.036708
 10
372.70337
 20
355.870041
 10
366.70337
 20
355.870041
 10
366.70337
 20
325.870041
 10
372.70337
 20
325.870041
 10
372.70337
 20
301.703374
 10
366.70337
 20
301.703374
 10
366.70337
 20
271.703374
 10
372.70337
 20
271.703374
 10
372.70337
 20
247.536707
 10
366.70337
 20
247.536707
 10
366.70337
 20
217.536708
 10
372.70337
 20
217.536708
 10
372.70337
 20
193.370043
 10
366.70337
 20
193.370043
 10
366.70337
 20
163.370041
 10
372.70337
 20
163.370041
 10
372.70337
 20
139.203375
 10
366.70337
 20
139.203375
 10
366.70337
 20
109.203374
 10
372.70337
 20
109.203374
 10
372.70337
 20
89.453374
 10
385.53956
 20
89.453374
 10
385.53956
 20
95.453374
 10
415.539559
 20
95.453374
 10
415.539559
 20
89.453374
 10
433.621465
 20
89.453374
 10
433.621465
 20
95.453374
 10
448.621465
 20
95.453374
  0
LWPOLYLINE
  5
40
102
{ACAD_REACTORS
330
3F
102
}
100
AcDbEntity
  8
0
  6
CONTINUOUS
 62
    10
100
AcDbPolyline
 90
       26
 70
     1
 10
345.20337
 20
75.953374
 10
335.20337
 20
0.035278
 10
106.703364
 20
0.035279
 10
106.703364
 20
15.035279
 10
112.703366
 20
15.035279
 10
112.703384
 20
33.117163
 10
106.703364
 20
33.117163
 10
106.703364
 20
63.117185
 10
112.703364
 20
63.117185
 10
112.703364
 20
75.953374
 10
141.70336
 20
75.953374
 10
141.70336
 20
81.953374
 10
171.70336
 20
81.953374
 10
171.70336
 20
75.953374
 10
205.953367
 20
75.953374
 10
205.953367
 20
81.953374
 10
235.953367
 20
81.953374
 10
235.953367
 20
75.953374
 10
270.203375
 20
75.953374
 10
270.203375
 20
81.953374
 10
300.203374
 20
81.953374
 10
300.203374
 20
75.953374
 10
329.20337
 20
75.953374
 10
329.20337
 20
63.117184
 10
335.20337
 20
63.117184
 10
335.20337
 20
75.953374
  0
LWPOLYLINE
  5
41
102
{ACAD_REACTORS
330
3F
102
}
100
AcDbEntity
  8
0
  6
CONTINUOUS
 62
    10
100
AcDbPolyline
 90
        4
 70
     1
 10
335.203371
 20
15.035279
 10
335.203371
 20
33.117184
 10
329.203373
 20
33.117184
 10
329.203373
 20
15.035279
  0
LWPOLYLINE
  5
43
102
{ACAD_REACTORS
330
42
102
}
100
AcDbEntity
  8
0
  6
CONTINUOUS
 62
    10
100
AcDbPolyline
 90
       26
 70
     1
 10
561.250086
 20
497.453374
 10
571.250086
 20
573.371471
 10
799.750092
 20
573.37147
 10
799.750092
 20
558.371469
 10
793.75009
 20
558.371469
 10
793.750072
 20
540.289586
 10
799.750092
 20
540.289586
 10
799.750092
 20
510.289564
 10
793.750092
 20
510.289564
 10
793.750093
 20
497.453374
 10
764.750097
 20
497.453374
 10
764.750097
 20
491.453374
 10
734.750097
 20
491.453374
 10
734.750097
 20
497.453374
 10
700.50009
 20
497.453374
 10
700.50009
 20
491.453374
 10
670.500089
 20
491.453374
 10
670.500089
 20
497.453374
 10
636.250081
 20
497.453374
 10
636.250081
 20
491.453374
 10
606.250082
 20
491.453374
 10
606.250082
 20
497.453374
 10
577.250086
 20
497.453374
 10
577.250086
 20
510.289565
 10
571.250086
 20
510.289565
 10
571.250086
 20
497.453374
  0
LWPOLYLINE
  5
44
102
{ACAD_REACTORS
330
42
102
}
100
AcDbEntity
  8
0
  6
CONTINUOUS
 62
    10
100
AcDbPolyline
 90
        4
 70
     1
 10
571.250086
 20
558.371469
 10
571.250086
 20
540.289565
 10
577.250083
 20
540.289565
 10
577.250083
 20
558.371469
  0
LWPOLYLINE
  5
46
102
{ACAD_REACTORS
330
45
102
}
100
AcDbEntity
  8
0
  6
CONTINUOUS
 62
    10
100
AcDbPolyline
 90
        4
 70
     1
 10
571.250105
 20
301.703379
 10
571.250105
 20
271.703369
 10
577.250102
 20
271.703369
 10
577.250102
 20
301.703379
  0
LWPOLYLINE
  5
47
102
{ACAD_REACTORS
330
45
102
}
100
AcDbEntity
  8
0
  6
CONTINUOUS
 62
    10
100
AcDbPolyline
 90
        4
 70
     1
 10
571.250093
 20
355.870041
 10
571.250093
 20
325.870041
 10
577.250093
 20
325.870041
 10
577.250093
 20
355.870041
  0
LWPOLYLINE
  5
48
102
{ACAD_REACTORS
330
45
102
}
100
AcDbEntity
  8
0
  6
CONTINUOUS
 62
    10
100
AcDbPolyline
 90
        4
 70
     1
 10
571.250105
 20
434.203383
 10
577.250102
 20
434.203383
 10
577.250102
 20
464.203368
 10
571.250105
 20
464.203368
  0
LWPOLYLINE
  5
49
102
{ACAD_REACTORS
330
45
102
}
100
AcDbEntity
  8
0
  6
CONTINUOUS
 62
    10
100
AcDbPolyline
 90
        4
 70
     1
 10
577.250102
 20
193.370045
 10
571.250105
 20
193.370045
 10
571.250105
 20
163.370041
 10
577.250102
 20
163.370041
  0
LWPOLYLINE
  5
4A
102
{ACAD_REACTORS
330
45
102
}
100
AcDbEntity
  8
0
  6
CONTINUOUS
 62
    10
100
AcDbPolyline
 90
        4
 70
     1
 10
577.250102
 20
410.036713
 10
571.250105
 20
410.036713
 10
571.250105
 20
380.036703
 10
577.250102
 20
380.036703
  0
LWPOLYLINE
  5
4B
102
{ACAD_REACTORS
330
45
102
}
100
AcDbEntity
  8
0
  6
CONTINUOUS
 62
    10
100
AcDbPolyline
 90
        4
 70
     1
 10
571.250081
 20
109.203374
 10
577.250102
 20
109.203374
 10
577.250102
 20
139.203375
 10
571.250081
 20
139.203375
  0
LWPOLYLINE
  5
4C
102
{ACAD_REACTORS
330
45
102
}
100
AcDbEntity
  8
0
  6
CONTINUOUS
 62
    10
100
AcDbPolyline
 90
        4
 70
     1
 10
571.250093
 20
247.536707
 10
571.250093
 20
217.536708
 10
577.250093
 20
217.536708
 10
577.250093
 20
247.536708
  0
LWPOLYLINE
  5
4D
102
{ACAD_REACTORS
330
45
102
}
100
AcDbEntity
  8
0
  6
CONTINUOUS
 62
    10
100
AcDbPolyline
 90
       57
 70
     1
 10
561.250093
 20
247.536708
 10
561.250086
 20
483.953374
 10
606.250076
 20
483.953374
 10
606.250076
 20
477.953374
 10
636.250074
 20
477.953374
 10
636.250074
 20
483.953374
 10
670.500079
 20
483.953374
 10
670.500079
 20
477.953377
 10
700.500082
 20
477.953376
 10
700.500082
 20
483.953374
 10
734.750081
 20
483.953374
 10
734.750081
 20
477.953377
 10
764.750091
 20
477.953374
 10
764.750091
 20
483.953374
 10
799.750087
 20
483.953374
 10
799.750087
 20
464.203374
 10
793.750087
 20
464.203374
 10
793.750087
 20
434.203374
 10
799.750087
 20
434.203374
 10
799.750087
 20
410.036708
 10
793.750087
 20
410.036708
 10
793.750088
 20
380.036708
 10
799.750087
 20
380.036707
 10
799.750087
 20
355.870041
 10
793.750086
 20
355.870041
 10
793.750087
 20
325.870041
 10
799.750087
 20
325.870041
 10
799.750087
 20
301.703374
 10
793.750086
 20
301.703374
 10
793.750087
 20
271.703374
 10
799.750087
 20
271.703374
 10
799.750087
 20
247.536708
 10
793.750087
 20
247.536708
 10
793.750087
 20
217.536708
 10
799.750087
 20
217.536707
 10
799.750087
 20
193.370041
 10
793.750086
 20
193.370041
 10
793.750087
 20
163.370041
 10
799.750087
 20
163.370042
 10
799.750087
 20
139.203374
 10
793.750086
 20
139.203374
 10
793.750087
 20
109.203374
 10
799.750087
 20
109.203374
 10
799.750087
 20
89.453374
 10
764.750091
 20
89.453374
 10
764.750091
 20
95.453374
 10
734.750091
 20
95.453374
 10
734.750091
 20
89.453374
 10
700.500083
 20
89.453374
 10
700.500083
 20
95.453374
 10
670.500083
 20
95.453374
 10
670.500083
 20
89.453374
 10
636.250076
 20
89.453374
 10
636.250076
 20
95.453374
 10
606.250076
 20
95.453374
 10
606.250076
 20
89.453374
 10
561.250086
 20
89.453374
  0
LWPOLYLINE
  5
4E
100
AcDbEntity
  8
0
  6
CONTINUOUS
 62
    10
100
AcDbPolyline
 90
       44
 70
     1
 10
906.418178
 20
477.953375
 10
906.418178
 20
95.453375
 10
891.418178
 20
95.453375
 10
891.418178
 20
89.453375
 10
873.336272
 20
89.453375
 10
873.336272
 20
95.453375
 10
843.336274
 20
95.453375
 10
843.336274
 20
89.453375
 10
830.500083
 20
89.453375
 10
830.500083
 20
109.203375
 10
824.500083
 20
109.203375
 10
824.500083
 20
139.203376
 10
830.500083
 20
139.203376
 10
830.500083
 20
163.370041
 10
824.500083
 20
163.370041
 10
824.500083
 20
193.370043
 10
830.500083
 20
193.370043
 10
830.500083
 20
217.536708
 10
824.500083
 20
217.536708
 10
824.500083
 20
247.536707
 10
830.500083
 20
247.536707
 10
830.500083
 20
271.703375
 10
824.500083
 20
271.703375
 10
824.500083
 20
301.703374
 10
830.500083
 20
301.703374
 10
830.500083
 20
325.870041
 10
824.500083
 20
325.870041
 10
824.500083
 20
355.870041
 10
830.500083
 20
355.870041
 10
830.500083
 20
380.036708
 10
824.500083
 20
380.036708
 10
824.500083
 20
410.036708
 10
830.500083
 20
410.036708
 10
830.500083
 20
434.203375
 10
824.500083
 20
434.203375
 10
824.500083
 20
464.203375
 10
830.500083
 20
464.203375
 10
830.500083
 20
483.953374
 10
843.336273
 20
483.953374
 10
843.336273
 20
477.953375
 10
873.336274
 20
477.953375
 10
873.336274
 20
483.953374
 10
891.418178
 20
483.953374
 10
891.418178
 20
477.953375
  0
LWPOLYLINE
  5
4F
100
AcDbEntity
  8
0
  6
CONTINUOUS
 62
    10
100
AcDbPolyline
 90
       44
 70
     1
 10
457.831991
 20
477.953374
 10
472.831992
 20
477.953374
 10
472.831992
 20
483.953374
 10
490.913896
 20
483.953374
 10
490.913896
 20
477.953374
 10
520.913897
 20
477.953374
 10
520.913897
 20
483.953374
 10
533.750087
 20
483.953374
 10
533.750087
 20
464.203375
 10
539.750087
 20
464.203375
 10
539.750087
 20
434.203374
 10
533.750087
 20
434.203374
 10
533.750087
 20
410.036708
 10
539.750087
 20
410.036708
 10
539.750087
 20
380.036708
 10
533.750087
 20
380.036708
 10
533.750087
 20
355.870041
 10
539.750087
 20
355.870041
 10
539.750087
 20
325.870041
 10
533.750087
 20
325.870041
 10
533.750087
 20
301.703374
 10
539.750087
 20
301.703374
 10
539.750087
 20
271.703374
 10
533.750087
 20
271.703374
 10
533.750087
 20
247.536707
 10
539.750087
 20
247.536707
 10
539.750087
 20
217.536708
 10
533.750087
 20
217.536708
 10
533.750087
 20
193.370043
 10
539.750087
 20
193.370043
 10
539.750087
 20
163.370041
 10
533.750087
 20
163.370041
 10
533.750087
 20
139.203375
 10
539.750087
 20
139.203375
 10
539.750087
 20
109.203374
 10
533.750087
 20
109.203374
 10
533.750087
 20
89.453374
 10
520.913896
 20
89.453374
 10
520.913896
 20
95.453374
 10
490.913897
 20
95.453374
 10
490.913897
 20
89.453374
 10
472.831992
 20
89.453374
 10
472.831992
 20
95.453374
 10
457.831991
 20
95.453374
  0
LWPOLYLINE
  5
51
102
{ACAD_REACTORS
330
50
102
}
100
AcDbEntity
  8
0
  6
CONTINUOUS
 62
    10
100
AcDbPolyline
 90
       26
 70
     1
 10
561.250086
 20
75.953374
 10
571.250086
 20
0.035278
 10
799.750092
 20
0.035279
 10
799.750092
 20
15.035279
 10
793.75009
 20
15.035279
 10
793.750072
 20
33.117163
 10
799.750092
 20
33.117163
 10
799.750092
 20
63.117185
 10
793.750092
 20
63.117185
 10
793.750093
 20
75.953374
 10
764.750097
 20
75.953374
 10
764.750097
 20
81.953374
 10
734.750097
 20
81.953374
 10
734.750097
 20
75.953374
 10
700.50009
 20
75.953374
 10
700.50009
 20
81.953374
 10
670.500089
 20
81.953374
 10
670.500089
 20
75.953374
 10
636.250081
 20
75.953374
 10
636.250081
 20
81.953374
 10
606.250082
 20
81.953374
 10
606.250082
 20
75.953374
 10
577.250086
 20
75.953374
 10
577.250086
 20
63.117184
 10
571.250086
 20
63.117184
 10
571.250086
 20
75.953374
  0
LWPOLYLINE
  5
52
102
{ACAD_REACTORS
330
50
102
}
100
AcDbEntity
  8
0
  6
CONTINUOUS
 62
    10
100
AcDbPolyline
 90
        4
 70
     1
 10
571.250086
 20
15.035279
 10
571.250086
 20
33.117184
 10
577.250083
 20
33.117184
 10
577.250083
 20
15.035279
  0
ENDSEC
  0
SECTION
  2
OBJECTS
  0
DICTIONARY
  5
C
100
AcDbDictionary
  3
ACAD_GROUP
350
D
  3
ACAD_MLINESTYLE
350
1B
  0
DICTIONARY
  5
D
102
{ACAD_REACTORS
330
C
102
}
100
AcDbDictionary
  3
VISIOGROUP_0
350
31
  3
VISIOGROUP_1
350
34
  3
VISIOGROUP_2
350
3F
  3
VISIOGROUP_3
350
42
  3
VISIOGROUP_4
350
45
  3
VISIOGROUP_5
350
50
  0
DICTIONARY
  5
1B
102
{ACAD_REACTORS
330
C
102
}
100
AcDbDictionary
  3
STANDARD
350
1C
  0
MLINESTYLE
  5
1C
102
{ACAD_REACTORS
330
1B
102
}
100
AcDbMlineStyle
  2
STANDARD
 70
     0
  3

 62
   256
 51
90.0
 52
90.0
 71
     2
 49
0.5
 62
   256
  6
BYLAYER
 49
-0.5
 62
   256
  6
BYLAYER
  0
DICTIONARY
  5
29
102
{ACAD_REACTORS
330
C
102
}
100
AcDbDictionary
  3
MODEL
350
2A
  3
LAYOUT1
350
2B
  0
DICTIONARY
  5
2C
102
{ACAD_REACTORS
330
C
102
}
100
AcDbDictionary
  0
GROUP
  5
31
102
{ACAD_REACTORS
330
D
102
}
100
AcDbGroup
300
Group created by Visio.
 70
     0
 71
     1
340
32
340
33
  0
GROUP
  5
34
102
{ACAD_REACTORS
330
D
102
}
100
AcDbGroup
300
Group created by Visio.
 70
     0
 71
     1
340
35
340
36
340
37
340
38
340
39
340
3A
340
3B
340
3C
  0
GROUP
  5
3F
102
{ACAD_REACTORS
330
D
102
}
100
AcDbGroup
300
Group created by Visio.
 70
     0
 71
     1
340
40
340
41
  0
GROUP
  5
42
102
{ACAD_REACTORS
330
D
102
}
100
AcDbGroup
300
Group created by Visio.
 70
     0
 71
     1
340
43
340
44
  0
GROUP
  5
45
102
{ACAD_REACTORS
330
D
102
}
100
AcDbGroup
300
Group created by Visio.
 70
     0
 71
     1
340
46
340
47
340
48
340
49
340
4A
340
4B
340
4C
340
4D
  0
GROUP
  5
50
102
{ACAD_REACTORS
330
D
102
}
100
AcDbGroup
300
Group created by Visio.
 70
     0
 71
     1
340
51
340
52
  0
ENDSEC
  0
EOF
