ISO-10303-21;
HEADER;
/* Generated by software containing ST-Developer
 * from STEP Tools, Inc. (www.steptools.com) 
 */

FILE_DESCRIPTION(
/* description */ ('',
'CAx-IF Rec.Pracs.---Representation and Presentation of Product Manufa
cturing Information (PMI)---4.0---2014-10-13'),
/* implementation_level */ '2;1');

FILE_NAME(
/* name */ 'Short braille conversion rod v4.step',
/* time_stamp */ '2025-03-16T17:29:25Z',
/* author */ (''),
/* organization */ (''),
/* preprocessor_version */ 'ST-DEVELOPER v20',
/* originating_system */ 'Autodesk Translation Framework v13.20.0.188',

/* authorisation */ '');

FILE_SCHEMA (('AP242_MANAGED_MODEL_BASED_3D_ENGINEERING_MIM_LF { 1 0 10303 442 1 1 4 }'));
ENDSEC;

DATA;
#10=MECHANICAL_DESIGN_GEOMETRIC_PRESENTATION_REPRESENTATION('',(#13),#454);
#11=SHAPE_REPRESENTATION_RELATIONSHIP('SRR','None',#461,#12);
#12=ADVANCED_BREP_SHAPE_REPRESENTATION('',(#14),#453);
#13=STYLED_ITEM('',(#470),#14);
#14=MANIFOLD_SOLID_BREP('Body1',#210);
#15=LINE('',#417,#26);
#16=LINE('',#420,#27);
#17=LINE('',#424,#28);
#18=LINE('',#428,#29);
#19=LINE('',#432,#30);
#20=LINE('',#437,#31);
#21=LINE('',#440,#32);
#22=LINE('',#441,#33);
#23=LINE('',#444,#34);
#24=LINE('',#448,#35);
#25=LINE('',#449,#36);
#26=VECTOR('',#278,2.15);
#27=VECTOR('',#281,2.8);
#28=VECTOR('',#284,10.);
#29=VECTOR('',#287,10.);
#30=VECTOR('',#292,10.);
#31=VECTOR('',#297,10.);
#32=VECTOR('',#300,10.);
#33=VECTOR('',#301,10.);
#34=VECTOR('',#304,10.);
#35=VECTOR('',#311,10.);
#36=VECTOR('',#312,0.75);
#37=CYLINDRICAL_SURFACE('',#235,2.15);
#38=CYLINDRICAL_SURFACE('',#237,2.8);
#39=CYLINDRICAL_SURFACE('',#248,0.75);
#40=B_SPLINE_SURFACE_WITH_KNOTS('',3,3,((#321,#322,#323,#324),(#325,#326,
#327,#328),(#329,#330,#331,#332),(#333,#334,#335,#336),(#337,#338,#339,
#340)),.UNSPECIFIED.,.F.,.F.,.F.,(4,1,4),(4,4),(0.,0.571428571428571,1.),
(0.,1.),.UNSPECIFIED.);
#41=B_SPLINE_SURFACE_WITH_KNOTS('',3,3,((#347,#348,#349,#350),(#351,#352,
#353,#354),(#355,#356,#357,#358),(#359,#360,#361,#362),(#363,#364,#365,
#366)),.UNSPECIFIED.,.F.,.F.,.F.,(4,1,4),(4,4),(0.,0.571428571428571,1.),
(0.,1.),.UNSPECIFIED.);
#42=B_SPLINE_SURFACE_WITH_KNOTS('',3,3,((#370,#371,#372,#373),(#374,#375,
#376,#377),(#378,#379,#380,#381),(#382,#383,#384,#385),(#386,#387,#388,
#389)),.UNSPECIFIED.,.F.,.F.,.F.,(4,1,4),(4,4),(0.,0.571428571428571,1.),
(0.,1.),.UNSPECIFIED.);
#43=B_SPLINE_SURFACE_WITH_KNOTS('',3,3,((#393,#394,#395,#396),(#397,#398,
#399,#400),(#401,#402,#403,#404),(#405,#406,#407,#408),(#409,#410,#411,
#412)),.UNSPECIFIED.,.F.,.F.,.F.,(4,1,4),(4,4),(0.,0.571428571428571,1.),
(0.,1.),.UNSPECIFIED.);
#44=FACE_BOUND('',#59,.T.);
#45=FACE_OUTER_BOUND('',#58,.T.);
#46=FACE_OUTER_BOUND('',#60,.T.);
#47=FACE_OUTER_BOUND('',#61,.T.);
#48=FACE_OUTER_BOUND('',#62,.T.);
#49=FACE_OUTER_BOUND('',#63,.T.);
#50=FACE_OUTER_BOUND('',#64,.T.);
#51=FACE_OUTER_BOUND('',#65,.T.);
#52=FACE_OUTER_BOUND('',#66,.T.);
#53=FACE_OUTER_BOUND('',#67,.T.);
#54=FACE_OUTER_BOUND('',#68,.T.);
#55=FACE_OUTER_BOUND('',#69,.T.);
#56=FACE_OUTER_BOUND('',#70,.T.);
#57=FACE_OUTER_BOUND('',#71,.T.);
#58=EDGE_LOOP('',(#135));
#59=EDGE_LOOP('',(#136));
#60=EDGE_LOOP('',(#137,#138,#139));
#61=EDGE_LOOP('',(#140,#141,#142));
#62=EDGE_LOOP('',(#143,#144,#145));
#63=EDGE_LOOP('',(#146,#147,#148));
#64=EDGE_LOOP('',(#149,#150,#151,#152));
#65=EDGE_LOOP('',(#153,#154,#155,#156,#157,#158,#159,#160));
#66=EDGE_LOOP('',(#161,#162,#163,#164,#165));
#67=EDGE_LOOP('',(#166,#167,#168,#169));
#68=EDGE_LOOP('',(#170,#171,#172,#173,#174));
#69=EDGE_LOOP('',(#175));
#70=EDGE_LOOP('',(#176,#177,#178,#179,#180,#181,#182,#183,#184,#185,#186));
#71=EDGE_LOOP('',(#187,#188,#189,#190));
#72=CIRCLE('',#225,2.8);
#73=CIRCLE('',#226,2.15);
#74=CIRCLE('',#227,0.75);
#75=CIRCLE('',#228,0.790142392230665);
#76=CIRCLE('',#229,0.790142392230668);
#77=CIRCLE('',#230,0.75);
#78=CIRCLE('',#231,0.790142392230669);
#79=CIRCLE('',#232,0.75);
#80=CIRCLE('',#233,0.790142392230664);
#81=CIRCLE('',#234,0.75);
#82=CIRCLE('',#236,2.15);
#83=CIRCLE('',#238,2.8);
#84=CIRCLE('',#239,2.8);
#85=CIRCLE('',#240,2.8);
#86=CIRCLE('',#242,0.75);
#87=CIRCLE('',#243,0.75);
#88=CIRCLE('',#246,0.75);
#89=VERTEX_POINT('',#317);
#90=VERTEX_POINT('',#319);
#91=VERTEX_POINT('',#341);
#92=VERTEX_POINT('',#342);
#93=VERTEX_POINT('',#344);
#94=VERTEX_POINT('',#367);
#95=VERTEX_POINT('',#390);
#96=VERTEX_POINT('',#415);
#97=VERTEX_POINT('',#419);
#98=VERTEX_POINT('',#421);
#99=VERTEX_POINT('',#423);
#100=VERTEX_POINT('',#425);
#101=VERTEX_POINT('',#427);
#102=VERTEX_POINT('',#431);
#103=VERTEX_POINT('',#433);
#104=VERTEX_POINT('',#435);
#105=VERTEX_POINT('',#439);
#106=VERTEX_POINT('',#443);
#107=EDGE_CURVE('',#89,#89,#72,.T.);
#108=EDGE_CURVE('',#90,#90,#73,.T.);
#109=EDGE_CURVE('',#91,#92,#74,.T.);
#110=EDGE_CURVE('',#92,#93,#75,.T.);
#111=EDGE_CURVE('',#91,#93,#76,.T.);
#112=EDGE_CURVE('',#92,#94,#77,.T.);
#113=EDGE_CURVE('',#94,#93,#78,.T.);
#114=EDGE_CURVE('',#94,#95,#79,.T.);
#115=EDGE_CURVE('',#95,#93,#80,.T.);
#116=EDGE_CURVE('',#95,#91,#81,.T.);
#117=EDGE_CURVE('',#96,#96,#82,.T.);
#118=EDGE_CURVE('',#96,#90,#15,.T.);
#119=EDGE_CURVE('',#89,#97,#16,.T.);
#120=EDGE_CURVE('',#97,#98,#83,.T.);
#121=EDGE_CURVE('',#98,#99,#17,.T.);
#122=EDGE_CURVE('',#100,#99,#84,.T.);
#123=EDGE_CURVE('',#101,#100,#18,.T.);
#124=EDGE_CURVE('',#101,#97,#85,.T.);
#125=EDGE_CURVE('',#99,#102,#19,.T.);
#126=EDGE_CURVE('',#103,#102,#86,.T.);
#127=EDGE_CURVE('',#104,#103,#87,.T.);
#128=EDGE_CURVE('',#100,#104,#20,.T.);
#129=EDGE_CURVE('',#105,#101,#21,.T.);
#130=EDGE_CURVE('',#104,#105,#22,.T.);
#131=EDGE_CURVE('',#106,#98,#23,.T.);
#132=EDGE_CURVE('',#105,#106,#88,.T.);
#133=EDGE_CURVE('',#102,#106,#24,.T.);
#134=EDGE_CURVE('',#103,#92,#25,.T.);
#135=ORIENTED_EDGE('',*,*,#107,.T.);
#136=ORIENTED_EDGE('',*,*,#108,.T.);
#137=ORIENTED_EDGE('',*,*,#109,.T.);
#138=ORIENTED_EDGE('',*,*,#110,.T.);
#139=ORIENTED_EDGE('',*,*,#111,.F.);
#140=ORIENTED_EDGE('',*,*,#112,.T.);
#141=ORIENTED_EDGE('',*,*,#113,.T.);
#142=ORIENTED_EDGE('',*,*,#110,.F.);
#143=ORIENTED_EDGE('',*,*,#114,.T.);
#144=ORIENTED_EDGE('',*,*,#115,.T.);
#145=ORIENTED_EDGE('',*,*,#113,.F.);
#146=ORIENTED_EDGE('',*,*,#116,.T.);
#147=ORIENTED_EDGE('',*,*,#111,.T.);
#148=ORIENTED_EDGE('',*,*,#115,.F.);
#149=ORIENTED_EDGE('',*,*,#117,.F.);
#150=ORIENTED_EDGE('',*,*,#118,.T.);
#151=ORIENTED_EDGE('',*,*,#108,.F.);
#152=ORIENTED_EDGE('',*,*,#118,.F.);
#153=ORIENTED_EDGE('',*,*,#107,.F.);
#154=ORIENTED_EDGE('',*,*,#119,.T.);
#155=ORIENTED_EDGE('',*,*,#120,.T.);
#156=ORIENTED_EDGE('',*,*,#121,.T.);
#157=ORIENTED_EDGE('',*,*,#122,.F.);
#158=ORIENTED_EDGE('',*,*,#123,.F.);
#159=ORIENTED_EDGE('',*,*,#124,.T.);
#160=ORIENTED_EDGE('',*,*,#119,.F.);
#161=ORIENTED_EDGE('',*,*,#125,.T.);
#162=ORIENTED_EDGE('',*,*,#126,.F.);
#163=ORIENTED_EDGE('',*,*,#127,.F.);
#164=ORIENTED_EDGE('',*,*,#128,.F.);
#165=ORIENTED_EDGE('',*,*,#122,.T.);
#166=ORIENTED_EDGE('',*,*,#129,.T.);
#167=ORIENTED_EDGE('',*,*,#123,.T.);
#168=ORIENTED_EDGE('',*,*,#128,.T.);
#169=ORIENTED_EDGE('',*,*,#130,.T.);
#170=ORIENTED_EDGE('',*,*,#131,.T.);
#171=ORIENTED_EDGE('',*,*,#120,.F.);
#172=ORIENTED_EDGE('',*,*,#124,.F.);
#173=ORIENTED_EDGE('',*,*,#129,.F.);
#174=ORIENTED_EDGE('',*,*,#132,.T.);
#175=ORIENTED_EDGE('',*,*,#117,.T.);
#176=ORIENTED_EDGE('',*,*,#133,.T.);
#177=ORIENTED_EDGE('',*,*,#132,.F.);
#178=ORIENTED_EDGE('',*,*,#130,.F.);
#179=ORIENTED_EDGE('',*,*,#127,.T.);
#180=ORIENTED_EDGE('',*,*,#134,.T.);
#181=ORIENTED_EDGE('',*,*,#109,.F.);
#182=ORIENTED_EDGE('',*,*,#116,.F.);
#183=ORIENTED_EDGE('',*,*,#114,.F.);
#184=ORIENTED_EDGE('',*,*,#112,.F.);
#185=ORIENTED_EDGE('',*,*,#134,.F.);
#186=ORIENTED_EDGE('',*,*,#126,.T.);
#187=ORIENTED_EDGE('',*,*,#131,.F.);
#188=ORIENTED_EDGE('',*,*,#133,.F.);
#189=ORIENTED_EDGE('',*,*,#125,.F.);
#190=ORIENTED_EDGE('',*,*,#121,.F.);
#191=PLANE('',#224);
#192=PLANE('',#241);
#193=PLANE('',#244);
#194=PLANE('',#245);
#195=PLANE('',#247);
#196=PLANE('',#249);
#197=ADVANCED_FACE('',(#45,#44),#191,.F.);
#198=ADVANCED_FACE('',(#46),#40,.T.);
#199=ADVANCED_FACE('',(#47),#41,.T.);
#200=ADVANCED_FACE('',(#48),#42,.T.);
#201=ADVANCED_FACE('',(#49),#43,.T.);
#202=ADVANCED_FACE('',(#50),#37,.F.);
#203=ADVANCED_FACE('',(#51),#38,.T.);
#204=ADVANCED_FACE('',(#52),#192,.T.);
#205=ADVANCED_FACE('',(#53),#193,.T.);
#206=ADVANCED_FACE('',(#54),#194,.F.);
#207=ADVANCED_FACE('',(#55),#195,.F.);
#208=ADVANCED_FACE('',(#56),#39,.T.);
#209=ADVANCED_FACE('',(#57),#196,.T.);
#210=CLOSED_SHELL('',(#197,#198,#199,#200,#201,#202,#203,#204,#205,#206,
#207,#208,#209));
#211=DERIVED_UNIT_ELEMENT(#213,1.);
#212=DERIVED_UNIT_ELEMENT(#456,-3.);
#213=(
MASS_UNIT()
NAMED_UNIT(*)
SI_UNIT(.KILO.,.GRAM.)
);
#214=DERIVED_UNIT((#211,#212));
#215=MEASURE_REPRESENTATION_ITEM('density measure',
POSITIVE_RATIO_MEASURE(7850.),#214);
#216=PROPERTY_DEFINITION_REPRESENTATION(#221,#218);
#217=PROPERTY_DEFINITION_REPRESENTATION(#222,#219);
#218=REPRESENTATION('material name',(#220),#453);
#219=REPRESENTATION('density',(#215),#453);
#220=DESCRIPTIVE_REPRESENTATION_ITEM('Steel','Steel');
#221=PROPERTY_DEFINITION('material property','material name',#463);
#222=PROPERTY_DEFINITION('material property','density of part',#463);
#223=AXIS2_PLACEMENT_3D('',#315,#250,#251);
#224=AXIS2_PLACEMENT_3D('',#316,#252,#253);
#225=AXIS2_PLACEMENT_3D('',#318,#254,#255);
#226=AXIS2_PLACEMENT_3D('',#320,#256,#257);
#227=AXIS2_PLACEMENT_3D('',#343,#258,#259);
#228=AXIS2_PLACEMENT_3D('',#345,#260,#261);
#229=AXIS2_PLACEMENT_3D('',#346,#262,#263);
#230=AXIS2_PLACEMENT_3D('',#368,#264,#265);
#231=AXIS2_PLACEMENT_3D('',#369,#266,#267);
#232=AXIS2_PLACEMENT_3D('',#391,#268,#269);
#233=AXIS2_PLACEMENT_3D('',#392,#270,#271);
#234=AXIS2_PLACEMENT_3D('',#413,#272,#273);
#235=AXIS2_PLACEMENT_3D('',#414,#274,#275);
#236=AXIS2_PLACEMENT_3D('',#416,#276,#277);
#237=AXIS2_PLACEMENT_3D('',#418,#279,#280);
#238=AXIS2_PLACEMENT_3D('',#422,#282,#283);
#239=AXIS2_PLACEMENT_3D('',#426,#285,#286);
#240=AXIS2_PLACEMENT_3D('',#429,#288,#289);
#241=AXIS2_PLACEMENT_3D('',#430,#290,#291);
#242=AXIS2_PLACEMENT_3D('',#434,#293,#294);
#243=AXIS2_PLACEMENT_3D('',#436,#295,#296);
#244=AXIS2_PLACEMENT_3D('',#438,#298,#299);
#245=AXIS2_PLACEMENT_3D('',#442,#302,#303);
#246=AXIS2_PLACEMENT_3D('',#445,#305,#306);
#247=AXIS2_PLACEMENT_3D('',#446,#307,#308);
#248=AXIS2_PLACEMENT_3D('',#447,#309,#310);
#249=AXIS2_PLACEMENT_3D('',#450,#313,#314);
#250=DIRECTION('axis',(0.,0.,1.));
#251=DIRECTION('refdir',(1.,0.,0.));
#252=DIRECTION('center_axis',(0.,0.,1.));
#253=DIRECTION('ref_axis',(1.,0.,0.));
#254=DIRECTION('center_axis',(0.,0.,-1.));
#255=DIRECTION('ref_axis',(1.,0.,0.));
#256=DIRECTION('center_axis',(0.,0.,1.));
#257=DIRECTION('ref_axis',(1.,0.,0.));
#258=DIRECTION('center_axis',(0.,0.,1.));
#259=DIRECTION('ref_axis',(-1.,0.,0.));
#260=DIRECTION('center_axis',(0.,-1.,0.));
#261=DIRECTION('ref_axis',(-0.0189839200471877,0.,0.999819789151846));
#262=DIRECTION('center_axis',(-1.,0.,0.));
#263=DIRECTION('ref_axis',(0.,0.0189839200471848,0.999819789151846));
#264=DIRECTION('center_axis',(0.,0.,1.));
#265=DIRECTION('ref_axis',(-1.,0.,0.));
#266=DIRECTION('center_axis',(1.,0.,0.));
#267=DIRECTION('ref_axis',(0.,0.93021208231216,0.367022454245616));
#268=DIRECTION('center_axis',(0.,0.,1.));
#269=DIRECTION('ref_axis',(-1.,0.,0.));
#270=DIRECTION('center_axis',(0.,1.,0.));
#271=DIRECTION('ref_axis',(-0.930212082312161,0.,0.367022454245612));
#272=DIRECTION('center_axis',(0.,0.,1.));
#273=DIRECTION('ref_axis',(-1.,0.,0.));
#274=DIRECTION('center_axis',(0.,0.,1.));
#275=DIRECTION('ref_axis',(1.,0.,0.));
#276=DIRECTION('center_axis',(0.,0.,-1.));
#277=DIRECTION('ref_axis',(1.,0.,0.));
#278=DIRECTION('',(0.,0.,-1.));
#279=DIRECTION('center_axis',(0.,0.,1.));
#280=DIRECTION('ref_axis',(1.,0.,0.));
#281=DIRECTION('',(0.,0.,1.));
#282=DIRECTION('center_axis',(0.,0.,-1.));
#283=DIRECTION('ref_axis',(1.,0.,0.));
#284=DIRECTION('',(0.,0.,1.));
#285=DIRECTION('center_axis',(0.,0.,1.));
#286=DIRECTION('ref_axis',(1.,0.,0.));
#287=DIRECTION('',(0.,0.,1.));
#288=DIRECTION('center_axis',(0.,0.,-1.));
#289=DIRECTION('ref_axis',(1.,0.,0.));
#290=DIRECTION('center_axis',(0.,0.,1.));
#291=DIRECTION('ref_axis',(-1.,0.,0.));
#292=DIRECTION('',(-1.,1.57107035298195E-16,0.));
#293=DIRECTION('center_axis',(0.,0.,1.));
#294=DIRECTION('ref_axis',(-1.,0.,0.));
#295=DIRECTION('center_axis',(0.,0.,1.));
#296=DIRECTION('ref_axis',(-1.,0.,0.));
#297=DIRECTION('',(-1.,0.,0.));
#298=DIRECTION('center_axis',(0.,-1.,0.));
#299=DIRECTION('ref_axis',(-1.,0.,0.));
#300=DIRECTION('',(1.,0.,0.));
#301=DIRECTION('',(0.,0.,-1.));
#302=DIRECTION('center_axis',(0.,0.,1.));
#303=DIRECTION('ref_axis',(-1.,0.,0.));
#304=DIRECTION('',(1.,0.,0.));
#305=DIRECTION('center_axis',(0.,0.,-1.));
#306=DIRECTION('ref_axis',(-1.,0.,0.));
#307=DIRECTION('center_axis',(0.,0.,1.));
#308=DIRECTION('ref_axis',(-1.,0.,0.));
#309=DIRECTION('center_axis',(0.,0.,-1.));
#310=DIRECTION('ref_axis',(-1.,0.,0.));
#311=DIRECTION('',(0.,0.,-1.));
#312=DIRECTION('',(0.,0.,1.));
#313=DIRECTION('center_axis',(0.,1.,0.));
#314=DIRECTION('ref_axis',(1.,0.,0.));
#315=CARTESIAN_POINT('',(0.,0.,0.));
#316=CARTESIAN_POINT('Origin',(0.,0.,-2.45));
#317=CARTESIAN_POINT('',(-2.8,-3.42901103761259E-16,-2.45));
#318=CARTESIAN_POINT('Origin',(0.,0.,-2.45));
#319=CARTESIAN_POINT('',(-2.15,2.77555756156289E-16,-2.45));
#320=CARTESIAN_POINT('Origin',(0.,0.,-2.45));
#321=CARTESIAN_POINT('Ctrl Pts',(-5.2,-0.75,5.15));
#322=CARTESIAN_POINT('Ctrl Pts',(-5.2,-0.632649051617694,5.44742395538274));
#323=CARTESIAN_POINT('Ctrl Pts',(-5.2,-0.319680169731108,5.65606987664046));
#324=CARTESIAN_POINT('Ctrl Pts',(-5.2,0.,5.65));
#325=CARTESIAN_POINT('Ctrl Pts',(-4.97560052474359,-0.75,5.15));
#326=CARTESIAN_POINT('Ctrl Pts',(-5.02513386380664,-0.632649051617694,5.44742395538274));
#327=CARTESIAN_POINT('Ctrl Pts',(-5.11192776163241,-0.319680169731109,5.65606987664046));
#328=CARTESIAN_POINT('Ctrl Pts',(-5.2,0.,5.65));
#329=CARTESIAN_POINT('Ctrl Pts',(-4.5868783023997,-0.561837928736622,5.15));
#330=CARTESIAN_POINT('Ctrl Pts',(-4.69108599148688,-0.462011326081152,5.44742395538274));
#331=CARTESIAN_POINT('Ctrl Pts',(-4.95127143852082,-0.225078025395205,5.65606987664046));
#332=CARTESIAN_POINT('Ctrl Pts',(-5.2,0.,5.65));
#333=CARTESIAN_POINT('Ctrl Pts',(-4.45,-0.16829960644231,5.15));
#334=CARTESIAN_POINT('Ctrl Pts',(-4.56735094838231,-0.13114960214502,5.44742395538274));
#335=CARTESIAN_POINT('Ctrl Pts',(-4.88031983026889,-0.0660541787756904,
5.65606987664046));
#336=CARTESIAN_POINT('Ctrl Pts',(-5.2,0.,5.65));
#337=CARTESIAN_POINT('Ctrl Pts',(-4.45,-9.18485099360514E-17,5.15));
#338=CARTESIAN_POINT('Ctrl Pts',(-4.56735094838231,-9.18485099360514E-17,
5.44742395538274));
#339=CARTESIAN_POINT('Ctrl Pts',(-4.88031983026889,0.,5.65606987664046));
#340=CARTESIAN_POINT('Ctrl Pts',(-5.2,0.,5.65));
#341=CARTESIAN_POINT('',(-5.2,-0.75,5.15));
#342=CARTESIAN_POINT('',(-4.45,9.18485099360514E-17,5.15));
#343=CARTESIAN_POINT('Origin',(-5.2,0.,5.15));
#344=CARTESIAN_POINT('',(-5.2,0.,5.65));
#345=CARTESIAN_POINT('Origin',(-5.185,0.,4.86));
#346=CARTESIAN_POINT('Origin',(-5.2,-0.0149999999999983,4.86));
#347=CARTESIAN_POINT('Ctrl Pts',(-4.45,9.18485099360514E-17,5.15));
#348=CARTESIAN_POINT('Ctrl Pts',(-4.56735094838231,9.18485099360514E-17,
5.44742395538274));
#349=CARTESIAN_POINT('Ctrl Pts',(-4.88031983026889,0.,5.65606987664046));
#350=CARTESIAN_POINT('Ctrl Pts',(-5.2,0.,5.65));
#351=CARTESIAN_POINT('Ctrl Pts',(-4.45,0.224399475256414,5.15));
#352=CARTESIAN_POINT('Ctrl Pts',(-4.56735094838231,0.17486613619336,5.44742395538274));
#353=CARTESIAN_POINT('Ctrl Pts',(-4.88031983026889,0.088072238367587,5.65606987664046));
#354=CARTESIAN_POINT('Ctrl Pts',(-5.2,0.,5.65));
#355=CARTESIAN_POINT('Ctrl Pts',(-4.63816207126338,0.613121697600296,5.15));
#356=CARTESIAN_POINT('Ctrl Pts',(-4.73798867391885,0.508914008513117,5.44742395538274));
#357=CARTESIAN_POINT('Ctrl Pts',(-4.97492197460479,0.248728561479181,5.65606987664046));
#358=CARTESIAN_POINT('Ctrl Pts',(-5.2,0.,5.65));
#359=CARTESIAN_POINT('Ctrl Pts',(-5.03170039355769,0.75,5.15));
#360=CARTESIAN_POINT('Ctrl Pts',(-5.06885039785498,0.632649051617694,5.44742395538274));
#361=CARTESIAN_POINT('Ctrl Pts',(-5.13394582122431,0.319680169731108,5.65606987664046));
#362=CARTESIAN_POINT('Ctrl Pts',(-5.2,0.,5.65));
#363=CARTESIAN_POINT('Ctrl Pts',(-5.2,0.75,5.15));
#364=CARTESIAN_POINT('Ctrl Pts',(-5.2,0.632649051617694,5.44742395538274));
#365=CARTESIAN_POINT('Ctrl Pts',(-5.2,0.319680169731108,5.65606987664046));
#366=CARTESIAN_POINT('Ctrl Pts',(-5.2,0.,5.65));
#367=CARTESIAN_POINT('',(-5.2,0.75,5.15));
#368=CARTESIAN_POINT('Origin',(-5.2,0.,5.15));
#369=CARTESIAN_POINT('Origin',(-5.2,0.0149999999999984,4.86));
#370=CARTESIAN_POINT('Ctrl Pts',(-5.2,0.75,5.15));
#371=CARTESIAN_POINT('Ctrl Pts',(-5.2,0.632649051617694,5.44742395538274));
#372=CARTESIAN_POINT('Ctrl Pts',(-5.2,0.319680169731108,5.65606987664046));
#373=CARTESIAN_POINT('Ctrl Pts',(-5.2,0.,5.65));
#374=CARTESIAN_POINT('Ctrl Pts',(-5.42439947525641,0.75,5.15));
#375=CARTESIAN_POINT('Ctrl Pts',(-5.37486613619336,0.632649051617694,5.44742395538274));
#376=CARTESIAN_POINT('Ctrl Pts',(-5.28807223836759,0.319680169731108,5.65606987664046));
#377=CARTESIAN_POINT('Ctrl Pts',(-5.2,0.,5.65));
#378=CARTESIAN_POINT('Ctrl Pts',(-5.81311698688219,0.561834002676797,5.15));
#379=CARTESIAN_POINT('Ctrl Pts',(-5.70890929779501,0.462007400021326,5.44742395538274));
#380=CARTESIAN_POINT('Ctrl Pts',(-5.44872856147918,0.225078025395205,5.65606987664047));
#381=CARTESIAN_POINT('Ctrl Pts',(-5.2,0.,5.65));
#382=CARTESIAN_POINT('Ctrl Pts',(-5.95,0.16829960644231,5.15));
#383=CARTESIAN_POINT('Ctrl Pts',(-5.83264905161769,0.13114960214502,5.44742395538274));
#384=CARTESIAN_POINT('Ctrl Pts',(-5.51968016973111,0.0660541787756901,5.65606987664046));
#385=CARTESIAN_POINT('Ctrl Pts',(-5.2,0.,5.65));
#386=CARTESIAN_POINT('Ctrl Pts',(-5.95,0.,5.15));
#387=CARTESIAN_POINT('Ctrl Pts',(-5.83264905161769,0.,5.44742395538274));
#388=CARTESIAN_POINT('Ctrl Pts',(-5.51968016973111,0.,5.65606987664046));
#389=CARTESIAN_POINT('Ctrl Pts',(-5.2,0.,5.65));
#390=CARTESIAN_POINT('',(-5.95,0.,5.15));
#391=CARTESIAN_POINT('Origin',(-5.2,0.,5.15));
#392=CARTESIAN_POINT('Origin',(-5.215,0.,4.86));
#393=CARTESIAN_POINT('Ctrl Pts',(-5.95,0.,5.15));
#394=CARTESIAN_POINT('Ctrl Pts',(-5.83264905161769,0.,5.44742395538274));
#395=CARTESIAN_POINT('Ctrl Pts',(-5.51968016973111,0.,5.65606987664046));
#396=CARTESIAN_POINT('Ctrl Pts',(-5.2,0.,5.65));
#397=CARTESIAN_POINT('Ctrl Pts',(-5.95,-0.224399475256414,5.15));
#398=CARTESIAN_POINT('Ctrl Pts',(-5.83264905161769,-0.17486613619336,5.44742395538274));
#399=CARTESIAN_POINT('Ctrl Pts',(-5.51968016973111,-0.088072238367587,5.65606987664046));
#400=CARTESIAN_POINT('Ctrl Pts',(-5.2,0.,5.65));
#401=CARTESIAN_POINT('Ctrl Pts',(-5.7618340026768,-0.61311698688219,5.15));
#402=CARTESIAN_POINT('Ctrl Pts',(-5.66200740002133,-0.508909297795011,5.44742395538274));
#403=CARTESIAN_POINT('Ctrl Pts',(-5.42507802539521,-0.248728561479181,5.65606987664047));
#404=CARTESIAN_POINT('Ctrl Pts',(-5.2,0.,5.65));
#405=CARTESIAN_POINT('Ctrl Pts',(-5.36829960644231,-0.75,5.15));
#406=CARTESIAN_POINT('Ctrl Pts',(-5.33114960214502,-0.632649051617693,5.44742395538274));
#407=CARTESIAN_POINT('Ctrl Pts',(-5.26605417877569,-0.319680169731108,5.65606987664046));
#408=CARTESIAN_POINT('Ctrl Pts',(-5.2,0.,5.65));
#409=CARTESIAN_POINT('Ctrl Pts',(-5.2,-0.75,5.15));
#410=CARTESIAN_POINT('Ctrl Pts',(-5.2,-0.632649051617694,5.44742395538274));
#411=CARTESIAN_POINT('Ctrl Pts',(-5.2,-0.319680169731108,5.65606987664046));
#412=CARTESIAN_POINT('Ctrl Pts',(-5.2,0.,5.65));
#413=CARTESIAN_POINT('Origin',(-5.2,0.,5.15));
#414=CARTESIAN_POINT('Origin',(0.,0.,-2.));
#415=CARTESIAN_POINT('',(-2.15,2.63299061816681E-16,2.65));
#416=CARTESIAN_POINT('Origin',(0.,0.,2.65));
#417=CARTESIAN_POINT('',(-2.15,-2.63299061816681E-16,-2.));
#418=CARTESIAN_POINT('Origin',(0.,0.,-2.));
#419=CARTESIAN_POINT('',(-2.8,-3.42901103761259E-16,1.15));
#420=CARTESIAN_POINT('',(-2.8,-3.42901103761259E-16,-2.));
#421=CARTESIAN_POINT('',(-2.69768419204324,0.750000000000001,1.15));
#422=CARTESIAN_POINT('Origin',(0.,0.,1.15));
#423=CARTESIAN_POINT('',(-2.69768419204324,0.750000000000001,3.15));
#424=CARTESIAN_POINT('',(-2.69768419204324,0.750000000000001,-2.));
#425=CARTESIAN_POINT('',(-2.69768419204324,-0.75,3.15));
#426=CARTESIAN_POINT('Origin',(0.,0.,3.15));
#427=CARTESIAN_POINT('',(-2.69768419204324,-0.75,1.15));
#428=CARTESIAN_POINT('',(-2.69768419204324,-0.75,-2.));
#429=CARTESIAN_POINT('Origin',(0.,0.,1.15));
#430=CARTESIAN_POINT('Origin',(-1.1,0.,3.15));
#431=CARTESIAN_POINT('',(-5.2,0.75,3.15));
#432=CARTESIAN_POINT('',(-2.00236875482778,0.75,3.15));
#433=CARTESIAN_POINT('',(-4.45,-9.18485099360514E-17,3.15));
#434=CARTESIAN_POINT('Origin',(-5.2,0.,3.15));
#435=CARTESIAN_POINT('',(-5.2,-0.75,3.15));
#436=CARTESIAN_POINT('Origin',(-5.2,0.,3.15));
#437=CARTESIAN_POINT('',(-2.00236875482778,-0.75,3.15));
#438=CARTESIAN_POINT('Origin',(-2.90473750965556,-0.75,5.15));
#439=CARTESIAN_POINT('',(-5.2,-0.75,1.15));
#440=CARTESIAN_POINT('',(-2.87678980283859,-0.75,1.15));
#441=CARTESIAN_POINT('',(-5.2,-0.75,5.15));
#442=CARTESIAN_POINT('Origin',(-4.42736875482778,0.,1.15));
#443=CARTESIAN_POINT('',(-5.2,0.75,1.15));
#444=CARTESIAN_POINT('',(-5.26574750829796,0.75,1.15));
#445=CARTESIAN_POINT('Origin',(-5.2,0.,1.15));
#446=CARTESIAN_POINT('Origin',(0.,0.,2.65));
#447=CARTESIAN_POINT('Origin',(-5.2,0.,5.15));
#448=CARTESIAN_POINT('',(-5.2,0.75,5.15));
#449=CARTESIAN_POINT('',(-4.45,-9.18485099360514E-17,5.15));
#450=CARTESIAN_POINT('Origin',(-5.2,0.75,5.15));
#451=UNCERTAINTY_MEASURE_WITH_UNIT(LENGTH_MEASURE(0.01),#455,
'DISTANCE_ACCURACY_VALUE',
'Maximum model space distance between geometric entities at asserted c
onnectivities');
#452=UNCERTAINTY_MEASURE_WITH_UNIT(LENGTH_MEASURE(0.01),#455,
'DISTANCE_ACCURACY_VALUE',
'Maximum model space distance between geometric entities at asserted c
onnectivities');
#453=(
GEOMETRIC_REPRESENTATION_CONTEXT(3)
GLOBAL_UNCERTAINTY_ASSIGNED_CONTEXT((#451))
GLOBAL_UNIT_ASSIGNED_CONTEXT((#455,#457,#458))
REPRESENTATION_CONTEXT('','3D')
);
#454=(
GEOMETRIC_REPRESENTATION_CONTEXT(3)
GLOBAL_UNCERTAINTY_ASSIGNED_CONTEXT((#452))
GLOBAL_UNIT_ASSIGNED_CONTEXT((#455,#457,#458))
REPRESENTATION_CONTEXT('','3D')
);
#455=(
LENGTH_UNIT()
NAMED_UNIT(*)
SI_UNIT(.MILLI.,.METRE.)
);
#456=(
LENGTH_UNIT()
NAMED_UNIT(*)
SI_UNIT($,.METRE.)
);
#457=(
NAMED_UNIT(*)
PLANE_ANGLE_UNIT()
SI_UNIT($,.RADIAN.)
);
#458=(
NAMED_UNIT(*)
SI_UNIT($,.STERADIAN.)
SOLID_ANGLE_UNIT()
);
#459=SHAPE_DEFINITION_REPRESENTATION(#460,#461);
#460=PRODUCT_DEFINITION_SHAPE('',$,#463);
#461=SHAPE_REPRESENTATION('',(#223),#453);
#462=PRODUCT_DEFINITION_CONTEXT('part definition',#467,'design');
#463=PRODUCT_DEFINITION('Short braille conversion rod',
'Short braille conversion rod v3',#464,#462);
#464=PRODUCT_DEFINITION_FORMATION('',$,#469);
#465=PRODUCT_RELATED_PRODUCT_CATEGORY('Short braille conversion rod v3',
'Short braille conversion rod v3',(#469));
#466=APPLICATION_PROTOCOL_DEFINITION('international standard',
'ap242_managed_model_based_3d_engineering',2011,#467);
#467=APPLICATION_CONTEXT('Managed model based 3d engineering');
#468=PRODUCT_CONTEXT('part definition',#467,'mechanical');
#469=PRODUCT('Short braille conversion rod',
'Short braille conversion rod v3',$,(#468));
#470=PRESENTATION_STYLE_ASSIGNMENT((#471));
#471=SURFACE_STYLE_USAGE(.BOTH.,#472);
#472=SURFACE_SIDE_STYLE('',(#473));
#473=SURFACE_STYLE_FILL_AREA(#474);
#474=FILL_AREA_STYLE('Steel - Satin',(#475));
#475=FILL_AREA_STYLE_COLOUR('Steel - Satin',#476);
#476=COLOUR_RGB('Steel - Satin',0.627450980392157,0.627450980392157,0.627450980392157);
ENDSEC;
END-ISO-10303-21;
