ISO-10303-21;
HEADER;

/* File generated by Shapr3D Version 3.0 */

FILE_DESCRIPTION(('HOOPS Exchange Step'),'2;1');

FILE_NAME('/private/var/mobile/Containers/Data/Application/D23F5365-708D-4B92-9AB7-0E455C11FFB2/tmp/export/temp_export',
'2022-02-11T23:24:07+18:00',
('mobile'),
('Shapr3D Limited'),
'HOOPS Exchange 2021.2',
'Shapr3D',
'Authorized');

FILE_SCHEMA( ('AP203_CONFIGURATION_CONTROLLED_3D_DESIGN_OF_MECHANICAL_PARTS_AND_ASSEMBLIES_MIM_LF') );

ENDSEC;

DATA;
#3=(NAMED_UNIT(*)PLANE_ANGLE_UNIT()SI_UNIT($,.RADIAN.));
#4=PLANE_ANGLE_MEASURE_WITH_UNIT(PLANE_ANGLE_MEASURE(0.0174532925),#3);
#5=(CONVERSION_BASED_UNIT('DEGREE',#4)NAMED_UNIT(#6)PLANE_ANGLE_UNIT());
#6=DIMENSIONAL_EXPONENTS(0.,0.,0.,0.,0.,0.,0.);
#7=(NAMED_UNIT(*)SI_UNIT($,.STERADIAN.)SOLID_ANGLE_UNIT());
#8=(LENGTH_UNIT()NAMED_UNIT(*)SI_UNIT(.MILLI.,.METRE.));
#9=UNCERTAINTY_MEASURE_WITH_UNIT(LENGTH_MEASURE(1.000000E-03),#8,'DISTANCE_ACCURACY_VALUE','Maximum Tolerance applied to model');
#10=(GEOMETRIC_REPRESENTATION_CONTEXT(3)GLOBAL_UNCERTAINTY_ASSIGNED_CONTEXT((#9))GLOBAL_UNIT_ASSIGNED_CONTEXT((#8,#5,#7))REPRESENTATION_CONTEXT('','/private/var/mobile/Containers/Data/Application/D23F5365-708D-4B92-9AB7-0E455C11FFB2/tmp/C8A0AF3D-6EAE-4A53-AC04-4D01030BE42A.tmp'));
#12=CARTESIAN_POINT('',(0.,0.,0.));
#13=DIRECTION('',(0.,0.,1.));
#14=DIRECTION('',(1.,0.,0.));
#15=AXIS2_PLACEMENT_3D('TS3D_PRODUCT_CSYS',#12,#13,#14);
#26=(NAMED_UNIT(*)PLANE_ANGLE_UNIT()SI_UNIT($,.RADIAN.));
#27=PLANE_ANGLE_MEASURE_WITH_UNIT(PLANE_ANGLE_MEASURE(0.0174532925),#26);
#28=(CONVERSION_BASED_UNIT('DEGREE',#27)NAMED_UNIT(#29)PLANE_ANGLE_UNIT());
#29=DIMENSIONAL_EXPONENTS(0.,0.,0.,0.,0.,0.,0.);
#30=(NAMED_UNIT(*)SI_UNIT($,.STERADIAN.)SOLID_ANGLE_UNIT());
#31=(LENGTH_UNIT()NAMED_UNIT(*)SI_UNIT(.MILLI.,.METRE.));
#32=UNCERTAINTY_MEASURE_WITH_UNIT(LENGTH_MEASURE(1.000000E-05),#31,'DISTANCE_ACCURACY_VALUE','Maximum Tolerance applied to model');
#33=(GEOMETRIC_REPRESENTATION_CONTEXT(3)GLOBAL_UNCERTAINTY_ASSIGNED_CONTEXT((#32))GLOBAL_UNIT_ASSIGNED_CONTEXT((#31,#28,#30))REPRESENTATION_CONTEXT('','Connectors'));
#45=CARTESIAN_POINT('',(0.,0.,0.));
#46=DIRECTION('',(0.,0.,1.));
#47=DIRECTION('',(1.,0.,-0.));
#48=AXIS2_PLACEMENT_3D('',#45,#46,#47);
#49=ITEM_DEFINED_TRANSFORMATION('','',#48,#15);
#50=(REPRESENTATION_RELATIONSHIP('','',#35,#16)REPRESENTATION_RELATIONSHIP_WITH_TRANSFORMATION(#49)SHAPE_REPRESENTATION_RELATIONSHIP());
#51=NEXT_ASSEMBLY_USAGE_OCCURRENCE('Connectors_1','Connectors','Connectors',#25,#44,$);
#52=PRODUCT_DEFINITION_SHAPE('','',#51);
#53=CONTEXT_DEPENDENT_SHAPE_REPRESENTATION(#50,#52);
#55=CARTESIAN_POINT('',(83.,20.784609691,305.8));
#56=DIRECTION('',(0.,0.,-1.));
#57=DIRECTION('',(-1.,0.,0.));
#58=AXIS2_PLACEMENT_3D('',#55,#56,#57);
#59=CYLINDRICAL_SURFACE('',#58,4.6);
#60=CARTESIAN_POINT('',(78.4,20.784609691,300.));
#61=VERTEX_POINT('',#60);
#62=CARTESIAN_POINT('',(78.4,20.784609691,305.8));
#63=VERTEX_POINT('',#62);
#64=CARTESIAN_POINT('',(78.4,20.784609691,300.));
#65=DIRECTION('',(-0.,-0.,1.));
#66=VECTOR('',#65,5.8);
#67=LINE('',#64,#66);
#68=EDGE_CURVE('',#61,#63,#67,.T.);
#69=ORIENTED_EDGE('',*,*,#68,.T.);
#70=CARTESIAN_POINT('',(85.408878945,24.703449089,305.8));
#71=VERTEX_POINT('',#70);
#72=CARTESIAN_POINT('',(83.,20.784609691,305.8));
#73=DIRECTION('',(0.,0.,1.));
#74=DIRECTION('',(1.,0.,-0.));
#75=AXIS2_PLACEMENT_3D('',#72,#73,#74);
#76=CIRCLE('',#75,4.6);
#77=EDGE_CURVE('',#71,#63,#76,.T.);
#78=ORIENTED_EDGE('',*,*,#77,.F.);
#79=CARTESIAN_POINT('',(85.408878945,24.703449089,300.));
#80=VERTEX_POINT('',#79);
#81=CARTESIAN_POINT('',(85.408878945,24.703449089,305.8));
#82=DIRECTION('',(0.,0.,-1.));
#83=VECTOR('',#82,5.8);
#84=LINE('',#81,#83);
#85=EDGE_CURVE('',#71,#80,#84,.T.);
#86=ORIENTED_EDGE('',*,*,#85,.T.);
#87=CARTESIAN_POINT('',(83.,20.784609691,300.));
#88=DIRECTION('',(0.,0.,1.));
#89=DIRECTION('',(1.,0.,-0.));
#90=AXIS2_PLACEMENT_3D('',#87,#88,#89);
#91=CIRCLE('',#90,4.6);
#92=EDGE_CURVE('',#80,#61,#91,.T.);
#93=ORIENTED_EDGE('',*,*,#92,.T.);
#94=EDGE_LOOP('',(#69,#78,#86,#93));
#95=FACE_BOUND('',#94,.T.);
#96=ADVANCED_FACE('',(#95),#59,.T.);
#97=CARTESIAN_POINT('',(95.,-0.,305.8));
#98=DIRECTION('',(0.,0.,-1.));
#99=DIRECTION('',(-1.,0.,0.));
#100=AXIS2_PLACEMENT_3D('',#97,#98,#99);
#101=CYLINDRICAL_SURFACE('',#100,21.5);
#102=CARTESIAN_POINT('',(102.441072062,20.171277762,300.));
#103=VERTEX_POINT('',#102);
#104=CARTESIAN_POINT('',(87.558927938,20.171277762,300.));
#105=VERTEX_POINT('',#104);
#106=CARTESIAN_POINT('',(95.,-0.,300.));
#107=DIRECTION('',(0.,0.,1.));
#108=DIRECTION('',(1.,0.,-0.));
#109=AXIS2_PLACEMENT_3D('',#106,#107,#108);
#110=CIRCLE('',#109,21.5);
#111=EDGE_CURVE('',#103,#105,#110,.T.);
#112=ORIENTED_EDGE('',*,*,#111,.F.);
#113=CARTESIAN_POINT('',(102.441072062,20.171277762,305.8));
#114=VERTEX_POINT('',#113);
#115=CARTESIAN_POINT('',(102.441072062,20.171277762,305.8));
#116=DIRECTION('',(0.,0.,-1.));
#117=VECTOR('',#116,5.8);
#118=LINE('',#115,#117);
#119=EDGE_CURVE('',#114,#103,#118,.T.);
#120=ORIENTED_EDGE('',*,*,#119,.F.);
#121=CARTESIAN_POINT('',(87.558927938,20.171277762,305.8));
#122=VERTEX_POINT('',#121);
#123=CARTESIAN_POINT('',(95.,-0.,305.8));
#124=DIRECTION('',(0.,0.,1.));
#125=DIRECTION('',(1.,0.,-0.));
#126=AXIS2_PLACEMENT_3D('',#123,#124,#125);
#127=CIRCLE('',#126,21.5);
#128=EDGE_CURVE('',#114,#122,#127,.T.);
#129=ORIENTED_EDGE('',*,*,#128,.T.);
#130=CARTESIAN_POINT('',(87.558927938,20.171277762,305.8));
#131=DIRECTION('',(0.,0.,-1.));
#132=VECTOR('',#131,5.8);
#133=LINE('',#130,#132);
#134=EDGE_CURVE('',#122,#105,#133,.T.);
#135=ORIENTED_EDGE('',*,*,#134,.T.);
#136=EDGE_LOOP('',(#112,#120,#129,#135));
#137=FACE_BOUND('',#136,.T.);
#138=ADVANCED_FACE('',(#137),#101,.F.);
#139=CARTESIAN_POINT('',(107.,20.784609691,305.8));
#140=DIRECTION('',(0.,0.,-1.));
#141=DIRECTION('',(-1.,0.,0.));
#142=AXIS2_PLACEMENT_3D('',#139,#140,#141);
#143=CYLINDRICAL_SURFACE('',#142,4.6);
#144=CARTESIAN_POINT('',(104.591121055,24.703449089,300.));
#145=VERTEX_POINT('',#144);
#146=CARTESIAN_POINT('',(107.,20.784609691,300.));
#147=DIRECTION('',(0.,0.,1.));
#148=DIRECTION('',(1.,0.,-0.));
#149=AXIS2_PLACEMENT_3D('',#146,#147,#148);
#150=CIRCLE('',#149,4.6);
#151=EDGE_CURVE('',#103,#145,#150,.T.);
#152=ORIENTED_EDGE('',*,*,#151,.T.);
#153=CARTESIAN_POINT('',(104.591121055,24.703449089,305.8));
#154=VERTEX_POINT('',#153);
#155=CARTESIAN_POINT('',(104.591121055,24.703449089,305.8));
#156=DIRECTION('',(0.,0.,-1.));
#157=VECTOR('',#156,5.8);
#158=LINE('',#155,#157);
#159=EDGE_CURVE('',#154,#145,#158,.T.);
#160=ORIENTED_EDGE('',*,*,#159,.F.);
#161=CARTESIAN_POINT('',(107.,20.784609691,305.8));
#162=DIRECTION('',(0.,0.,1.));
#163=DIRECTION('',(1.,0.,-0.));
#164=AXIS2_PLACEMENT_3D('',#161,#162,#163);
#165=CIRCLE('',#164,4.6);
#166=EDGE_CURVE('',#114,#154,#165,.T.);
#167=ORIENTED_EDGE('',*,*,#166,.F.);
#168=ORIENTED_EDGE('',*,*,#119,.T.);
#169=EDGE_LOOP('',(#152,#160,#167,#168));
#170=FACE_BOUND('',#169,.T.);
#171=ADVANCED_FACE('',(#170),#143,.T.);
#172=CARTESIAN_POINT('',(83.,20.784609691,305.8));
#173=DIRECTION('',(0.,0.,-1.));
#174=DIRECTION('',(-1.,0.,0.));
#175=AXIS2_PLACEMENT_3D('',#172,#173,#174);
#176=CYLINDRICAL_SURFACE('',#175,1.8);
#177=CARTESIAN_POINT('',(81.2,20.784609691,300.));
#178=VERTEX_POINT('',#177);
#179=CARTESIAN_POINT('',(81.2,20.784609691,305.8));
#180=VERTEX_POINT('',#179);
#181=CARTESIAN_POINT('',(81.2,20.784609691,300.));
#182=DIRECTION('',(-0.,-0.,1.));
#183=VECTOR('',#182,5.8);
#184=LINE('',#181,#183);
#185=EDGE_CURVE('',#178,#180,#184,.T.);
#186=ORIENTED_EDGE('',*,*,#185,.F.);
#187=CARTESIAN_POINT('',(84.8,20.784609691,300.));
#188=VERTEX_POINT('',#187);
#189=CARTESIAN_POINT('',(83.,20.784609691,300.));
#190=DIRECTION('',(0.,0.,1.));
#191=DIRECTION('',(1.,0.,-0.));
#192=AXIS2_PLACEMENT_3D('',#189,#190,#191);
#193=CIRCLE('',#192,1.8);
#194=EDGE_CURVE('',#188,#178,#193,.T.);
#195=ORIENTED_EDGE('',*,*,#194,.F.);
#196=CARTESIAN_POINT('',(83.,20.784609691,300.));
#197=DIRECTION('',(0.,0.,1.));
#198=DIRECTION('',(1.,0.,-0.));
#199=AXIS2_PLACEMENT_3D('',#196,#197,#198);
#200=CIRCLE('',#199,1.8);
#201=EDGE_CURVE('',#178,#188,#200,.T.);
#202=ORIENTED_EDGE('',*,*,#201,.F.);
#203=ORIENTED_EDGE('',*,*,#185,.T.);
#204=CARTESIAN_POINT('',(84.8,20.784609691,305.8));
#205=VERTEX_POINT('',#204);
#206=CARTESIAN_POINT('',(83.,20.784609691,305.8));
#207=DIRECTION('',(0.,0.,1.));
#208=DIRECTION('',(1.,0.,-0.));
#209=AXIS2_PLACEMENT_3D('',#206,#207,#208);
#210=CIRCLE('',#209,1.8);
#211=EDGE_CURVE('',#180,#205,#210,.T.);
#212=ORIENTED_EDGE('',*,*,#211,.T.);
#213=CARTESIAN_POINT('',(83.,20.784609691,305.8));
#214=DIRECTION('',(0.,0.,1.));
#215=DIRECTION('',(1.,0.,-0.));
#216=AXIS2_PLACEMENT_3D('',#213,#214,#215);
#217=CIRCLE('',#216,1.8);
#218=EDGE_CURVE('',#205,#180,#217,.T.);
#219=ORIENTED_EDGE('',*,*,#218,.T.);
#220=EDGE_LOOP('',(#186,#195,#202,#203,#212,#219));
#221=FACE_BOUND('',#220,.T.);
#222=ADVANCED_FACE('',(#221),#176,.F.);
#223=CARTESIAN_POINT('',(95.,-0.,305.8));
#224=DIRECTION('',(0.,0.,-1.));
#225=DIRECTION('',(-1.,0.,0.));
#226=AXIS2_PLACEMENT_3D('',#223,#224,#225);
#227=CYLINDRICAL_SURFACE('',#226,26.5);
#228=CARTESIAN_POINT('',(95.,-0.,300.));
#229=DIRECTION('',(0.,0.,1.));
#230=DIRECTION('',(1.,0.,-0.));
#231=AXIS2_PLACEMENT_3D('',#228,#229,#230);
#232=CIRCLE('',#231,26.5);
#233=EDGE_CURVE('',#145,#80,#232,.T.);
#234=ORIENTED_EDGE('',*,*,#233,.T.);
#235=ORIENTED_EDGE('',*,*,#85,.F.);
#236=CARTESIAN_POINT('',(95.,-0.,305.8));
#237=DIRECTION('',(0.,0.,1.));
#238=DIRECTION('',(1.,0.,-0.));
#239=AXIS2_PLACEMENT_3D('',#236,#237,#238);
#240=CIRCLE('',#239,26.5);
#241=EDGE_CURVE('',#154,#71,#240,.T.);
#242=ORIENTED_EDGE('',*,*,#241,.F.);
#243=ORIENTED_EDGE('',*,*,#159,.T.);
#244=EDGE_LOOP('',(#234,#235,#242,#243));
#245=FACE_BOUND('',#244,.T.);
#246=ADVANCED_FACE('',(#245),#227,.T.);
#247=CARTESIAN_POINT('',(107.,20.784609691,305.8));
#248=DIRECTION('',(0.,0.,-1.));
#249=DIRECTION('',(-1.,0.,0.));
#250=AXIS2_PLACEMENT_3D('',#247,#248,#249);
#251=CYLINDRICAL_SURFACE('',#250,1.8);
#252=CARTESIAN_POINT('',(105.2,20.784609691,300.));
#253=VERTEX_POINT('',#252);
#254=CARTESIAN_POINT('',(105.2,20.784609691,305.8));
#255=VERTEX_POINT('',#254);
#256=CARTESIAN_POINT('',(105.2,20.784609691,300.));
#257=DIRECTION('',(-0.,-0.,1.));
#258=VECTOR('',#257,5.8);
#259=LINE('',#256,#258);
#260=EDGE_CURVE('',#253,#255,#259,.T.);
#261=ORIENTED_EDGE('',*,*,#260,.F.);
#262=CARTESIAN_POINT('',(108.8,20.784609691,300.));
#263=VERTEX_POINT('',#262);
#264=CARTESIAN_POINT('',(107.,20.784609691,300.));
#265=DIRECTION('',(0.,0.,1.));
#266=DIRECTION('',(1.,0.,-0.));
#267=AXIS2_PLACEMENT_3D('',#264,#265,#266);
#268=CIRCLE('',#267,1.8);
#269=EDGE_CURVE('',#263,#253,#268,.T.);
#270=ORIENTED_EDGE('',*,*,#269,.F.);
#271=CARTESIAN_POINT('',(107.,20.784609691,300.));
#272=DIRECTION('',(0.,0.,1.));
#273=DIRECTION('',(1.,0.,-0.));
#274=AXIS2_PLACEMENT_3D('',#271,#272,#273);
#275=CIRCLE('',#274,1.8);
#276=EDGE_CURVE('',#253,#263,#275,.T.);
#277=ORIENTED_EDGE('',*,*,#276,.F.);
#278=ORIENTED_EDGE('',*,*,#260,.T.);
#279=CARTESIAN_POINT('',(108.8,20.784609691,305.8));
#280=VERTEX_POINT('',#279);
#281=CARTESIAN_POINT('',(107.,20.784609691,305.8));
#282=DIRECTION('',(0.,0.,1.));
#283=DIRECTION('',(1.,0.,-0.));
#284=AXIS2_PLACEMENT_3D('',#281,#282,#283);
#285=CIRCLE('',#284,1.8);
#286=EDGE_CURVE('',#255,#280,#285,.T.);
#287=ORIENTED_EDGE('',*,*,#286,.T.);
#288=CARTESIAN_POINT('',(107.,20.784609691,305.8));
#289=DIRECTION('',(0.,0.,1.));
#290=DIRECTION('',(1.,0.,-0.));
#291=AXIS2_PLACEMENT_3D('',#288,#289,#290);
#292=CIRCLE('',#291,1.8);
#293=EDGE_CURVE('',#280,#255,#292,.T.);
#294=ORIENTED_EDGE('',*,*,#293,.T.);
#295=EDGE_LOOP('',(#261,#270,#277,#278,#287,#294));
#296=FACE_BOUND('',#295,.T.);
#297=ADVANCED_FACE('',(#296),#251,.F.);
#298=CARTESIAN_POINT('',(47.46031746,-250.793650794,305.8));
#299=DIRECTION('',(0.,0.,1.));
#300=DIRECTION('',(1.,0.,0.));
#301=AXIS2_PLACEMENT_3D('',#298,#299,#300);
#302=PLANE('',#301);
#303=ORIENTED_EDGE('',*,*,#77,.T.);
#304=CARTESIAN_POINT('',(83.,20.784609691,305.8));
#305=DIRECTION('',(0.,0.,1.));
#306=DIRECTION('',(1.,0.,-0.));
#307=AXIS2_PLACEMENT_3D('',#304,#305,#306);
#308=CIRCLE('',#307,4.6);
#309=EDGE_CURVE('',#63,#122,#308,.T.);
#310=ORIENTED_EDGE('',*,*,#309,.T.);
#311=ORIENTED_EDGE('',*,*,#128,.F.);
#312=ORIENTED_EDGE('',*,*,#166,.T.);
#313=ORIENTED_EDGE('',*,*,#241,.T.);
#314=EDGE_LOOP('',(#303,#310,#311,#312,#313));
#315=FACE_BOUND('',#314,.T.);
#316=ORIENTED_EDGE('',*,*,#211,.F.);
#317=ORIENTED_EDGE('',*,*,#218,.F.);
#318=EDGE_LOOP('',(#316,#317));
#319=FACE_BOUND('',#318,.T.);
#320=ORIENTED_EDGE('',*,*,#286,.F.);
#321=ORIENTED_EDGE('',*,*,#293,.F.);
#322=EDGE_LOOP('',(#320,#321));
#323=FACE_BOUND('',#322,.T.);
#324=ADVANCED_FACE('',(#315,#319,#323),#302,.T.);
#325=CARTESIAN_POINT('',(47.46031746,-250.793650794,300.));
#326=DIRECTION('',(0.,0.,1.));
#327=DIRECTION('',(1.,0.,0.));
#328=AXIS2_PLACEMENT_3D('',#325,#326,#327);
#329=PLANE('',#328);
#330=CARTESIAN_POINT('',(83.,20.784609691,300.));
#331=DIRECTION('',(0.,0.,1.));
#332=DIRECTION('',(1.,0.,-0.));
#333=AXIS2_PLACEMENT_3D('',#330,#331,#332);
#334=CIRCLE('',#333,4.6);
#335=EDGE_CURVE('',#61,#105,#334,.T.);
#336=ORIENTED_EDGE('',*,*,#335,.F.);
#337=ORIENTED_EDGE('',*,*,#92,.F.);
#338=ORIENTED_EDGE('',*,*,#233,.F.);
#339=ORIENTED_EDGE('',*,*,#151,.F.);
#340=ORIENTED_EDGE('',*,*,#111,.T.);
#341=EDGE_LOOP('',(#336,#337,#338,#339,#340));
#342=FACE_BOUND('',#341,.T.);
#343=ORIENTED_EDGE('',*,*,#194,.T.);
#344=ORIENTED_EDGE('',*,*,#201,.T.);
#345=EDGE_LOOP('',(#343,#344));
#346=FACE_BOUND('',#345,.T.);
#347=ORIENTED_EDGE('',*,*,#269,.T.);
#348=ORIENTED_EDGE('',*,*,#276,.T.);
#349=EDGE_LOOP('',(#347,#348));
#350=FACE_BOUND('',#349,.T.);
#351=ADVANCED_FACE('',(#342,#346,#350),#329,.F.);
#352=CARTESIAN_POINT('',(83.,20.784609691,305.8));
#353=DIRECTION('',(0.,0.,-1.));
#354=DIRECTION('',(-1.,0.,0.));
#355=AXIS2_PLACEMENT_3D('',#352,#353,#354);
#356=CYLINDRICAL_SURFACE('',#355,4.6);
#357=ORIENTED_EDGE('',*,*,#68,.F.);
#358=ORIENTED_EDGE('',*,*,#335,.T.);
#359=ORIENTED_EDGE('',*,*,#134,.F.);
#360=ORIENTED_EDGE('',*,*,#309,.F.);
#361=EDGE_LOOP('',(#357,#358,#359,#360));
#362=FACE_BOUND('',#361,.T.);
#363=ADVANCED_FACE('',(#362),#356,.T.);
#364=CLOSED_SHELL('',(#96,#138,#171,#222,#246,#297,#324,#351,#363));
#365=MANIFOLD_SOLID_BREP('Cnx2',#364);
#366=COLOUR_RGB('',0.494117647,0.494117647,0.525490224);
#367=FILL_AREA_STYLE_COLOUR('',#366);
#368=FILL_AREA_STYLE('',(#367));
#369=SURFACE_STYLE_FILL_AREA(#368);
#370=SURFACE_SIDE_STYLE('',(#369));
#371=SURFACE_STYLE_USAGE(.BOTH.,#370);
#372=PRESENTATION_STYLE_ASSIGNMENT((#371));
#54=STYLED_ITEM('',(#372),#365);
#35=SHAPE_REPRESENTATION('Connectors',(#15),#33);
#36=ADVANCED_BREP_SHAPE_REPRESENTATION('Connectors',(#365),#33);
#380=SHAPE_REPRESENTATION_RELATIONSHIP('','',#35,#36);
#381=APPLICATION_CONTEXT('configuration controlled 3D design of mechanical parts and assemblies');
#382=APPLICATION_PROTOCOL_DEFINITION('international standard','configuration_control_3d_design_ed2_mim',2004,#381);
#383=PRODUCT_CONTEXT('',#381,'mechanical');
#384=PRODUCT_DEFINITION_CONTEXT('part definition',#381,'design');
#43=PRODUCT('Connectors','Connectors','',(#383));
#385=PRODUCT_RELATED_PRODUCT_CATEGORY('part','',(#43));
#386=PRODUCT_DEFINITION_FORMATION_WITH_SPECIFIED_SOURCE('','',#43,.NOT_KNOWN.);
#44=PRODUCT_DEFINITION('design','',#386,#384);
#42=PRODUCT_DEFINITION_SHAPE('','',#44);
#387=SHAPE_DEFINITION_REPRESENTATION(#42,#35);
#34=DRAUGHTING_MODEL('',(),#33);
#16=SHAPE_REPRESENTATION('/private/var/mobile/Containers/Data/Application/D23F5365-708D-4B92-9AB7-0E455C11FFB2/tmp/C8A0AF3D-6EAE-4A53-AC04-4D01030BE42A.tmp',(#15,#48),#10);
#24=PRODUCT('/private/var/mobile/Containers/Data/Application/D23F5365-708D-4B92-9AB7-0E455C11FFB2/tmp/C8A0AF3D-6EAE-4A53-AC04-4D01030BE42A.tmp','/private/var/mobile/Containers/Data/Application/D23F5365-708D-4B92-9AB7-0E455C11FFB2/tmp/C8A0AF3D-6EAE-4A53-AC04-4D01030BE42A.tmp','',(#383));
#388=PRODUCT_RELATED_PRODUCT_CATEGORY('part','',(#24));
#389=PRODUCT_DEFINITION_FORMATION_WITH_SPECIFIED_SOURCE('','',#24,.NOT_KNOWN.);
#25=PRODUCT_DEFINITION('design','',#389,#384);
#23=PRODUCT_DEFINITION_SHAPE('','',#25);
#390=SHAPE_DEFINITION_REPRESENTATION(#23,#16);
#11=DRAUGHTING_MODEL('',(),#10);
#1=MECHANICAL_DESIGN_GEOMETRIC_PRESENTATION_REPRESENTATION('',(#54),#10);
ENDSEC;
END-ISO-10303-21;
