  0
SECTION
  2
HEADER
  9
$ACADVER
  1
AC1015
  9
$ACADMAINTVER
 70
    18
  9
$DWGCODEPAGE
  3
ANSI_1255
  9
$INSBASE
 10
0.0
 20
0.0
 30
0.0
  9
$EXTMIN
 10
1.000000000000000E+20
 20
1.000000000000000E+20
 30
1.000000000000000E+20
  9
$EXTMAX
 10
-1.000000000000000E+20
 20
-1.000000000000000E+20
 30
-1.000000000000000E+20
  9
$LIMMIN
 10
0.0
 20
0.0
  9
$LIMMAX
 10
12.0
 20
9.0
  9
$ORTHOMODE
 70
     0
  9
$REGENMODE
 70
     1
  9
$FILLMODE
 70
     1
  9
$QTEXTMODE
 70
     0
  9
$MIRRTEXT
 70
     0
  9
$LTSCALE
 40
1.0
  9
$ATTMODE
 70
     1
  9
$TEXTSIZE
 40
0.2
  9
$TRACEWID
 40
0.05
  9
$TEXTSTYLE
  7
Standard
  9
$CLAYER
  8
0
  9
$CELTYPE
  6
ByLayer
  9
$CECOLOR
 62
   256
  9
$CELTSCALE
 40
1.0
  9
$DISPSILH
 70
     0
  9
$DIMSCALE
 40
1.0
  9
$DIMASZ
 40
0.18
  9
$DIMEXO
 40
0.0625
  9
$DIMDLI
 40
0.38
  9
$DIMRND
 40
0.0
  9
$DIMDLE
 40
0.0
  9
$DIMEXE
 40
0.18
  9
$DIMTP
 40
0.0
  9
$DIMTM
 40
0.0
  9
$DIMTXT
 40
0.18
  9
$DIMCEN
 40
0.09
  9
$DIMTSZ
 40
0.0
  9
$DIMTOL
 70
     0
  9
$DIMLIM
 70
     0
  9
$DIMTIH
 70
     1
  9
$DIMTOH
 70
     1
  9
$DIMSE1
 70
     0
  9
$DIMSE2
 70
     0
  9
$DIMTAD
 70
     0
  9
$DIMZIN
 70
     0
  9
$DIMBLK
  1

  9
$DIMASO
 70
     1
  9
$DIMSHO
 70
     1
  9
$DIMPOST
  1

  9
$DIMAPOST
  1

  9
$DIMALT
 70
     0
  9
$DIMALTD
 70
     2
  9
$DIMALTF
 40
25.4
  9
$DIMLFAC
 40
1.0
  9
$DIMTOFL
 70
     0
  9
$DIMTVP
 40
0.0
  9
$DIMTIX
 70
     0
  9
$DIMSOXD
 70
     0
  9
$DIMSAH
 70
     0
  9
$DIMBLK1
  1

  9
$DIMBLK2
  1

  9
$DIMSTYLE
  2
Standard
  9
$DIMCLRD
 70
     0
  9
$DIMCLRE
 70
     0
  9
$DIMCLRT
 70
     0
  9
$DIMTFAC
 40
1.0
  9
$DIMGAP
 40
0.09
  9
$DIMJUST
 70
     0
  9
$DIMSD1
 70
     0
  9
$DIMSD2
 70
     0
  9
$DIMTOLJ
 70
     1
  9
$DIMTZIN
 70
     0
  9
$DIMALTZ
 70
     0
  9
$DIMALTTZ
 70
     0
  9
$DIMUPT
 70
     0
  9
$DIMDEC
 70
     4
  9
$DIMTDEC
 70
     4
  9
$DIMALTU
 70
     2
  9
$DIMALTTD
 70
     2
  9
$DIMTXSTY
  7
Standard
  9
$DIMAUNIT
 70
     0
  9
$DIMADEC
 70
     0
  9
$DIMALTRND
 40
0.0
  9
$DIMAZIN
 70
     0
  9
$DIMDSEP
 70
    46
  9
$DIMATFIT
 70
     3
  9
$DIMFRAC
 70
     0
  9
$DIMLDRBLK
  1

  9
$DIMLUNIT
 70
     2
  9
$DIMLWD
 70
    -2
  9
$DIMLWE
 70
    -2
  9
$DIMTMOVE
 70
     0
  9
$LUNITS
 70
     2
  9
$LUPREC
 70
     4
  9
$SKETCHINC
 40
0.1
  9
$FILLETRAD
 40
0.0
  9
$AUNITS
 70
     0
  9
$AUPREC
 70
     0
  9
$MENU
  1
.
  9
$ELEVATION
 40
0.0
  9
$PELEVATION
 40
0.0
  9
$THICKNESS
 40
0.0
  9
$LIMCHECK
 70
     0
  9
$CHAMFERA
 40
0.0
  9
$CHAMFERB
 40
0.0
  9
$CHAMFERC
 40
0.0
  9
$CHAMFERD
 40
0.0
  9
$SKPOLY
 70
     0
  9
$TDCREATE
 40
2459983.006030093
  9
$TDUCREATE
 40
2459982.922696759
  9
$TDUPDATE
 40
2459983.006030093
  9
$TDUUPDATE
 40
2459982.922696759
  9
$TDINDWG
 40
0.0000115741
  9
$TDUSRTIMER
 40
0.0000115741
  9
$USRTIMER
 70
     1
  9
$ANGBASE
 50
0.0
  9
$ANGDIR
 70
     0
  9
$PDMODE
 70
     0
  9
$PDSIZE
 40
0.0
  9
$PLINEWID
 40
0.0
  9
$SPLFRAME
 70
     0
  9
$SPLINETYPE
 70
     6
  9
$SPLINESEGS
 70
     8
  9
$HANDSEED
  5
1C5
  9
$SURFTAB1
 70
     6
  9
$SURFTAB2
 70
     6
  9
$SURFTYPE
 70
     6
  9
$SURFU
 70
     6
  9
$SURFV
 70
     6
  9
$UCSBASE
  2

  9
$UCSNAME
  2

  9
$UCSORG
 10
0.0
 20
0.0
 30
0.0
  9
$UCSXDIR
 10
1.0
 20
0.0
 30
0.0
  9
$UCSYDIR
 10
0.0
 20
1.0
 30
0.0
  9
$UCSORTHOREF
  2

  9
$UCSORTHOVIEW
 70
     0
  9
$UCSORGTOP
 10
0.0
 20
0.0
 30
0.0
  9
$UCSORGBOTTOM
 10
0.0
 20
0.0
 30
0.0
  9
$UCSORGLEFT
 10
0.0
 20
0.0
 30
0.0
  9
$UCSORGRIGHT
 10
0.0
 20
0.0
 30
0.0
  9
$UCSORGFRONT
 10
0.0
 20
0.0
 30
0.0
  9
$UCSORGBACK
 10
0.0
 20
0.0
 30
0.0
  9
$PUCSBASE
  2

  9
$PUCSNAME
  2

  9
$PUCSORG
 10
0.0
 20
0.0
 30
0.0
  9
$PUCSXDIR
 10
1.0
 20
0.0
 30
0.0
  9
$PUCSYDIR
 10
0.0
 20
1.0
 30
0.0
  9
$PUCSORTHOREF
  2

  9
$PUCSORTHOVIEW
 70
     0
  9
$PUCSORGTOP
 10
0.0
 20
0.0
 30
0.0
  9
$PUCSORGBOTTOM
 10
0.0
 20
0.0
 30
0.0
  9
$PUCSORGLEFT
 10
0.0
 20
0.0
 30
0.0
  9
$PUCSORGRIGHT
 10
0.0
 20
0.0
 30
0.0
  9
$PUCSORGFRONT
 10
0.0
 20
0.0
 30
0.0
  9
$PUCSORGBACK
 10
0.0
 20
0.0
 30
0.0
  9
$USERI1
 70
     0
  9
$USERI2
 70
     0
  9
$USERI3
 70
     0
  9
$USERI4
 70
     0
  9
$USERI5
 70
     0
  9
$USERR1
 40
0.0
  9
$USERR2
 40
0.0
  9
$USERR3
 40
0.0
  9
$USERR4
 40
0.0
  9
$USERR5
 40
0.0
  9
$WORLDVIEW
 70
     1
  9
$SHADEDGE
 70
     3
  9
$SHADEDIF
 70
    70
  9
$TILEMODE
 70
     1
  9
$MAXACTVP
 70
    64
  9
$PINSBASE
 10
0.0
 20
0.0
 30
0.0
  9
$PLIMCHECK
 70
     0
  9
$PEXTMIN
 10
1.000000000000000E+20
 20
1.000000000000000E+20
 30
1.000000000000000E+20
  9
$PEXTMAX
 10
-1.000000000000000E+20
 20
-1.000000000000000E+20
 30
-1.000000000000000E+20
  9
$PLIMMIN
 10
0.0
 20
0.0
  9
$PLIMMAX
 10
12.0
 20
9.0
  9
$UNITMODE
 70
     0
  9
$VISRETAIN
 70
     1
  9
$PLINEGEN
 70
     0
  9
$PSLTSCALE
 70
     1
  9
$TREEDEPTH
 70
  3020
  9
$CMLSTYLE
  2
Standard
  9
$CMLJUST
 70
     0
  9
$CMLSCALE
 40
1.0
  9
$PROXYGRAPHICS
 70
     1
  9
$MEASUREMENT
 70
     0
  9
$CELWEIGHT
370
    -1
  9
$ENDCAPS
280
     0
  9
$JOINSTYLE
280
     0
  9
$LWDISPLAY
290
     1
  9
$INSUNITS
 70
     4
  9
$HYPERLINKBASE
  1

  9
$STYLESHEET
  1

  9
$XEDIT
290
     1
  9
$CEPSNTYPE
380
     0
  9
$PSTYLEMODE
290
     1
  9
$FINGERPRINTGUID
  2
{8ED1C811-0810-0F49-A600-6CF34CC8D737}
  9
$VERSIONGUID
  2
{37B46551-3E6A-E14C-85EB-AC94C8C84AC2}
  9
$EXTNAMES
290
     1
  9
$PSVPSCALE
 40
0.0
  9
$OLESTARTUP
290
     0
  0
ENDSEC
  0
SECTION
  2
CLASSES
  0
CLASS
  1
ACDBDICTIONARYWDFLT
  2
AcDbDictionaryWithDefault
  3
ObjectDBX Classes
 90
        0
280
     0
281
     0
  0
CLASS
  1
MATERIAL
  2
AcDbMaterial
  3
ObjectDBX Classes
 90
     1153
280
     0
281
     0
  0
CLASS
  1
VISUALSTYLE
  2
AcDbVisualStyle
  3
ObjectDBX Classes
 90
     4095
280
     0
281
     0
  0
CLASS
  1
SCALE
  2
AcDbScale
  3
ObjectDBX Classes
 90
     1153
280
     0
281
     0
  0
CLASS
  1
TABLESTYLE
  2
AcDbTableStyle
  3
ObjectDBX Classes
 90
     4095
280
     0
281
     0
  0
CLASS
  1
MLEADERSTYLE
  2
AcDbMLeaderStyle
  3
ACDB_MLEADERSTYLE_CLASS
 90
     4095
280
     0
281
     0
  0
CLASS
  1
ACDBSECTIONVIEWSTYLE
  2
AcDbSectionViewStyle
  3
ObjectDBX Classes
 90
     1025
280
     0
281
     0
  0
CLASS
  1
ACDBDETAILVIEWSTYLE
  2
AcDbDetailViewStyle
  3
ObjectDBX Classes
 90
     1025
280
     0
281
     0
  0
CLASS
  1
DICTIONARYVAR
  2
AcDbDictionaryVar
  3
ObjectDBX Classes
 90
        0
280
     0
281
     0
  0
CLASS
  1
CELLSTYLEMAP
  2
AcDbCellStyleMap
  3
ObjectDBX Classes
 90
     1152
280
     0
281
     0
  0
CLASS
  1
ACDBPLACEHOLDER
  2
AcDbPlaceHolder
  3
ObjectDBX Classes
 90
        0
280
     0
281
     0
  0
CLASS
  1
LAYOUT
  2
AcDbLayout
  3
ObjectDBX Classes
 90
        0
280
     0
281
     0
  0
ENDSEC
  0
SECTION
  2
TABLES
  0
TABLE
  2
VPORT
  5
8
330
0
100
AcDbSymbolTable
 70
     1
  0
VPORT
  5
57
330
8
100
AcDbSymbolTableRecord
100
AcDbViewportTableRecord
  2
*Active
 70
     0
 10
0.0
 20
0.0
 11
1.0
 21
1.0
 12
0.0
 22
0.0
 13
0.0
 23
0.0
 14
1.0
 24
1.0
 15
0.0
 25
0.0
 16
0.0
 26
0.0
 36
1.0
 17
187.5494102488809
 27
148.6958332961594
 37
0.0
 40
755.7942289540817
 41
0.7801255234418685
 42
50.0
 43
0.0
 44
0.0
 50
0.0
 51
0.0
 71
     0
 72
   100
 73
     1
 74
     1
 75
     0
 76
     0
 77
     0
 78
     0
281
     0
 65
     1
110
0.0
120
0.0
130
0.0
111
1.0
121
0.0
131
0.0
112
0.0
122
1.0
132
0.0
 79
     0
146
0.0
  0
ENDTAB
  0
TABLE
  2
LTYPE
  5
5
330
0
100
AcDbSymbolTable
 70
    31
  0
LTYPE
  5
5B
330
5
100
AcDbSymbolTableRecord
100
AcDbLinetypeTableRecord
  2
ByBlock
 70
     0
  3

 72
    65
 73
     0
 40
0.0
  0
LTYPE
  5
5C
330
5
100
AcDbSymbolTableRecord
100
AcDbLinetypeTableRecord
  2
ByLayer
 70
     0
  3

 72
    65
 73
     0
 40
0.0
  0
LTYPE
  5
5D
330
5
100
AcDbSymbolTableRecord
100
AcDbLinetypeTableRecord
  2
Continuous
 70
     0
  3
Solid line
 72
    65
 73
     0
 40
0.0
  0
LTYPE
  5
85
330
5
100
AcDbSymbolTableRecord
100
AcDbLinetypeTableRecord
  2
AI-Linetype-0
 70
     0
  3
Adobe Illustrator Linetype No. 0
 72
    65
 73
     2
 40
8.46666666455
 49
4.233333332275
 74
     0
 49
-4.233333332275
 74
     0
  0
LTYPE
  5
88
330
5
100
AcDbSymbolTableRecord
100
AcDbLinetypeTableRecord
  2
AI-Linetype-1
 70
     0
  3
Adobe Illustrator Linetype No. 1
 72
    65
 73
     2
 40
8.46666666455
 49
4.233333332275
 74
     0
 49
-4.233333332275
 74
     0
  0
LTYPE
  5
8A
330
5
100
AcDbSymbolTableRecord
100
AcDbLinetypeTableRecord
  2
AI-Linetype-2
 70
     0
  3
Adobe Illustrator Linetype No. 2
 72
    65
 73
     2
 40
8.46666666455
 49
4.233333332275
 74
     0
 49
-4.233333332275
 74
     0
  0
LTYPE
  5
95
330
5
100
AcDbSymbolTableRecord
100
AcDbLinetypeTableRecord
  2
AI-Linetype-3
 70
     0
  3
Adobe Illustrator Linetype No. 3
 72
    65
 73
     2
 40
8.46666666455
 49
4.233333332275
 74
     0
 49
-4.233333332275
 74
     0
  0
LTYPE
  5
97
330
5
100
AcDbSymbolTableRecord
100
AcDbLinetypeTableRecord
  2
AI-Linetype-4
 70
     0
  3
Adobe Illustrator Linetype No. 4
 72
    65
 73
     2
 40
8.46666666455
 49
4.233333332275
 74
     0
 49
-4.233333332275
 74
     0
  0
LTYPE
  5
A6
330
5
100
AcDbSymbolTableRecord
100
AcDbLinetypeTableRecord
  2
AI-Linetype-5
 70
     0
  3
Adobe Illustrator Linetype No. 5
 72
    65
 73
     2
 40
8.46666666455
 49
4.233333332275
 74
     0
 49
-4.233333332275
 74
     0
  0
LTYPE
  5
A9
330
5
100
AcDbSymbolTableRecord
100
AcDbLinetypeTableRecord
  2
AI-Linetype-6
 70
     0
  3
Adobe Illustrator Linetype No. 6
 72
    65
 73
     2
 40
8.46666666455
 49
4.233333332275
 74
     0
 49
-4.233333332275
 74
     0
  0
LTYPE
  5
AB
330
5
100
AcDbSymbolTableRecord
100
AcDbLinetypeTableRecord
  2
AI-Linetype-7
 70
     0
  3
Adobe Illustrator Linetype No. 7
 72
    65
 73
     2
 40
8.46666666455
 49
4.233333332275
 74
     0
 49
-4.233333332275
 74
     0
  0
LTYPE
  5
B6
330
5
100
AcDbSymbolTableRecord
100
AcDbLinetypeTableRecord
  2
AI-Linetype-8
 70
     0
  3
Adobe Illustrator Linetype No. 8
 72
    65
 73
     2
 40
8.46666666455
 49
4.233333332275
 74
     0
 49
-4.233333332275
 74
     0
  0
LTYPE
  5
B8
330
5
100
AcDbSymbolTableRecord
100
AcDbLinetypeTableRecord
  2
AI-Linetype-9
 70
     0
  3
Adobe Illustrator Linetype No. 9
 72
    65
 73
     2
 40
8.46666666455
 49
4.233333332275
 74
     0
 49
-4.233333332275
 74
     0
  0
LTYPE
  5
C7
330
5
100
AcDbSymbolTableRecord
100
AcDbLinetypeTableRecord
  2
AI-Linetype-10
 70
     0
  3
Adobe Illustrator Linetype No. 10
 72
    65
 73
     2
 40
8.46666666455
 49
4.233333332275
 74
     0
 49
-4.233333332275
 74
     0
  0
LTYPE
  5
CA
330
5
100
AcDbSymbolTableRecord
100
AcDbLinetypeTableRecord
  2
AI-Linetype-11
 70
     0
  3
Adobe Illustrator Linetype No. 11
 72
    65
 73
     2
 40
8.46666666455
 49
4.233333332275
 74
     0
 49
-4.233333332275
 74
     0
  0
LTYPE
  5
CC
330
5
100
AcDbSymbolTableRecord
100
AcDbLinetypeTableRecord
  2
AI-Linetype-12
 70
     0
  3
Adobe Illustrator Linetype No. 12
 72
    65
 73
     2
 40
8.46666666455
 49
4.233333332275
 74
     0
 49
-4.233333332275
 74
     0
  0
LTYPE
  5
D7
330
5
100
AcDbSymbolTableRecord
100
AcDbLinetypeTableRecord
  2
AI-Linetype-13
 70
     0
  3
Adobe Illustrator Linetype No. 13
 72
    65
 73
     2
 40
8.46666666455
 49
4.233333332275
 74
     0
 49
-4.233333332275
 74
     0
  0
LTYPE
  5
D9
330
5
100
AcDbSymbolTableRecord
100
AcDbLinetypeTableRecord
  2
AI-Linetype-14
 70
     0
  3
Adobe Illustrator Linetype No. 14
 72
    65
 73
     2
 40
8.46666666455
 49
4.233333332275
 74
     0
 49
-4.233333332275
 74
     0
  0
LTYPE
  5
E8
330
5
100
AcDbSymbolTableRecord
100
AcDbLinetypeTableRecord
  2
AI-Linetype-15
 70
     0
  3
Adobe Illustrator Linetype No. 15
 72
    65
 73
     2
 40
8.46666666455
 49
4.233333332275
 74
     0
 49
-4.233333332275
 74
     0
  0
LTYPE
  5
EB
330
5
100
AcDbSymbolTableRecord
100
AcDbLinetypeTableRecord
  2
AI-Linetype-16
 70
     0
  3
Adobe Illustrator Linetype No. 16
 72
    65
 73
     2
 40
8.46666666455
 49
4.233333332275
 74
     0
 49
-4.233333332275
 74
     0
  0
LTYPE
  5
ED
330
5
100
AcDbSymbolTableRecord
100
AcDbLinetypeTableRecord
  2
AI-Linetype-17
 70
     0
  3
Adobe Illustrator Linetype No. 17
 72
    65
 73
     2
 40
8.46666666455
 49
4.233333332275
 74
     0
 49
-4.233333332275
 74
     0
  0
LTYPE
  5
F8
330
5
100
AcDbSymbolTableRecord
100
AcDbLinetypeTableRecord
  2
AI-Linetype-18
 70
     0
  3
Adobe Illustrator Linetype No. 18
 72
    65
 73
     2
 40
8.46666666455
 49
4.233333332275
 74
     0
 49
-4.233333332275
 74
     0
  0
LTYPE
  5
FA
330
5
100
AcDbSymbolTableRecord
100
AcDbLinetypeTableRecord
  2
AI-Linetype-19
 70
     0
  3
Adobe Illustrator Linetype No. 19
 72
    65
 73
     2
 40
8.46666666455
 49
4.233333332275
 74
     0
 49
-4.233333332275
 74
     0
  0
LTYPE
  5
109
330
5
100
AcDbSymbolTableRecord
100
AcDbLinetypeTableRecord
  2
AI-Linetype-20
 70
     0
  3
Adobe Illustrator Linetype No. 20
 72
    65
 73
     2
 40
8.46666666455
 49
4.233333332275
 74
     0
 49
-4.233333332275
 74
     0
  0
LTYPE
  5
10C
330
5
100
AcDbSymbolTableRecord
100
AcDbLinetypeTableRecord
  2
AI-Linetype-21
 70
     0
  3
Adobe Illustrator Linetype No. 21
 72
    65
 73
     2
 40
8.46666666455
 49
4.233333332275
 74
     0
 49
-4.233333332275
 74
     0
  0
LTYPE
  5
10E
330
5
100
AcDbSymbolTableRecord
100
AcDbLinetypeTableRecord
  2
AI-Linetype-22
 70
     0
  3
Adobe Illustrator Linetype No. 22
 72
    65
 73
     2
 40
8.46666666455
 49
4.233333332275
 74
     0
 49
-4.233333332275
 74
     0
  0
LTYPE
  5
119
330
5
100
AcDbSymbolTableRecord
100
AcDbLinetypeTableRecord
  2
AI-Linetype-23
 70
     0
  3
Adobe Illustrator Linetype No. 23
 72
    65
 73
     2
 40
8.46666666455
 49
4.233333332275
 74
     0
 49
-4.233333332275
 74
     0
  0
LTYPE
  5
11B
330
5
100
AcDbSymbolTableRecord
100
AcDbLinetypeTableRecord
  2
AI-Linetype-24
 70
     0
  3
Adobe Illustrator Linetype No. 24
 72
    65
 73
     2
 40
8.46666666455
 49
4.233333332275
 74
     0
 49
-4.233333332275
 74
     0
  0
LTYPE
  5
12A
330
5
100
AcDbSymbolTableRecord
100
AcDbLinetypeTableRecord
  2
AI-Linetype-25
 70
     0
  3
Adobe Illustrator Linetype No. 25
 72
    65
 73
     2
 40
8.46666666455
 49
4.233333332275
 74
     0
 49
-4.233333332275
 74
     0
  0
LTYPE
  5
12D
330
5
100
AcDbSymbolTableRecord
100
AcDbLinetypeTableRecord
  2
AI-Linetype-26
 70
     0
  3
Adobe Illustrator Linetype No. 26
 72
    65
 73
     2
 40
8.46666666455
 49
4.233333332275
 74
     0
 49
-4.233333332275
 74
     0
  0
LTYPE
  5
12F
330
5
100
AcDbSymbolTableRecord
100
AcDbLinetypeTableRecord
  2
AI-Linetype-27
 70
     0
  3
Adobe Illustrator Linetype No. 27
 72
    65
 73
     2
 40
8.46666666455
 49
4.233333332275
 74
     0
 49
-4.233333332275
 74
     0
  0
LTYPE
  5
13A
330
5
100
AcDbSymbolTableRecord
100
AcDbLinetypeTableRecord
  2
AI-Linetype-28
 70
     0
  3
Adobe Illustrator Linetype No. 28
 72
    65
 73
     2
 40
8.46666666455
 49
4.233333332275
 74
     0
 49
-4.233333332275
 74
     0
  0
LTYPE
  5
13C
330
5
100
AcDbSymbolTableRecord
100
AcDbLinetypeTableRecord
  2
AI-Linetype-29
 70
     0
  3
Adobe Illustrator Linetype No. 29
 72
    65
 73
     2
 40
8.46666666455
 49
4.233333332275
 74
     0
 49
-4.233333332275
 74
     0
  0
ENDTAB
  0
TABLE
  2
LAYER
  5
2
330
0
100
AcDbSymbolTable
 70
     2
  0
LAYER
  5
54
330
2
100
AcDbSymbolTableRecord
100
AcDbLayerTableRecord
  2
0
 70
     0
 62
     7
  6
Continuous
370
    -3
390
F
  0
LAYER
  5
78
330
2
100
AcDbSymbolTableRecord
100
AcDbLayerTableRecord
  2
Layer 1
 70
     0
 62
     7
  6
Continuous
370
     0
390
F
  0
ENDTAB
  0
TABLE
  2
STYLE
  5
3
330
0
100
AcDbSymbolTable
 70
     2
  0
STYLE
  5
55
330
3
100
AcDbSymbolTableRecord
100
AcDbTextStyleTableRecord
  2
Standard
 70
     0
 40
0.0
 41
1.0
 50
0.0
 71
     0
 42
0.2
  3
txt
  4

  0
STYLE
  5
5A
330
3
100
AcDbSymbolTableRecord
100
AcDbTextStyleTableRecord
  2
Annotative
 70
     0
 40
0.0
 41
1.0
 50
0.0
 71
     0
 42
0.2
  3
txt
  4

1001
AcadAnnotative
1000
AnnotativeData
1002
{
1070
     1
1070
     1
1002
}
  0
ENDTAB
  0
TABLE
  2
VIEW
  5
6
330
0
100
AcDbSymbolTable
 70
     0
  0
ENDTAB
  0
TABLE
  2
UCS
  5
7
330
0
100
AcDbSymbolTable
 70
     0
  0
ENDTAB
  0
TABLE
  2
APPID
  5
9
330
0
100
AcDbSymbolTable
 70
     3
  0
APPID
  5
56
330
9
100
AcDbSymbolTableRecord
100
AcDbRegAppTableRecord
  2
ACAD
 70
     0
  0
APPID
  5
5E
330
9
100
AcDbSymbolTableRecord
100
AcDbRegAppTableRecord
  2
AcadAnnotative
 70
     0
  0
APPID
  5
1B8
330
9
100
AcDbSymbolTableRecord
100
AcDbRegAppTableRecord
  2
ACAD_MLEADERVER
 70
     0
  0
ENDTAB
  0
TABLE
  2
DIMSTYLE
  5
A
330
0
100
AcDbSymbolTable
 70
     2
100
AcDbDimStyleTable
 71
     0
  0
DIMSTYLE
105
58
330
A
100
AcDbSymbolTableRecord
100
AcDbDimStyleTableRecord
  2
Standard
 70
     0
340
55
  0
DIMSTYLE
105
59
330
A
100
AcDbSymbolTableRecord
100
AcDbDimStyleTableRecord
  2
Annotative
 70
     0
340
55
1001
AcadAnnotative
1000
AnnotativeData
1002
{
1070
     1
1070
     1
1002
}
  0
ENDTAB
  0
TABLE
  2
BLOCK_RECORD
  5
1
330
0
100
AcDbSymbolTable
 70
     2
  0
BLOCK_RECORD
  5
70
330
1
100
AcDbSymbolTableRecord
100
AcDbBlockTableRecord
  2
*Model_Space
340
73
  0
BLOCK_RECORD
  5
6C
330
1
100
AcDbSymbolTableRecord
100
AcDbBlockTableRecord
  2
*Paper_Space
340
6F
  0
BLOCK_RECORD
  5
74
330
1
100
AcDbSymbolTableRecord
100
AcDbBlockTableRecord
  2
*Paper_Space0
340
77
  0
BLOCK_RECORD
  5
140
330
1
100
AcDbSymbolTableRecord
100
AcDbBlockTableRecord
  2
Block_0
340
0
102
{BLKREFS
331
141
102
}
  0
ENDTAB
  0
ENDSEC
  0
SECTION
  2
BLOCKS
  0
BLOCK
  5
71
330
70
100
AcDbEntity
  8
0
100
AcDbBlockBegin
  2
*Model_Space
 70
     0
 10
0.0
 20
0.0
 30
0.0
  3
*Model_Space
  1

  0
ENDBLK
  5
72
330
70
100
AcDbEntity
  8
0
100
AcDbBlockEnd
  0
BLOCK
  5
6D
330
6C
100
AcDbEntity
 67
     1
  8
0
100
AcDbBlockBegin
  2
*Paper_Space
 70
     0
 10
0.0
 20
0.0
 30
0.0
  3
*Paper_Space
  1

  0
ENDBLK
  5
6E
330
6C
100
AcDbEntity
 67
     1
  8
0
100
AcDbBlockEnd
  0
BLOCK
  5
75
330
74
100
AcDbEntity
 67
     1
  8
0
100
AcDbBlockBegin
  2
*Paper_Space0
 70
     0
 10
0.0
 20
0.0
 30
0.0
  3
*Paper_Space0
  1

  0
ENDBLK
  5
76
330
74
100
AcDbEntity
 67
     1
  8
0
100
AcDbBlockEnd
  0
BLOCK
  5
142
330
140
100
AcDbEntity
  8
0
100
AcDbBlockBegin
  2
Block_0
 70
     0
 10
0.0
 20
0.0
 30
0.0
  3
Block_0
  1

  0
SPLINE
  5
144
330
140
100
AcDbEntity
  8
Layer 1
100
AcDbSpline
210
0.0
220
0.0
230
1.0
 70
    11
 71
     3
 72
    38
 73
    34
 74
     0
 42
0.0000000001
 43
0.0000000001
 40
0.0
 40
0.0
 40
0.0
 40
0.0
 40
1.0
 40
1.0
 40
1.0
 40
2.0
 40
2.0
 40
2.0
 40
3.0
 40
3.0
 40
3.0
 40
4.0
 40
4.0
 40
4.0
 40
5.0
 40
5.0
 40
5.0
 40
6.0
 40
6.0
 40
6.0
 40
7.0
 40
7.0
 40
7.0
 40
8.0
 40
8.0
 40
8.0
 40
9.0
 40
9.0
 40
9.0
 40
10.0
 40
10.0
 40
10.0
 40
11.0
 40
11.0
 40
11.0
 40
11.0
 10
376.4584261611663
 20
248.1456164837124
 30
0.0
 10
376.4584261611663
 20
248.1456164837124
 30
0.0
 10
377.581195386812
 20
248.1456164837124
 30
0.0
 10
377.581195386812
 20
248.1456164837124
 30
0.0
 10
377.581195386812
 20
248.1456164837124
 30
0.0
 10
377.581195386812
 20
251.1170534169907
 30
0.0
 10
377.581195386812
 20
251.1170534169907
 30
0.0
 10
377.581195386812
 20
251.1170534169907
 30
0.0
 10
376.6192552664612
 20
251.1170534169907
 30
0.0
 10
376.6192552664612
 20
251.1170534169907
 30
0.0
 10
376.6192552664612
 20
251.1170534169907
 30
0.0
 10
376.6192552664612
 20
251.8548731938436
 30
0.0
 10
376.6192552664612
 20
251.8548731938436
 30
0.0
 10
377.170235840128
 20
251.9595638378567
 30
0.0
 10
377.5335102073446
 20
252.0993681140231
 30
0.0
 10
377.893316561509
 20
252.3221879526262
 30
0.0
 10
377.893316561509
 20
252.3221879526262
 30
0.0
 10
378.7698568604502
 20
252.3221879526262
 30
0.0
 10
378.7698568604502
 20
252.3221879526262
 30
0.0
 10
378.7698568604502
 20
252.3221879526262
 30
0.0
 10
378.7698568604502
 20
248.1456164837124
 30
0.0
 10
378.7698568604502
 20
248.1456164837124
 30
0.0
 10
378.7698568604502
 20
248.1456164837124
 30
0.0
 10
379.731796980801
 20
248.1456164837124
 30
0.0
 10
379.731796980801
 20
248.1456164837124
 30
0.0
 10
379.731796980801
 20
248.1456164837124
 30
0.0
 10
379.731796980801
 20
247.1860606223347
 30
0.0
 10
379.731796980801
 20
247.1860606223347
 30
0.0
 10
379.731796980801
 20
247.1860606223347
 30
0.0
 10
376.4584261611663
 20
247.1860606223347
 30
0.0
 10
376.4584261611663
 20
247.1860606223347
 30
0.0
 10
376.4584261611663
 20
247.1860606223347
 30
0.0
 10
376.4584261611663
 20
248.1456164837124
 30
0.0
 10
376.4584261611663
 20
248.1456164837124
 30
0.0
  0
HATCH
  5
145
330
140
100
AcDbEntity
  8
Layer 1
 62
     5
100
AcDbHatch
 10
0.0
 20
0.0
 30
0.0
210
0.0
220
0.0
230
1.0
  2
SOLID
 70
     1
 71
     1
 91
        1
 92
        1
 93
        1
 72
     4
 94
        3
 73
     0
 74
     0
 95
       38
 96
       34
 40
0.0
 40
0.0
 40
0.0
 40
0.0
 40
1.0
 40
1.0
 40
1.0
 40
2.0
 40
2.0
 40
2.0
 40
3.0
 40
3.0
 40
3.0
 40
4.0
 40
4.0
 40
4.0
 40
5.0
 40
5.0
 40
5.0
 40
6.0
 40
6.0
 40
6.0
 40
7.0
 40
7.0
 40
7.0
 40
8.0
 40
8.0
 40
8.0
 40
9.0
 40
9.0
 40
9.0
 40
10.0
 40
10.0
 40
10.0
 40
11.0
 40
11.0
 40
11.0
 40
11.0
 10
376.4584261611663
 20
248.1456164837124
 10
376.4584261611663
 20
248.1456164837124
 10
377.581195386812
 20
248.1456164837124
 10
377.581195386812
 20
248.1456164837124
 10
377.581195386812
 20
248.1456164837124
 10
377.581195386812
 20
251.1170534169907
 10
377.581195386812
 20
251.1170534169907
 10
377.581195386812
 20
251.1170534169907
 10
376.6192552664612
 20
251.1170534169907
 10
376.6192552664612
 20
251.1170534169907
 10
376.6192552664612
 20
251.1170534169907
 10
376.6192552664612
 20
251.8548731938436
 10
376.6192552664612
 20
251.8548731938436
 10
377.170235840128
 20
251.9595638378567
 10
377.5335102073446
 20
252.0993681140231
 10
377.893316561509
 20
252.3221879526262
 10
377.893316561509
 20
252.3221879526262
 10
378.7698568604502
 20
252.3221879526262
 10
378.7698568604502
 20
252.3221879526262
 10
378.7698568604502
 20
252.3221879526262
 10
378.7698568604502
 20
248.1456164837124
 10
378.7698568604502
 20
248.1456164837124
 10
378.7698568604502
 20
248.1456164837124
 10
379.731796980801
 20
248.1456164837124
 10
379.731796980801
 20
248.1456164837124
 10
379.731796980801
 20
248.1456164837124
 10
379.731796980801
 20
247.1860606223347
 10
379.731796980801
 20
247.1860606223347
 10
379.731796980801
 20
247.1860606223347
 10
376.4584261611663
 20
247.1860606223347
 10
376.4584261611663
 20
247.1860606223347
 10
376.4584261611663
 20
247.1860606223347
 10
376.4584261611663
 20
248.1456164837124
 10
376.4584261611663
 20
248.1456164837124
 97
        1
330
144
 75
     2
 76
     1
 98
        1
 10
0.0
 20
0.0
  0
SPLINE
  5
146
330
140
100
AcDbEntity
  8
Layer 1
100
AcDbSpline
210
0.0
220
0.0
230
1.0
 70
     9
 71
     3
 72
    17
 73
    13
 74
     0
 42
0.0000000001
 43
0.0000000001
 40
0.0
 40
0.0
 40
0.0
 40
0.0
 40
1.0
 40
1.0
 40
1.0
 40
2.0
 40
2.0
 40
2.0
 40
3.0
 40
3.0
 40
3.0
 40
4.0
 40
4.0
 40
4.0
 40
4.0
 10
383.0125373281713
 20
249.7768831231356
 30
0.0
 10
383.0125373281713
 20
251.1783938978513
 30
0.0
 10
382.7004161534743
 20
251.4996186068101
 30
0.0
 10
382.3002941475779
 20
251.4996186068101
 30
0.0
 10
381.8997386400499
 20
251.4996186068101
 30
0.0
 10
381.5876174653529
 20
251.1783938978513
 30
0.0
 10
381.5876174653529
 20
249.7768831231356
 30
0.0
 10
381.5876174653529
 20
248.3755890992355
 30
0.0
 10
381.8997386400499
 20
248.008413217335
 30
0.0
 10
382.3002941475779
 20
248.008413217335
 30
0.0
 10
382.7004161534743
 20
248.008413217335
 30
0.0
 10
383.0125373281713
 20
248.3755890992355
 30
0.0
 10
383.0125373281713
 20
249.7768831231356
 30
0.0
  0
SPLINE
  5
147
330
140
100
AcDbEntity
  8
Layer 1
100
AcDbSpline
210
0.0
220
0.0
230
1.0
 70
     9
 71
     3
 72
    17
 73
    13
 74
     0
 42
0.0000000001
 43
0.0000000001
 40
0.0
 40
0.0
 40
0.0
 40
0.0
 40
1.0
 40
1.0
 40
1.0
 40
2.0
 40
2.0
 40
2.0
 40
3.0
 40
3.0
 40
3.0
 40
4.0
 40
4.0
 40
4.0
 40
4.0
 10
380.4626807315498
 20
249.7768831231356
 30
0.0
 10
380.4626807315498
 20
251.5247617014387
 30
0.0
 10
381.1961654920875
 20
252.4190755672716
 30
0.0
 10
382.3002941475779
 20
252.4190755672716
 30
0.0
 10
383.4039893014367
 20
252.4190755672716
 30
0.0
 10
384.1374740619751
 20
251.51804242615
 30
0.0
 10
384.1374740619751
 20
249.7768831231356
 30
0.0
 10
384.1374740619751
 20
248.0290045448323
 30
0.0
 10
383.4039893014367
 20
247.0889562568735
 30
0.0
 10
382.3002941475779
 20
247.0889562568735
 30
0.0
 10
381.1961654920875
 20
247.0889562568735
 30
0.0
 10
380.4626807315498
 20
248.0290045448323
 30
0.0
 10
380.4626807315498
 20
249.7768831231356
 30
0.0
  0
HATCH
  5
148
330
140
100
AcDbEntity
  8
Layer 1
 62
     5
100
AcDbHatch
 10
0.0
 20
0.0
 30
0.0
210
0.0
220
0.0
230
1.0
  2
SOLID
 70
     1
 71
     1
 91
        2
 92
        1
 93
        1
 72
     4
 94
        3
 73
     0
 74
     0
 95
       17
 96
       13
 40
0.0
 40
0.0
 40
0.0
 40
0.0
 40
1.0
 40
1.0
 40
1.0
 40
2.0
 40
2.0
 40
2.0
 40
3.0
 40
3.0
 40
3.0
 40
4.0
 40
4.0
 40
4.0
 40
4.0
 10
383.0125373281713
 20
249.7768831231356
 10
383.0125373281713
 20
251.1783938978513
 10
382.7004161534743
 20
251.4996186068101
 10
382.3002941475779
 20
251.4996186068101
 10
381.8997386400499
 20
251.4996186068101
 10
381.5876174653529
 20
251.1783938978513
 10
381.5876174653529
 20
249.7768831231356
 10
381.5876174653529
 20
248.3755890992355
 10
381.8997386400499
 20
248.008413217335
 10
382.3002941475779
 20
248.008413217335
 10
382.7004161534743
 20
248.008413217335
 10
383.0125373281713
 20
248.3755890992355
 10
383.0125373281713
 20
249.7768831231356
 97
        1
330
146
 92
        1
 93
        1
 72
     4
 94
        3
 73
     0
 74
     0
 95
       17
 96
       13
 40
0.0
 40
0.0
 40
0.0
 40
0.0
 40
1.0
 40
1.0
 40
1.0
 40
2.0
 40
2.0
 40
2.0
 40
3.0
 40
3.0
 40
3.0
 40
4.0
 40
4.0
 40
4.0
 40
4.0
 10
380.4626807315498
 20
249.7768831231356
 10
380.4626807315498
 20
251.5247617014387
 10
381.1961654920875
 20
252.4190755672716
 10
382.3002941475779
 20
252.4190755672716
 10
383.4039893014367
 20
252.4190755672716
 10
384.1374740619751
 20
251.51804242615
 10
384.1374740619751
 20
249.7768831231356
 10
384.1374740619751
 20
248.0290045448323
 10
383.4039893014367
 20
247.0889562568735
 10
382.3002941475779
 20
247.0889562568735
 10
381.1961654920875
 20
247.0889562568735
 10
380.4626807315498
 20
248.0290045448323
 10
380.4626807315498
 20
249.7768831231356
 97
        1
330
147
 75
     2
 76
     1
 98
        1
 10
0.0
 20
0.0
  0
SPLINE
  5
149
330
140
100
AcDbEntity
  8
Layer 1
100
AcDbSpline
210
0.0
220
0.0
230
1.0
 70
     9
 71
     3
 72
    17
 73
    13
 74
     0
 42
0.0000000001
 43
0.0000000001
 40
0.0
 40
0.0
 40
0.0
 40
0.0
 40
1.0
 40
1.0
 40
1.0
 40
2.0
 40
2.0
 40
2.0
 40
3.0
 40
3.0
 40
3.0
 40
4.0
 40
4.0
 40
4.0
 40
4.0
 10
387.2807943921522
 20
249.7768831231356
 30
0.0
 10
387.2807943921522
 20
251.1783938978513
 30
0.0
 10
386.9686732174551
 20
251.4996186068101
 30
0.0
 10
386.5685512115588
 20
251.4996186068101
 30
0.0
 10
386.1679957040315
 20
251.4996186068101
 30
0.0
 10
385.8558745293345
 20
251.1783938978513
 30
0.0
 10
385.8558745293345
 20
249.7768831231356
 30
0.0
 10
385.8558745293345
 20
248.3755890992355
 30
0.0
 10
386.1679957040315
 20
248.008413217335
 30
0.0
 10
386.5685512115588
 20
248.008413217335
 30
0.0
 10
386.9686732174551
 20
248.008413217335
 30
0.0
 10
387.2807943921522
 20
248.3755890992355
 30
0.0
 10
387.2807943921522
 20
249.7768831231356
 30
0.0
  0
SPLINE
  5
14A
330
140
100
AcDbEntity
  8
Layer 1
100
AcDbSpline
210
0.0
220
0.0
230
1.0
 70
     9
 71
     3
 72
    17
 73
    13
 74
     0
 42
0.0000000001
 43
0.0000000001
 40
0.0
 40
0.0
 40
0.0
 40
0.0
 40
1.0
 40
1.0
 40
1.0
 40
2.0
 40
2.0
 40
2.0
 40
3.0
 40
3.0
 40
3.0
 40
4.0
 40
4.0
 40
4.0
 40
4.0
 10
384.7309377955306
 20
249.7768831231356
 30
0.0
 10
384.7309377955306
 20
251.5247617014387
 30
0.0
 10
385.4644225560684
 20
252.4190755672716
 30
0.0
 10
386.5685512115588
 20
252.4190755672716
 30
0.0
 10
387.6722463654183
 20
252.4190755672716
 30
0.0
 10
388.405731125956
 20
251.51804242615
 30
0.0
 10
388.405731125956
 20
249.7768831231356
 30
0.0
 10
388.405731125956
 20
248.0290045448323
 30
0.0
 10
387.6722463654183
 20
247.0889562568735
 30
0.0
 10
386.5685512115588
 20
247.0889562568735
 30
0.0
 10
385.4644225560684
 20
247.0889562568735
 30
0.0
 10
384.7309377955306
 20
248.0290045448323
 30
0.0
 10
384.7309377955306
 20
249.7768831231356
 30
0.0
  0
HATCH
  5
14B
330
140
100
AcDbEntity
  8
Layer 1
 62
     5
100
AcDbHatch
 10
0.0
 20
0.0
 30
0.0
210
0.0
220
0.0
230
1.0
  2
SOLID
 70
     1
 71
     1
 91
        2
 92
        1
 93
        1
 72
     4
 94
        3
 73
     0
 74
     0
 95
       17
 96
       13
 40
0.0
 40
0.0
 40
0.0
 40
0.0
 40
1.0
 40
1.0
 40
1.0
 40
2.0
 40
2.0
 40
2.0
 40
3.0
 40
3.0
 40
3.0
 40
4.0
 40
4.0
 40
4.0
 40
4.0
 10
387.2807943921522
 20
249.7768831231356
 10
387.2807943921522
 20
251.1783938978513
 10
386.9686732174551
 20
251.4996186068101
 10
386.5685512115588
 20
251.4996186068101
 10
386.1679957040315
 20
251.4996186068101
 10
385.8558745293345
 20
251.1783938978513
 10
385.8558745293345
 20
249.7768831231356
 10
385.8558745293345
 20
248.3755890992355
 10
386.1679957040315
 20
248.008413217335
 10
386.5685512115588
 20
248.008413217335
 10
386.9686732174551
 20
248.008413217335
 10
387.2807943921522
 20
248.3755890992355
 10
387.2807943921522
 20
249.7768831231356
 97
        1
330
149
 92
        1
 93
        1
 72
     4
 94
        3
 73
     0
 74
     0
 95
       17
 96
       13
 40
0.0
 40
0.0
 40
0.0
 40
0.0
 40
1.0
 40
1.0
 40
1.0
 40
2.0
 40
2.0
 40
2.0
 40
3.0
 40
3.0
 40
3.0
 40
4.0
 40
4.0
 40
4.0
 40
4.0
 10
384.7309377955306
 20
249.7768831231356
 10
384.7309377955306
 20
251.5247617014387
 10
385.4644225560684
 20
252.4190755672716
 10
386.5685512115588
 20
252.4190755672716
 10
387.6722463654183
 20
252.4190755672716
 10
388.405731125956
 20
251.51804242615
 10
388.405731125956
 20
249.7768831231356
 10
388.405731125956
 20
248.0290045448323
 10
387.6722463654183
 20
247.0889562568735
 10
386.5685512115588
 20
247.0889562568735
 10
385.4644225560684
 20
247.0889562568735
 10
384.7309377955306
 20
248.0290045448323
 10
384.7309377955306
 20
249.7768831231356
 97
        1
330
14A
 75
     2
 76
     1
 98
        1
 10
0.0
 20
0.0
  0
SPLINE
  5
14C
330
140
100
AcDbEntity
  8
Layer 1
100
AcDbSpline
210
0.0
220
0.0
230
1.0
 70
    11
 71
     3
 72
    65
 73
    61
 74
     0
 42
0.0000000001
 43
0.0000000001
 40
0.0
 40
0.0
 40
0.0
 40
0.0
 40
1.0
 40
1.0
 40
1.0
 40
2.0
 40
2.0
 40
2.0
 40
3.0
 40
3.0
 40
3.0
 40
4.0
 40
4.0
 40
4.0
 40
5.0
 40
5.0
 40
5.0
 40
6.0
 40
6.0
 40
6.0
 40
7.0
 40
7.0
 40
7.0
 40
8.0
 40
8.0
 40
8.0
 40
9.0
 40
9.0
 40
9.0
 40
10.0
 40
10.0
 40
10.0
 40
11.0
 40
11.0
 40
11.0
 40
12.0
 40
12.0
 40
12.0
 40
13.0
 40
13.0
 40
13.0
 40
14.0
 40
14.0
 40
14.0
 40
15.0
 40
15.0
 40
15.0
 40
16.0
 40
16.0
 40
16.0
 40
17.0
 40
17.0
 40
17.0
 40
18.0
 40
18.0
 40
18.0
 40
19.0
 40
19.0
 40
19.0
 40
20.0
 40
20.0
 40
20.0
 40
20.0
 10
389.2250492095357
 20
251.1985517237169
 30
0.0
 10
389.2250492095357
 20
251.1985517237169
 30
0.0
 10
390.1947923592535
 20
251.1985517237169
 30
0.0
 10
390.1947923592535
 20
251.1985517237169
 30
0.0
 10
390.1947923592535
 20
251.1985517237169
 30
0.0
 10
390.2806256822955
 20
250.6837685362827
 30
0.0
 10
390.2806256822955
 20
250.6837685362827
 30
0.0
 10
390.2806256822955
 20
250.6837685362827
 30
0.0
 10
390.3101037932391
 20
250.6837685362827
 30
0.0
 10
390.3101037932391
 20
250.6837685362827
 30
0.0
 10
390.6391315315657
 20
251.014963782767
 30
0.0
 10
390.9989378857301
 20
251.2954393383626
 30
0.0
 10
391.5260758696629
 20
251.2954393383626
 30
0.0
 10
392.0900614922748
 20
251.2954393383626
 30
0.0
 10
392.4307937746523
 20
251.0520281722622
 30
0.0
 10
392.6336725382056
 20
250.6200437964487
 30
0.0
 10
392.9865428662655
 20
250.9883034324281
 30
0.0
 10
393.3632557840594
 20
251.2954393383626
 30
0.0
 10
393.8934282794129
 20
251.2954393383626
 30
0.0
 10
394.759998040829
 20
251.2954393383626
 30
0.0
 10
395.1484155026738
 20
250.6798670215992
 30
0.0
 10
395.1484155026738
 20
249.6769609970693
 30
0.0
 10
395.1484155026738
 20
249.6769609970693
 30
0.0
 10
395.1484155026738
 20
247.1860606223347
 30
0.0
 10
395.1484155026738
 20
247.1860606223347
 30
0.0
 10
395.1484155026738
 20
247.1860606223347
 30
0.0
 10
393.9593205274046
 20
247.1860606223347
 30
0.0
 10
393.9593205274046
 20
247.1860606223347
 30
0.0
 10
393.9593205274046
 20
247.1860606223347
 30
0.0
 10
393.9593205274046
 20
249.5248019244046
 30
0.0
 10
393.9593205274046
 20
249.5248019244046
 30
0.0
 10
393.9593205274046
 20
250.1022260975938
 30
0.0
 10
393.8015259335297
 20
250.2827795271235
 30
0.0
 10
393.4638281625729
 20
250.2827795271235
 30
0.0
 10
393.2622499039144
 20
250.2827795271235
 30
0.0
 10
393.0342280457336
 20
250.1572808047973
 30
0.0
 10
392.7810630929232
 20
249.892844809568
 30
0.0
 10
392.7810630929232
 20
249.892844809568
 30
0.0
 10
392.7810630929232
 20
247.1860606223347
 30
0.0
 10
392.7810630929232
 20
247.1860606223347
 30
0.0
 10
392.7810630929232
 20
247.1860606223347
 30
0.0
 10
391.5924016192856
 20
247.1860606223347
 30
0.0
 10
391.5924016192856
 20
247.1860606223347
 30
0.0
 10
391.5924016192856
 20
247.1860606223347
 30
0.0
 10
391.5924016192856
 20
249.5248019244046
 30
0.0
 10
391.5924016192856
 20
249.5248019244046
 30
0.0
 10
391.5924016192856
 20
250.1022260975938
 30
0.0
 10
391.4341735237798
 20
250.2827795271235
 30
0.0
 10
391.0969092544545
 20
250.2827795271235
 30
0.0
 10
390.8979320055851
 20
250.2827795271235
 30
0.0
 10
390.6668756359829
 20
250.1572808047973
 30
0.0
 10
390.4137106831732
 20
249.892844809568
 30
0.0
 10
390.4137106831732
 20
249.892844809568
 30
0.0
 10
390.4137106831732
 20
247.1860606223347
 30
0.0
 10
390.4137106831732
 20
247.1860606223347
 30
0.0
 10
390.4137106831732
 20
247.1860606223347
 30
0.0
 10
389.2250492095357
 20
247.1860606223347
 30
0.0
 10
389.2250492095357
 20
247.1860606223347
 30
0.0
 10
389.2250492095357
 20
247.1860606223347
 30
0.0
 10
389.2250492095357
 20
251.1985517237169
 30
0.0
 10
389.2250492095357
 20
251.1985517237169
 30
0.0
  0
HATCH
  5
14D
330
140
100
AcDbEntity
  8
Layer 1
 62
     5
100
AcDbHatch
 10
0.0
 20
0.0
 30
0.0
210
0.0
220
0.0
230
1.0
  2
SOLID
 70
     1
 71
     1
 91
        1
 92
        1
 93
        1
 72
     4
 94
        3
 73
     0
 74
     0
 95
       65
 96
       61
 40
0.0
 40
0.0
 40
0.0
 40
0.0
 40
1.0
 40
1.0
 40
1.0
 40
2.0
 40
2.0
 40
2.0
 40
3.0
 40
3.0
 40
3.0
 40
4.0
 40
4.0
 40
4.0
 40
5.0
 40
5.0
 40
5.0
 40
6.0
 40
6.0
 40
6.0
 40
7.0
 40
7.0
 40
7.0
 40
8.0
 40
8.0
 40
8.0
 40
9.0
 40
9.0
 40
9.0
 40
10.0
 40
10.0
 40
10.0
 40
11.0
 40
11.0
 40
11.0
 40
12.0
 40
12.0
 40
12.0
 40
13.0
 40
13.0
 40
13.0
 40
14.0
 40
14.0
 40
14.0
 40
15.0
 40
15.0
 40
15.0
 40
16.0
 40
16.0
 40
16.0
 40
17.0
 40
17.0
 40
17.0
 40
18.0
 40
18.0
 40
18.0
 40
19.0
 40
19.0
 40
19.0
 40
20.0
 40
20.0
 40
20.0
 40
20.0
 10
389.2250492095357
 20
251.1985517237169
 10
389.2250492095357
 20
251.1985517237169
 10
390.1947923592535
 20
251.1985517237169
 10
390.1947923592535
 20
251.1985517237169
 10
390.1947923592535
 20
251.1985517237169
 10
390.2806256822955
 20
250.6837685362827
 10
390.2806256822955
 20
250.6837685362827
 10
390.2806256822955
 20
250.6837685362827
 10
390.3101037932391
 20
250.6837685362827
 10
390.3101037932391
 20
250.6837685362827
 10
390.6391315315657
 20
251.014963782767
 10
390.9989378857301
 20
251.2954393383626
 10
391.5260758696629
 20
251.2954393383626
 10
392.0900614922748
 20
251.2954393383626
 10
392.4307937746523
 20
251.0520281722622
 10
392.6336725382056
 20
250.6200437964487
 10
392.9865428662655
 20
250.9883034324281
 10
393.3632557840594
 20
251.2954393383626
 10
393.8934282794129
 20
251.2954393383626
 10
394.759998040829
 20
251.2954393383626
 10
395.1484155026738
 20
250.6798670215992
 10
395.1484155026738
 20
249.6769609970693
 10
395.1484155026738
 20
249.6769609970693
 10
395.1484155026738
 20
247.1860606223347
 10
395.1484155026738
 20
247.1860606223347
 10
395.1484155026738
 20
247.1860606223347
 10
393.9593205274046
 20
247.1860606223347
 10
393.9593205274046
 20
247.1860606223347
 10
393.9593205274046
 20
247.1860606223347
 10
393.9593205274046
 20
249.5248019244046
 10
393.9593205274046
 20
249.5248019244046
 10
393.9593205274046
 20
250.1022260975938
 10
393.8015259335297
 20
250.2827795271235
 10
393.4638281625729
 20
250.2827795271235
 10
393.2622499039144
 20
250.2827795271235
 10
393.0342280457336
 20
250.1572808047973
 10
392.7810630929232
 20
249.892844809568
 10
392.7810630929232
 20
249.892844809568
 10
392.7810630929232
 20
247.1860606223347
 10
392.7810630929232
 20
247.1860606223347
 10
392.7810630929232
 20
247.1860606223347
 10
391.5924016192856
 20
247.1860606223347
 10
391.5924016192856
 20
247.1860606223347
 10
391.5924016192856
 20
247.1860606223347
 10
391.5924016192856
 20
249.5248019244046
 10
391.5924016192856
 20
249.5248019244046
 10
391.5924016192856
 20
250.1022260975938
 10
391.4341735237798
 20
250.2827795271235
 10
391.0969092544545
 20
250.2827795271235
 10
390.8979320055851
 20
250.2827795271235
 10
390.6668756359829
 20
250.1572808047973
 10
390.4137106831732
 20
249.892844809568
 10
390.4137106831732
 20
249.892844809568
 10
390.4137106831732
 20
247.1860606223347
 10
390.4137106831732
 20
247.1860606223347
 10
390.4137106831732
 20
247.1860606223347
 10
389.2250492095357
 20
247.1860606223347
 10
389.2250492095357
 20
247.1860606223347
 10
389.2250492095357
 20
247.1860606223347
 10
389.2250492095357
 20
251.1985517237169
 10
389.2250492095357
 20
251.1985517237169
 97
        1
330
14C
 75
     2
 76
     1
 98
        1
 10
0.0
 20
0.0
  0
SPLINE
  5
14E
330
140
100
AcDbEntity
  8
Layer 1
100
AcDbSpline
210
0.0
220
0.0
230
1.0
 70
    11
 71
     3
 72
    65
 73
    61
 74
     0
 42
0.0000000001
 43
0.0000000001
 40
0.0
 40
0.0
 40
0.0
 40
0.0
 40
1.0
 40
1.0
 40
1.0
 40
2.0
 40
2.0
 40
2.0
 40
3.0
 40
3.0
 40
3.0
 40
4.0
 40
4.0
 40
4.0
 40
5.0
 40
5.0
 40
5.0
 40
6.0
 40
6.0
 40
6.0
 40
7.0
 40
7.0
 40
7.0
 40
8.0
 40
8.0
 40
8.0
 40
9.0
 40
9.0
 40
9.0
 40
10.0
 40
10.0
 40
10.0
 40
11.0
 40
11.0
 40
11.0
 40
12.0
 40
12.0
 40
12.0
 40
13.0
 40
13.0
 40
13.0
 40
14.0
 40
14.0
 40
14.0
 40
15.0
 40
15.0
 40
15.0
 40
16.0
 40
16.0
 40
16.0
 40
17.0
 40
17.0
 40
17.0
 40
18.0
 40
18.0
 40
18.0
 40
19.0
 40
19.0
 40
19.0
 40
20.0
 40
20.0
 40
20.0
 40
20.0
 10
396.1537057861773
 20
251.1985517237169
 30
0.0
 10
396.1537057861773
 20
251.1985517237169
 30
0.0
 10
397.1234489358952
 20
251.1985517237169
 30
0.0
 10
397.1234489358952
 20
251.1985517237169
 30
0.0
 10
397.1234489358952
 20
251.1985517237169
 30
0.0
 10
397.2092822589371
 20
250.6837685362827
 30
0.0
 10
397.2092822589371
 20
250.6837685362827
 30
0.0
 10
397.2092822589371
 20
250.6837685362827
 30
0.0
 10
397.2387603698807
 20
250.6837685362827
 30
0.0
 10
397.2387603698807
 20
250.6837685362827
 30
0.0
 10
397.5677881082066
 20
251.014963782767
 30
0.0
 10
397.9275944623717
 20
251.2954393383626
 30
0.0
 10
398.4547324463039
 20
251.2954393383626
 30
0.0
 10
399.0187180689164
 20
251.2954393383626
 30
0.0
 10
399.3594503512938
 20
251.0520281722622
 30
0.0
 10
399.5623291148472
 20
250.6200437964487
 30
0.0
 10
399.9151994429071
 20
250.9883034324281
 30
0.0
 10
400.2919123607011
 20
251.2954393383626
 30
0.0
 10
400.8220848560545
 20
251.2954393383626
 30
0.0
 10
401.6886546174699
 20
251.2954393383626
 30
0.0
 10
402.0770720793154
 20
250.6798670215992
 30
0.0
 10
402.0770720793154
 20
249.6769609970693
 30
0.0
 10
402.0770720793154
 20
249.6769609970693
 30
0.0
 10
402.0770720793154
 20
247.1860606223347
 30
0.0
 10
402.0770720793154
 20
247.1860606223347
 30
0.0
 10
402.0770720793154
 20
247.1860606223347
 30
0.0
 10
400.8879771040462
 20
247.1860606223347
 30
0.0
 10
400.8879771040462
 20
247.1860606223347
 30
0.0
 10
400.8879771040462
 20
247.1860606223347
 30
0.0
 10
400.8879771040462
 20
249.5248019244046
 30
0.0
 10
400.8879771040462
 20
249.5248019244046
 30
0.0
 10
400.8879771040462
 20
250.1022260975938
 30
0.0
 10
400.7301825101713
 20
250.2827795271235
 30
0.0
 10
400.3924847392145
 20
250.2827795271235
 30
0.0
 10
400.190906480556
 20
250.2827795271235
 30
0.0
 10
399.9628846223745
 20
250.1572808047973
 30
0.0
 10
399.7097196695648
 20
249.892844809568
 30
0.0
 10
399.7097196695648
 20
249.892844809568
 30
0.0
 10
399.7097196695648
 20
247.1860606223347
 30
0.0
 10
399.7097196695648
 20
247.1860606223347
 30
0.0
 10
399.7097196695648
 20
247.1860606223347
 30
0.0
 10
398.5210581959273
 20
247.1860606223347
 30
0.0
 10
398.5210581959273
 20
247.1860606223347
 30
0.0
 10
398.5210581959273
 20
247.1860606223347
 30
0.0
 10
398.5210581959273
 20
249.5248019244046
 30
0.0
 10
398.5210581959273
 20
249.5248019244046
 30
0.0
 10
398.5210581959273
 20
250.1022260975938
 30
0.0
 10
398.3628301004213
 20
250.2827795271235
 30
0.0
 10
398.0255658310955
 20
250.2827795271235
 30
0.0
 10
397.8265885822267
 20
250.2827795271235
 30
0.0
 10
397.5955322126245
 20
250.1572808047973
 30
0.0
 10
397.3423672598148
 20
249.892844809568
 30
0.0
 10
397.3423672598148
 20
249.892844809568
 30
0.0
 10
397.3423672598148
 20
247.1860606223347
 30
0.0
 10
397.3423672598148
 20
247.1860606223347
 30
0.0
 10
397.3423672598148
 20
247.1860606223347
 30
0.0
 10
396.1537057861773
 20
247.1860606223347
 30
0.0
 10
396.1537057861773
 20
247.1860606223347
 30
0.0
 10
396.1537057861773
 20
247.1860606223347
 30
0.0
 10
396.1537057861773
 20
251.1985517237169
 30
0.0
 10
396.1537057861773
 20
251.1985517237169
 30
0.0
  0
HATCH
  5
14F
330
140
100
AcDbEntity
  8
Layer 1
 62
     5
100
AcDbHatch
 10
0.0
 20
0.0
 30
0.0
210
0.0
220
0.0
230
1.0
  2
SOLID
 70
     1
 71
     1
 91
        1
 92
        1
 93
        1
 72
     4
 94
        3
 73
     0
 74
     0
 95
       65
 96
       61
 40
0.0
 40
0.0
 40
0.0
 40
0.0
 40
1.0
 40
1.0
 40
1.0
 40
2.0
 40
2.0
 40
2.0
 40
3.0
 40
3.0
 40
3.0
 40
4.0
 40
4.0
 40
4.0
 40
5.0
 40
5.0
 40
5.0
 40
6.0
 40
6.0
 40
6.0
 40
7.0
 40
7.0
 40
7.0
 40
8.0
 40
8.0
 40
8.0
 40
9.0
 40
9.0
 40
9.0
 40
10.0
 40
10.0
 40
10.0
 40
11.0
 40
11.0
 40
11.0
 40
12.0
 40
12.0
 40
12.0
 40
13.0
 40
13.0
 40
13.0
 40
14.0
 40
14.0
 40
14.0
 40
15.0
 40
15.0
 40
15.0
 40
16.0
 40
16.0
 40
16.0
 40
17.0
 40
17.0
 40
17.0
 40
18.0
 40
18.0
 40
18.0
 40
19.0
 40
19.0
 40
19.0
 40
20.0
 40
20.0
 40
20.0
 40
20.0
 10
396.1537057861773
 20
251.1985517237169
 10
396.1537057861773
 20
251.1985517237169
 10
397.1234489358952
 20
251.1985517237169
 10
397.1234489358952
 20
251.1985517237169
 10
397.1234489358952
 20
251.1985517237169
 10
397.2092822589371
 20
250.6837685362827
 10
397.2092822589371
 20
250.6837685362827
 10
397.2092822589371
 20
250.6837685362827
 10
397.2387603698807
 20
250.6837685362827
 10
397.2387603698807
 20
250.6837685362827
 10
397.5677881082066
 20
251.014963782767
 10
397.9275944623717
 20
251.2954393383626
 10
398.4547324463039
 20
251.2954393383626
 10
399.0187180689164
 20
251.2954393383626
 10
399.3594503512938
 20
251.0520281722622
 10
399.5623291148472
 20
250.6200437964487
 10
399.9151994429071
 20
250.9883034324281
 10
400.2919123607011
 20
251.2954393383626
 10
400.8220848560545
 20
251.2954393383626
 10
401.6886546174699
 20
251.2954393383626
 10
402.0770720793154
 20
250.6798670215992
 10
402.0770720793154
 20
249.6769609970693
 10
402.0770720793154
 20
249.6769609970693
 10
402.0770720793154
 20
247.1860606223347
 10
402.0770720793154
 20
247.1860606223347
 10
402.0770720793154
 20
247.1860606223347
 10
400.8879771040462
 20
247.1860606223347
 10
400.8879771040462
 20
247.1860606223347
 10
400.8879771040462
 20
247.1860606223347
 10
400.8879771040462
 20
249.5248019244046
 10
400.8879771040462
 20
249.5248019244046
 10
400.8879771040462
 20
250.1022260975938
 10
400.7301825101713
 20
250.2827795271235
 10
400.3924847392145
 20
250.2827795271235
 10
400.190906480556
 20
250.2827795271235
 10
399.9628846223745
 20
250.1572808047973
 10
399.7097196695648
 20
249.892844809568
 10
399.7097196695648
 20
249.892844809568
 10
399.7097196695648
 20
247.1860606223347
 10
399.7097196695648
 20
247.1860606223347
 10
399.7097196695648
 20
247.1860606223347
 10
398.5210581959273
 20
247.1860606223347
 10
398.5210581959273
 20
247.1860606223347
 10
398.5210581959273
 20
247.1860606223347
 10
398.5210581959273
 20
249.5248019244046
 10
398.5210581959273
 20
249.5248019244046
 10
398.5210581959273
 20
250.1022260975938
 10
398.3628301004213
 20
250.2827795271235
 10
398.0255658310955
 20
250.2827795271235
 10
397.8265885822267
 20
250.2827795271235
 10
397.5955322126245
 20
250.1572808047973
 10
397.3423672598148
 20
249.892844809568
 10
397.3423672598148
 20
249.892844809568
 10
397.3423672598148
 20
247.1860606223347
 10
397.3423672598148
 20
247.1860606223347
 10
397.3423672598148
 20
247.1860606223347
 10
396.1537057861773
 20
247.1860606223347
 10
396.1537057861773
 20
247.1860606223347
 10
396.1537057861773
 20
247.1860606223347
 10
396.1537057861773
 20
251.1985517237169
 10
396.1537057861773
 20
251.1985517237169
 97
        1
330
14E
 75
     2
 76
     1
 98
        1
 10
0.0
 20
0.0
  0
SPLINE
  5
150
330
140
100
AcDbEntity
  8
Layer 1
100
AcDbSpline
210
0.0
220
0.0
230
1.0
 70
    11
 71
     3
 72
    59
 73
    55
 74
     0
 42
0.0000000001
 43
0.0000000001
 40
0.0
 40
0.0
 40
0.0
 40
0.0
 40
1.0
 40
1.0
 40
1.0
 40
2.0
 40
2.0
 40
2.0
 40
3.0
 40
3.0
 40
3.0
 40
4.0
 40
4.0
 40
4.0
 40
5.0
 40
5.0
 40
5.0
 40
6.0
 40
6.0
 40
6.0
 40
7.0
 40
7.0
 40
7.0
 40
8.0
 40
8.0
 40
8.0
 40
9.0
 40
9.0
 40
9.0
 40
10.0
 40
10.0
 40
10.0
 40
11.0
 40
11.0
 40
11.0
 40
12.0
 40
12.0
 40
12.0
 40
13.0
 40
13.0
 40
13.0
 40
14.0
 40
14.0
 40
14.0
 40
15.0
 40
15.0
 40
15.0
 40
16.0
 40
16.0
 40
16.0
 40
17.0
 40
17.0
 40
17.0
 40
18.0
 40
18.0
 40
18.0
 40
18.0
 10
405.5221095450328
 20
249.2746714830155
 30
0.0
 10
405.5221095450328
 20
249.2746714830155
 30
0.0
 10
404.3620591790756
 20
251.1985517237169
 30
0.0
 10
404.3620591790756
 20
251.1985517237169
 30
0.0
 10
404.3620591790756
 20
251.1985517237169
 30
0.0
 10
405.6365539757551
 20
251.1985517237169
 30
0.0
 10
405.6365539757551
 20
251.1985517237169
 30
0.0
 10
405.6365539757551
 20
251.1985517237169
 30
0.0
 10
405.9933258184989
 20
250.5498165321421
 30
0.0
 10
405.9933258184989
 20
250.5498165321421
 30
0.0
 10
406.1025682296432
 20
250.326129690276
 30
0.0
 10
406.2217811783121
 20
250.0892210486481
 30
0.0
 10
406.334058100877
 20
249.8657509575979
 30
0.0
 10
406.334058100877
 20
249.8657509575979
 30
0.0
 10
406.3661372216097
 20
249.8657509575979
 30
0.0
 10
406.3661372216097
 20
249.8657509575979
 30
0.0
 10
406.451970544651
 20
250.0892210486481
 30
0.0
 10
406.5547104313224
 20
250.326129690276
 30
0.0
 10
406.6401102527321
 20
250.5498165321421
 30
0.0
 10
406.6401102527321
 20
250.5498165321421
 30
0.0
 10
406.9140832838552
 20
251.1985517237169
 30
0.0
 10
406.9140832838552
 20
251.1985517237169
 30
0.0
 10
406.9140832838552
 20
251.1985517237169
 30
0.0
 10
408.1456614190138
 20
251.1985517237169
 30
0.0
 10
408.1456614190138
 20
251.1985517237169
 30
0.0
 10
408.1456614190138
 20
251.1985517237169
 30
0.0
 10
406.9860445546883
 20
249.1385519707169
 30
0.0
 10
406.9860445546883
 20
249.1385519707169
 30
0.0
 10
406.9860445546883
 20
249.1385519707169
 30
0.0
 10
408.2189231947416
 20
247.1860606223347
 30
0.0
 10
408.2189231947416
 20
247.1860606223347
 30
0.0
 10
408.2189231947416
 20
247.1860606223347
 30
0.0
 10
406.9444283980621
 20
247.1860606223347
 30
0.0
 10
406.9444283980621
 20
247.1860606223347
 30
0.0
 10
406.9444283980621
 20
247.1860606223347
 30
0.0
 10
406.5499419133754
 20
247.8491013677501
 30
0.0
 10
406.5499419133754
 20
247.8491013677501
 30
0.0
 10
406.4242264402337
 20
248.0782069800103
 30
0.0
 10
406.3024124817753
 20
248.3209678936636
 30
0.0
 10
406.1740959988446
 20
248.5474724961346
 30
0.0
 10
406.1740959988446
 20
248.5474724961346
 30
0.0
 10
406.1415833764804
 20
248.5474724961346
 30
0.0
 10
406.1415833764804
 20
248.5474724961346
 30
0.0
 10
406.0397104930721
 20
248.3209678936636
 30
0.0
 10
405.9343695966116
 20
248.084926255299
 30
0.0
 10
405.832496713204
 20
247.8491013677501
 30
0.0
 10
405.832496713204
 20
247.8491013677501
 30
0.0
 10
405.520375538507
 20
247.1860606223347
 30
0.0
 10
405.520375538507
 20
247.1860606223347
 30
0.0
 10
405.520375538507
 20
247.1860606223347
 30
0.0
 10
404.2887974033485
 20
247.1860606223347
 30
0.0
 10
404.2887974033485
 20
247.1860606223347
 30
0.0
 10
404.2887974033485
 20
247.1860606223347
 30
0.0
 10
405.5221095450328
 20
249.2746714830155
 30
0.0
 10
405.5221095450328
 20
249.2746714830155
 30
0.0
  0
HATCH
  5
151
330
140
100
AcDbEntity
  8
Layer 1
 62
     5
100
AcDbHatch
 10
0.0
 20
0.0
 30
0.0
210
0.0
220
0.0
230
1.0
  2
SOLID
 70
     1
 71
     1
 91
        1
 92
        1
 93
        1
 72
     4
 94
        3
 73
     0
 74
     0
 95
       59
 96
       55
 40
0.0
 40
0.0
 40
0.0
 40
0.0
 40
1.0
 40
1.0
 40
1.0
 40
2.0
 40
2.0
 40
2.0
 40
3.0
 40
3.0
 40
3.0
 40
4.0
 40
4.0
 40
4.0
 40
5.0
 40
5.0
 40
5.0
 40
6.0
 40
6.0
 40
6.0
 40
7.0
 40
7.0
 40
7.0
 40
8.0
 40
8.0
 40
8.0
 40
9.0
 40
9.0
 40
9.0
 40
10.0
 40
10.0
 40
10.0
 40
11.0
 40
11.0
 40
11.0
 40
12.0
 40
12.0
 40
12.0
 40
13.0
 40
13.0
 40
13.0
 40
14.0
 40
14.0
 40
14.0
 40
15.0
 40
15.0
 40
15.0
 40
16.0
 40
16.0
 40
16.0
 40
17.0
 40
17.0
 40
17.0
 40
18.0
 40
18.0
 40
18.0
 40
18.0
 10
405.5221095450328
 20
249.2746714830155
 10
405.5221095450328
 20
249.2746714830155
 10
404.3620591790756
 20
251.1985517237169
 10
404.3620591790756
 20
251.1985517237169
 10
404.3620591790756
 20
251.1985517237169
 10
405.6365539757551
 20
251.1985517237169
 10
405.6365539757551
 20
251.1985517237169
 10
405.6365539757551
 20
251.1985517237169
 10
405.9933258184989
 20
250.5498165321421
 10
405.9933258184989
 20
250.5498165321421
 10
406.1025682296432
 20
250.326129690276
 10
406.2217811783121
 20
250.0892210486481
 10
406.334058100877
 20
249.8657509575979
 10
406.334058100877
 20
249.8657509575979
 10
406.3661372216097
 20
249.8657509575979
 10
406.3661372216097
 20
249.8657509575979
 10
406.451970544651
 20
250.0892210486481
 10
406.5547104313224
 20
250.326129690276
 10
406.6401102527321
 20
250.5498165321421
 10
406.6401102527321
 20
250.5498165321421
 10
406.9140832838552
 20
251.1985517237169
 10
406.9140832838552
 20
251.1985517237169
 10
406.9140832838552
 20
251.1985517237169
 10
408.1456614190138
 20
251.1985517237169
 10
408.1456614190138
 20
251.1985517237169
 10
408.1456614190138
 20
251.1985517237169
 10
406.9860445546883
 20
249.1385519707169
 10
406.9860445546883
 20
249.1385519707169
 10
406.9860445546883
 20
249.1385519707169
 10
408.2189231947416
 20
247.1860606223347
 10
408.2189231947416
 20
247.1860606223347
 10
408.2189231947416
 20
247.1860606223347
 10
406.9444283980621
 20
247.1860606223347
 10
406.9444283980621
 20
247.1860606223347
 10
406.9444283980621
 20
247.1860606223347
 10
406.5499419133754
 20
247.8491013677501
 10
406.5499419133754
 20
247.8491013677501
 10
406.4242264402337
 20
248.0782069800103
 10
406.3024124817753
 20
248.3209678936636
 10
406.1740959988446
 20
248.5474724961346
 10
406.1740959988446
 20
248.5474724961346
 10
406.1415833764804
 20
248.5474724961346
 10
406.1415833764804
 20
248.5474724961346
 10
406.0397104930721
 20
248.3209678936636
 10
405.9343695966116
 20
248.084926255299
 10
405.832496713204
 20
247.8491013677501
 10
405.832496713204
 20
247.8491013677501
 10
405.520375538507
 20
247.1860606223347
 10
405.520375538507
 20
247.1860606223347
 10
405.520375538507
 20
247.1860606223347
 10
404.2887974033485
 20
247.1860606223347
 10
404.2887974033485
 20
247.1860606223347
 10
404.2887974033485
 20
247.1860606223347
 10
405.5221095450328
 20
249.2746714830155
 10
405.5221095450328
 20
249.2746714830155
 97
        1
330
150
 75
     2
 76
     1
 98
        1
 10
0.0
 20
0.0
  0
SPLINE
  5
152
330
140
100
AcDbEntity
  8
Layer 1
100
AcDbSpline
210
0.0
220
0.0
230
1.0
 70
    11
 71
     3
 72
    38
 73
    34
 74
     0
 42
0.0000000001
 43
0.0000000001
 40
0.0
 40
0.0
 40
0.0
 40
0.0
 40
1.0
 40
1.0
 40
1.0
 40
2.0
 40
2.0
 40
2.0
 40
3.0
 40
3.0
 40
3.0
 40
4.0
 40
4.0
 40
4.0
 40
5.0
 40
5.0
 40
5.0
 40
6.0
 40
6.0
 40
6.0
 40
7.0
 40
7.0
 40
7.0
 40
8.0
 40
8.0
 40
8.0
 40
9.0
 40
9.0
 40
9.0
 40
10.0
 40
10.0
 40
10.0
 40
11.0
 40
11.0
 40
11.0
 40
11.0
 10
410.6395963051686
 20
248.1456164837124
 30
0.0
 10
410.6395963051686
 20
248.1456164837124
 30
0.0
 10
411.7623655308149
 20
248.1456164837124
 30
0.0
 10
411.7623655308149
 20
248.1456164837124
 30
0.0
 10
411.7623655308149
 20
248.1456164837124
 30
0.0
 10
411.7623655308149
 20
251.1170534169907
 30
0.0
 10
411.7623655308149
 20
251.1170534169907
 30
0.0
 10
411.7623655308149
 20
251.1170534169907
 30
0.0
 10
410.8004254104641
 20
251.1170534169907
 30
0.0
 10
410.8004254104641
 20
251.1170534169907
 30
0.0
 10
410.8004254104641
 20
251.1170534169907
 30
0.0
 10
410.8004254104641
 20
251.8548731938436
 30
0.0
 10
410.8004254104641
 20
251.8548731938436
 30
0.0
 10
411.3514059841303
 20
251.9595638378567
 30
0.0
 10
411.7146803513477
 20
252.0993681140231
 30
0.0
 10
412.0744867055121
 20
252.3221879526262
 30
0.0
 10
412.0744867055121
 20
252.3221879526262
 30
0.0
 10
412.9510270044526
 20
252.3221879526262
 30
0.0
 10
412.9510270044526
 20
252.3221879526262
 30
0.0
 10
412.9510270044526
 20
252.3221879526262
 30
0.0
 10
412.9510270044526
 20
248.1456164837124
 30
0.0
 10
412.9510270044526
 20
248.1456164837124
 30
0.0
 10
412.9510270044526
 20
248.1456164837124
 30
0.0
 10
413.9129671248034
 20
248.1456164837124
 30
0.0
 10
413.9129671248034
 20
248.1456164837124
 30
0.0
 10
413.9129671248034
 20
248.1456164837124
 30
0.0
 10
413.9129671248034
 20
247.1860606223347
 30
0.0
 10
413.9129671248034
 20
247.1860606223347
 30
0.0
 10
413.9129671248034
 20
247.1860606223347
 30
0.0
 10
410.6395963051686
 20
247.1860606223347
 30
0.0
 10
410.6395963051686
 20
247.1860606223347
 30
0.0
 10
410.6395963051686
 20
247.1860606223347
 30
0.0
 10
410.6395963051686
 20
248.1456164837124
 30
0.0
 10
410.6395963051686
 20
248.1456164837124
 30
0.0
  0
HATCH
  5
153
330
140
100
AcDbEntity
  8
Layer 1
 62
     5
100
AcDbHatch
 10
0.0
 20
0.0
 30
0.0
210
0.0
220
0.0
230
1.0
  2
SOLID
 70
     1
 71
     1
 91
        1
 92
        1
 93
        1
 72
     4
 94
        3
 73
     0
 74
     0
 95
       38
 96
       34
 40
0.0
 40
0.0
 40
0.0
 40
0.0
 40
1.0
 40
1.0
 40
1.0
 40
2.0
 40
2.0
 40
2.0
 40
3.0
 40
3.0
 40
3.0
 40
4.0
 40
4.0
 40
4.0
 40
5.0
 40
5.0
 40
5.0
 40
6.0
 40
6.0
 40
6.0
 40
7.0
 40
7.0
 40
7.0
 40
8.0
 40
8.0
 40
8.0
 40
9.0
 40
9.0
 40
9.0
 40
10.0
 40
10.0
 40
10.0
 40
11.0
 40
11.0
 40
11.0
 40
11.0
 10
410.6395963051686
 20
248.1456164837124
 10
410.6395963051686
 20
248.1456164837124
 10
411.7623655308149
 20
248.1456164837124
 10
411.7623655308149
 20
248.1456164837124
 10
411.7623655308149
 20
248.1456164837124
 10
411.7623655308149
 20
251.1170534169907
 10
411.7623655308149
 20
251.1170534169907
 10
411.7623655308149
 20
251.1170534169907
 10
410.8004254104641
 20
251.1170534169907
 10
410.8004254104641
 20
251.1170534169907
 10
410.8004254104641
 20
251.1170534169907
 10
410.8004254104641
 20
251.8548731938436
 10
410.8004254104641
 20
251.8548731938436
 10
411.3514059841303
 20
251.9595638378567
 10
411.7146803513477
 20
252.0993681140231
 10
412.0744867055121
 20
252.3221879526262
 10
412.0744867055121
 20
252.3221879526262
 10
412.9510270044526
 20
252.3221879526262
 10
412.9510270044526
 20
252.3221879526262
 10
412.9510270044526
 20
252.3221879526262
 10
412.9510270044526
 20
248.1456164837124
 10
412.9510270044526
 20
248.1456164837124
 10
412.9510270044526
 20
248.1456164837124
 10
413.9129671248034
 20
248.1456164837124
 10
413.9129671248034
 20
248.1456164837124
 10
413.9129671248034
 20
248.1456164837124
 10
413.9129671248034
 20
247.1860606223347
 10
413.9129671248034
 20
247.1860606223347
 10
413.9129671248034
 20
247.1860606223347
 10
410.6395963051686
 20
247.1860606223347
 10
410.6395963051686
 20
247.1860606223347
 10
410.6395963051686
 20
247.1860606223347
 10
410.6395963051686
 20
248.1456164837124
 10
410.6395963051686
 20
248.1456164837124
 97
        1
330
152
 75
     2
 76
     1
 98
        1
 10
0.0
 20
0.0
  0
SPLINE
  5
154
330
140
100
AcDbEntity
  8
Layer 1
100
AcDbSpline
210
0.0
220
0.0
230
1.0
 70
     9
 71
     3
 72
    17
 73
    13
 74
     0
 42
0.0000000001
 43
0.0000000001
 40
0.0
 40
0.0
 40
0.0
 40
0.0
 40
1.0
 40
1.0
 40
1.0
 40
2.0
 40
2.0
 40
2.0
 40
3.0
 40
3.0
 40
3.0
 40
4.0
 40
4.0
 40
4.0
 40
4.0
 10
417.1937074721737
 20
249.7768831231356
 30
0.0
 10
417.1937074721737
 20
251.1783938978513
 30
0.0
 10
416.8815862974766
 20
251.4996186068101
 30
0.0
 10
416.4814642915809
 20
251.4996186068101
 30
0.0
 10
416.0809087840529
 20
251.4996186068101
 30
0.0
 10
415.7687876093559
 20
251.1783938978513
 30
0.0
 10
415.7687876093559
 20
249.7768831231356
 30
0.0
 10
415.7687876093559
 20
248.3755890992355
 30
0.0
 10
416.0809087840529
 20
248.008413217335
 30
0.0
 10
416.4814642915809
 20
248.008413217335
 30
0.0
 10
416.8815862974766
 20
248.008413217335
 30
0.0
 10
417.1937074721737
 20
248.3755890992355
 30
0.0
 10
417.1937074721737
 20
249.7768831231356
 30
0.0
  0
SPLINE
  5
155
330
140
100
AcDbEntity
  8
Layer 1
100
AcDbSpline
210
0.0
220
0.0
230
1.0
 70
     9
 71
     3
 72
    17
 73
    13
 74
     0
 42
0.0000000001
 43
0.0000000001
 40
0.0
 40
0.0
 40
0.0
 40
0.0
 40
1.0
 40
1.0
 40
1.0
 40
2.0
 40
2.0
 40
2.0
 40
3.0
 40
3.0
 40
3.0
 40
4.0
 40
4.0
 40
4.0
 40
4.0
 10
414.6438508755522
 20
249.7768831231356
 30
0.0
 10
414.6438508755522
 20
251.5247617014387
 30
0.0
 10
415.3773356360899
 20
252.4190755672716
 30
0.0
 10
416.4814642915809
 20
252.4190755672716
 30
0.0
 10
417.5851594454398
 20
252.4190755672716
 30
0.0
 10
418.3186442059775
 20
251.51804242615
 30
0.0
 10
418.3186442059775
 20
249.7768831231356
 30
0.0
 10
418.3186442059775
 20
248.0290045448323
 30
0.0
 10
417.5851594454398
 20
247.0889562568735
 30
0.0
 10
416.4814642915809
 20
247.0889562568735
 30
0.0
 10
415.3773356360899
 20
247.0889562568735
 30
0.0
 10
414.6438508755522
 20
248.0290045448323
 30
0.0
 10
414.6438508755522
 20
249.7768831231356
 30
0.0
  0
HATCH
  5
156
330
140
100
AcDbEntity
  8
Layer 1
 62
     5
100
AcDbHatch
 10
0.0
 20
0.0
 30
0.0
210
0.0
220
0.0
230
1.0
  2
SOLID
 70
     1
 71
     1
 91
        2
 92
        1
 93
        1
 72
     4
 94
        3
 73
     0
 74
     0
 95
       17
 96
       13
 40
0.0
 40
0.0
 40
0.0
 40
0.0
 40
1.0
 40
1.0
 40
1.0
 40
2.0
 40
2.0
 40
2.0
 40
3.0
 40
3.0
 40
3.0
 40
4.0
 40
4.0
 40
4.0
 40
4.0
 10
417.1937074721737
 20
249.7768831231356
 10
417.1937074721737
 20
251.1783938978513
 10
416.8815862974766
 20
251.4996186068101
 10
416.4814642915809
 20
251.4996186068101
 10
416.0809087840529
 20
251.4996186068101
 10
415.7687876093559
 20
251.1783938978513
 10
415.7687876093559
 20
249.7768831231356
 10
415.7687876093559
 20
248.3755890992355
 10
416.0809087840529
 20
248.008413217335
 10
416.4814642915809
 20
248.008413217335
 10
416.8815862974766
 20
248.008413217335
 10
417.1937074721737
 20
248.3755890992355
 10
417.1937074721737
 20
249.7768831231356
 97
        1
330
154
 92
        1
 93
        1
 72
     4
 94
        3
 73
     0
 74
     0
 95
       17
 96
       13
 40
0.0
 40
0.0
 40
0.0
 40
0.0
 40
1.0
 40
1.0
 40
1.0
 40
2.0
 40
2.0
 40
2.0
 40
3.0
 40
3.0
 40
3.0
 40
4.0
 40
4.0
 40
4.0
 40
4.0
 10
414.6438508755522
 20
249.7768831231356
 10
414.6438508755522
 20
251.5247617014387
 10
415.3773356360899
 20
252.4190755672716
 10
416.4814642915809
 20
252.4190755672716
 10
417.5851594454398
 20
252.4190755672716
 10
418.3186442059775
 20
251.51804242615
 10
418.3186442059775
 20
249.7768831231356
 10
418.3186442059775
 20
248.0290045448323
 10
417.5851594454398
 20
247.0889562568735
 10
416.4814642915809
 20
247.0889562568735
 10
415.3773356360899
 20
247.0889562568735
 10
414.6438508755522
 20
248.0290045448323
 10
414.6438508755522
 20
249.7768831231356
 97
        1
330
155
 75
     2
 76
     1
 98
        1
 10
0.0
 20
0.0
  0
SPLINE
  5
157
330
140
100
AcDbEntity
  8
Layer 1
100
AcDbSpline
210
0.0
220
0.0
230
1.0
 70
     9
 71
     3
 72
    17
 73
    13
 74
     0
 42
0.0000000001
 43
0.0000000001
 40
0.0
 40
0.0
 40
0.0
 40
0.0
 40
1.0
 40
1.0
 40
1.0
 40
2.0
 40
2.0
 40
2.0
 40
3.0
 40
3.0
 40
3.0
 40
4.0
 40
4.0
 40
4.0
 40
4.0
 10
421.4619645361552
 20
249.7768831231356
 30
0.0
 10
421.4619645361552
 20
251.1783938978513
 30
0.0
 10
421.1498433614582
 20
251.4996186068101
 30
0.0
 10
420.7497213555618
 20
251.4996186068101
 30
0.0
 10
420.3491658480339
 20
251.4996186068101
 30
0.0
 10
420.0370446733368
 20
251.1783938978513
 30
0.0
 10
420.0370446733368
 20
249.7768831231356
 30
0.0
 10
420.0370446733368
 20
248.3755890992355
 30
0.0
 10
420.3491658480339
 20
248.008413217335
 30
0.0
 10
420.7497213555618
 20
248.008413217335
 30
0.0
 10
421.1498433614582
 20
248.008413217335
 30
0.0
 10
421.4619645361552
 20
248.3755890992355
 30
0.0
 10
421.4619645361552
 20
249.7768831231356
 30
0.0
  0
SPLINE
  5
158
330
140
100
AcDbEntity
  8
Layer 1
100
AcDbSpline
210
0.0
220
0.0
230
1.0
 70
     9
 71
     3
 72
    17
 73
    13
 74
     0
 42
0.0000000001
 43
0.0000000001
 40
0.0
 40
0.0
 40
0.0
 40
0.0
 40
1.0
 40
1.0
 40
1.0
 40
2.0
 40
2.0
 40
2.0
 40
3.0
 40
3.0
 40
3.0
 40
4.0
 40
4.0
 40
4.0
 40
4.0
 10
418.9121079395331
 20
249.7768831231356
 30
0.0
 10
418.9121079395331
 20
251.5247617014387
 30
0.0
 10
419.6455927000713
 20
252.4190755672716
 30
0.0
 10
420.7497213555618
 20
252.4190755672716
 30
0.0
 10
421.8534165094206
 20
252.4190755672716
 30
0.0
 10
422.5869012699591
 20
251.51804242615
 30
0.0
 10
422.5869012699591
 20
249.7768831231356
 30
0.0
 10
422.5869012699591
 20
248.0290045448323
 30
0.0
 10
421.8534165094206
 20
247.0889562568735
 30
0.0
 10
420.7497213555618
 20
247.0889562568735
 30
0.0
 10
419.6455927000713
 20
247.0889562568735
 30
0.0
 10
418.9121079395331
 20
248.0290045448323
 30
0.0
 10
418.9121079395331
 20
249.7768831231356
 30
0.0
  0
HATCH
  5
159
330
140
100
AcDbEntity
  8
Layer 1
 62
     5
100
AcDbHatch
 10
0.0
 20
0.0
 30
0.0
210
0.0
220
0.0
230
1.0
  2
SOLID
 70
     1
 71
     1
 91
        2
 92
        1
 93
        1
 72
     4
 94
        3
 73
     0
 74
     0
 95
       17
 96
       13
 40
0.0
 40
0.0
 40
0.0
 40
0.0
 40
1.0
 40
1.0
 40
1.0
 40
2.0
 40
2.0
 40
2.0
 40
3.0
 40
3.0
 40
3.0
 40
4.0
 40
4.0
 40
4.0
 40
4.0
 10
421.4619645361552
 20
249.7768831231356
 10
421.4619645361552
 20
251.1783938978513
 10
421.1498433614582
 20
251.4996186068101
 10
420.7497213555618
 20
251.4996186068101
 10
420.3491658480339
 20
251.4996186068101
 10
420.0370446733368
 20
251.1783938978513
 10
420.0370446733368
 20
249.7768831231356
 10
420.0370446733368
 20
248.3755890992355
 10
420.3491658480339
 20
248.008413217335
 10
420.7497213555618
 20
248.008413217335
 10
421.1498433614582
 20
248.008413217335
 10
421.4619645361552
 20
248.3755890992355
 10
421.4619645361552
 20
249.7768831231356
 97
        1
330
157
 92
        1
 93
        1
 72
     4
 94
        3
 73
     0
 74
     0
 95
       17
 96
       13
 40
0.0
 40
0.0
 40
0.0
 40
0.0
 40
1.0
 40
1.0
 40
1.0
 40
2.0
 40
2.0
 40
2.0
 40
3.0
 40
3.0
 40
3.0
 40
4.0
 40
4.0
 40
4.0
 40
4.0
 10
418.9121079395331
 20
249.7768831231356
 10
418.9121079395331
 20
251.5247617014387
 10
419.6455927000713
 20
252.4190755672716
 10
420.7497213555618
 20
252.4190755672716
 10
421.8534165094206
 20
252.4190755672716
 10
422.5869012699591
 20
251.51804242615
 10
422.5869012699591
 20
249.7768831231356
 10
422.5869012699591
 20
248.0290045448323
 10
421.8534165094206
 20
247.0889562568735
 10
420.7497213555618
 20
247.0889562568735
 10
419.6455927000713
 20
247.0889562568735
 10
418.9121079395331
 20
248.0290045448323
 10
418.9121079395331
 20
249.7768831231356
 97
        1
330
158
 75
     2
 76
     1
 98
        1
 10
0.0
 20
0.0
  0
SPLINE
  5
15A
330
140
100
AcDbEntity
  8
Layer 1
100
AcDbSpline
210
0.0
220
0.0
230
1.0
 70
    11
 71
     3
 72
    65
 73
    61
 74
     0
 42
0.0000000001
 43
0.0000000001
 40
0.0
 40
0.0
 40
0.0
 40
0.0
 40
1.0
 40
1.0
 40
1.0
 40
2.0
 40
2.0
 40
2.0
 40
3.0
 40
3.0
 40
3.0
 40
4.0
 40
4.0
 40
4.0
 40
5.0
 40
5.0
 40
5.0
 40
6.0
 40
6.0
 40
6.0
 40
7.0
 40
7.0
 40
7.0
 40
8.0
 40
8.0
 40
8.0
 40
9.0
 40
9.0
 40
9.0
 40
10.0
 40
10.0
 40
10.0
 40
11.0
 40
11.0
 40
11.0
 40
12.0
 40
12.0
 40
12.0
 40
13.0
 40
13.0
 40
13.0
 40
14.0
 40
14.0
 40
14.0
 40
15.0
 40
15.0
 40
15.0
 40
16.0
 40
16.0
 40
16.0
 40
17.0
 40
17.0
 40
17.0
 40
18.0
 40
18.0
 40
18.0
 40
19.0
 40
19.0
 40
19.0
 40
20.0
 40
20.0
 40
20.0
 40
20.0
 10
423.406219353538
 20
251.1985517237169
 30
0.0
 10
423.406219353538
 20
251.1985517237169
 30
0.0
 10
424.3759625032565
 20
251.1985517237169
 30
0.0
 10
424.3759625032565
 20
251.1985517237169
 30
0.0
 10
424.3759625032565
 20
251.1985517237169
 30
0.0
 10
424.4617958262985
 20
250.6837685362827
 30
0.0
 10
424.4617958262985
 20
250.6837685362827
 30
0.0
 10
424.4617958262985
 20
250.6837685362827
 30
0.0
 10
424.4912739372422
 20
250.6837685362827
 30
0.0
 10
424.4912739372422
 20
250.6837685362827
 30
0.0
 10
424.820301675568
 20
251.014963782767
 30
0.0
 10
425.1801080297331
 20
251.2954393383626
 30
0.0
 10
425.7072460136653
 20
251.2954393383626
 30
0.0
 10
426.2712316362779
 20
251.2954393383626
 30
0.0
 10
426.6119639186553
 20
251.0520281722622
 30
0.0
 10
426.8148426822079
 20
250.6200437964487
 30
0.0
 10
427.1677130102686
 20
250.9883034324281
 30
0.0
 10
427.5444259280625
 20
251.2954393383626
 30
0.0
 10
428.0745984234159
 20
251.2954393383626
 30
0.0
 10
428.9411681848314
 20
251.2954393383626
 30
0.0
 10
429.3295856466762
 20
250.6798670215992
 30
0.0
 10
429.3295856466762
 20
249.6769609970693
 30
0.0
 10
429.3295856466762
 20
249.6769609970693
 30
0.0
 10
429.3295856466762
 20
247.1860606223347
 30
0.0
 10
429.3295856466762
 20
247.1860606223347
 30
0.0
 10
429.3295856466762
 20
247.1860606223347
 30
0.0
 10
428.1404906714071
 20
247.1860606223347
 30
0.0
 10
428.1404906714071
 20
247.1860606223347
 30
0.0
 10
428.1404906714071
 20
247.1860606223347
 30
0.0
 10
428.1404906714071
 20
249.5248019244046
 30
0.0
 10
428.1404906714071
 20
249.5248019244046
 30
0.0
 10
428.1404906714071
 20
250.1022260975938
 30
0.0
 10
427.9826960775328
 20
250.2827795271235
 30
0.0
 10
427.6449983065759
 20
250.2827795271235
 30
0.0
 10
427.4434200479174
 20
250.2827795271235
 30
0.0
 10
427.2153981897359
 20
250.1572808047973
 30
0.0
 10
426.9622332369262
 20
249.892844809568
 30
0.0
 10
426.9622332369262
 20
249.892844809568
 30
0.0
 10
426.9622332369262
 20
247.1860606223347
 30
0.0
 10
426.9622332369262
 20
247.1860606223347
 30
0.0
 10
426.9622332369262
 20
247.1860606223347
 30
0.0
 10
425.7735717632887
 20
247.1860606223347
 30
0.0
 10
425.7735717632887
 20
247.1860606223347
 30
0.0
 10
425.7735717632887
 20
247.1860606223347
 30
0.0
 10
425.7735717632887
 20
249.5248019244046
 30
0.0
 10
425.7735717632887
 20
249.5248019244046
 30
0.0
 10
425.7735717632887
 20
250.1022260975938
 30
0.0
 10
425.6153436677827
 20
250.2827795271235
 30
0.0
 10
425.2780793984569
 20
250.2827795271235
 30
0.0
 10
425.0791021495881
 20
250.2827795271235
 30
0.0
 10
424.848045779986
 20
250.1572808047973
 30
0.0
 10
424.5948808271762
 20
249.892844809568
 30
0.0
 10
424.5948808271762
 20
249.892844809568
 30
0.0
 10
424.5948808271762
 20
247.1860606223347
 30
0.0
 10
424.5948808271762
 20
247.1860606223347
 30
0.0
 10
424.5948808271762
 20
247.1860606223347
 30
0.0
 10
423.406219353538
 20
247.1860606223347
 30
0.0
 10
423.406219353538
 20
247.1860606223347
 30
0.0
 10
423.406219353538
 20
247.1860606223347
 30
0.0
 10
423.406219353538
 20
251.1985517237169
 30
0.0
 10
423.406219353538
 20
251.1985517237169
 30
0.0
  0
HATCH
  5
15B
330
140
100
AcDbEntity
  8
Layer 1
 62
     5
100
AcDbHatch
 10
0.0
 20
0.0
 30
0.0
210
0.0
220
0.0
230
1.0
  2
SOLID
 70
     1
 71
     1
 91
        1
 92
        1
 93
        1
 72
     4
 94
        3
 73
     0
 74
     0
 95
       65
 96
       61
 40
0.0
 40
0.0
 40
0.0
 40
0.0
 40
1.0
 40
1.0
 40
1.0
 40
2.0
 40
2.0
 40
2.0
 40
3.0
 40
3.0
 40
3.0
 40
4.0
 40
4.0
 40
4.0
 40
5.0
 40
5.0
 40
5.0
 40
6.0
 40
6.0
 40
6.0
 40
7.0
 40
7.0
 40
7.0
 40
8.0
 40
8.0
 40
8.0
 40
9.0
 40
9.0
 40
9.0
 40
10.0
 40
10.0
 40
10.0
 40
11.0
 40
11.0
 40
11.0
 40
12.0
 40
12.0
 40
12.0
 40
13.0
 40
13.0
 40
13.0
 40
14.0
 40
14.0
 40
14.0
 40
15.0
 40
15.0
 40
15.0
 40
16.0
 40
16.0
 40
16.0
 40
17.0
 40
17.0
 40
17.0
 40
18.0
 40
18.0
 40
18.0
 40
19.0
 40
19.0
 40
19.0
 40
20.0
 40
20.0
 40
20.0
 40
20.0
 10
423.406219353538
 20
251.1985517237169
 10
423.406219353538
 20
251.1985517237169
 10
424.3759625032565
 20
251.1985517237169
 10
424.3759625032565
 20
251.1985517237169
 10
424.3759625032565
 20
251.1985517237169
 10
424.4617958262985
 20
250.6837685362827
 10
424.4617958262985
 20
250.6837685362827
 10
424.4617958262985
 20
250.6837685362827
 10
424.4912739372422
 20
250.6837685362827
 10
424.4912739372422
 20
250.6837685362827
 10
424.820301675568
 20
251.014963782767
 10
425.1801080297331
 20
251.2954393383626
 10
425.7072460136653
 20
251.2954393383626
 10
426.2712316362779
 20
251.2954393383626
 10
426.6119639186553
 20
251.0520281722622
 10
426.8148426822079
 20
250.6200437964487
 10
427.1677130102686
 20
250.9883034324281
 10
427.5444259280625
 20
251.2954393383626
 10
428.0745984234159
 20
251.2954393383626
 10
428.9411681848314
 20
251.2954393383626
 10
429.3295856466762
 20
250.6798670215992
 10
429.3295856466762
 20
249.6769609970693
 10
429.3295856466762
 20
249.6769609970693
 10
429.3295856466762
 20
247.1860606223347
 10
429.3295856466762
 20
247.1860606223347
 10
429.3295856466762
 20
247.1860606223347
 10
428.1404906714071
 20
247.1860606223347
 10
428.1404906714071
 20
247.1860606223347
 10
428.1404906714071
 20
247.1860606223347
 10
428.1404906714071
 20
249.5248019244046
 10
428.1404906714071
 20
249.5248019244046
 10
428.1404906714071
 20
250.1022260975938
 10
427.9826960775328
 20
250.2827795271235
 10
427.6449983065759
 20
250.2827795271235
 10
427.4434200479174
 20
250.2827795271235
 10
427.2153981897359
 20
250.1572808047973
 10
426.9622332369262
 20
249.892844809568
 10
426.9622332369262
 20
249.892844809568
 10
426.9622332369262
 20
247.1860606223347
 10
426.9622332369262
 20
247.1860606223347
 10
426.9622332369262
 20
247.1860606223347
 10
425.7735717632887
 20
247.1860606223347
 10
425.7735717632887
 20
247.1860606223347
 10
425.7735717632887
 20
247.1860606223347
 10
425.7735717632887
 20
249.5248019244046
 10
425.7735717632887
 20
249.5248019244046
 10
425.7735717632887
 20
250.1022260975938
 10
425.6153436677827
 20
250.2827795271235
 10
425.2780793984569
 20
250.2827795271235
 10
425.0791021495881
 20
250.2827795271235
 10
424.848045779986
 20
250.1572808047973
 10
424.5948808271762
 20
249.892844809568
 10
424.5948808271762
 20
249.892844809568
 10
424.5948808271762
 20
247.1860606223347
 10
424.5948808271762
 20
247.1860606223347
 10
424.5948808271762
 20
247.1860606223347
 10
423.406219353538
 20
247.1860606223347
 10
423.406219353538
 20
247.1860606223347
 10
423.406219353538
 20
247.1860606223347
 10
423.406219353538
 20
251.1985517237169
 10
423.406219353538
 20
251.1985517237169
 97
        1
330
15A
 75
     2
 76
     1
 98
        1
 10
0.0
 20
0.0
  0
SPLINE
  5
15C
330
140
100
AcDbEntity
  8
Layer 1
100
AcDbSpline
210
0.0
220
0.0
230
1.0
 70
    11
 71
     3
 72
    65
 73
    61
 74
     0
 42
0.0000000001
 43
0.0000000001
 40
0.0
 40
0.0
 40
0.0
 40
0.0
 40
1.0
 40
1.0
 40
1.0
 40
2.0
 40
2.0
 40
2.0
 40
3.0
 40
3.0
 40
3.0
 40
4.0
 40
4.0
 40
4.0
 40
5.0
 40
5.0
 40
5.0
 40
6.0
 40
6.0
 40
6.0
 40
7.0
 40
7.0
 40
7.0
 40
8.0
 40
8.0
 40
8.0
 40
9.0
 40
9.0
 40
9.0
 40
10.0
 40
10.0
 40
10.0
 40
11.0
 40
11.0
 40
11.0
 40
12.0
 40
12.0
 40
12.0
 40
13.0
 40
13.0
 40
13.0
 40
14.0
 40
14.0
 40
14.0
 40
15.0
 40
15.0
 40
15.0
 40
16.0
 40
16.0
 40
16.0
 40
17.0
 40
17.0
 40
17.0
 40
18.0
 40
18.0
 40
18.0
 40
19.0
 40
19.0
 40
19.0
 40
20.0
 40
20.0
 40
20.0
 40
20.0
 10
430.334442428548
 20
251.1985517237169
 30
0.0
 10
430.334442428548
 20
251.1985517237169
 30
0.0
 10
431.3041855782666
 20
251.1985517237169
 30
0.0
 10
431.3041855782666
 20
251.1985517237169
 30
0.0
 10
431.3041855782666
 20
251.1985517237169
 30
0.0
 10
431.3900189013079
 20
250.6837685362827
 30
0.0
 10
431.3900189013079
 20
250.6837685362827
 30
0.0
 10
431.3900189013079
 20
250.6837685362827
 30
0.0
 10
431.4194970122515
 20
250.6837685362827
 30
0.0
 10
431.4194970122515
 20
250.6837685362827
 30
0.0
 10
431.748524750578
 20
251.014963782767
 30
0.0
 10
432.1083311047424
 20
251.2954393383626
 30
0.0
 10
432.6354690886753
 20
251.2954393383626
 30
0.0
 10
433.1994547112878
 20
251.2954393383626
 30
0.0
 10
433.5401869936653
 20
251.0520281722622
 30
0.0
 10
433.743065757218
 20
250.6200437964487
 30
0.0
 10
434.0959360852785
 20
250.9883034324281
 30
0.0
 10
434.4726490030724
 20
251.2954393383626
 30
0.0
 10
435.0028214984253
 20
251.2954393383626
 30
0.0
 10
435.8693912598414
 20
251.2954393383626
 30
0.0
 10
436.2578087216862
 20
250.6798670215992
 30
0.0
 10
436.2578087216862
 20
249.6769609970693
 30
0.0
 10
436.2578087216862
 20
249.6769609970693
 30
0.0
 10
436.2578087216862
 20
247.1860606223347
 30
0.0
 10
436.2578087216862
 20
247.1860606223347
 30
0.0
 10
436.2578087216862
 20
247.1860606223347
 30
0.0
 10
435.068713746417
 20
247.1860606223347
 30
0.0
 10
435.068713746417
 20
247.1860606223347
 30
0.0
 10
435.068713746417
 20
247.1860606223347
 30
0.0
 10
435.068713746417
 20
249.5248019244046
 30
0.0
 10
435.068713746417
 20
249.5248019244046
 30
0.0
 10
435.068713746417
 20
250.1022260975938
 30
0.0
 10
434.9109191525427
 20
250.2827795271235
 30
0.0
 10
434.5732213815859
 20
250.2827795271235
 30
0.0
 10
434.3716431229275
 20
250.2827795271235
 30
0.0
 10
434.1436212647459
 20
250.1572808047973
 30
0.0
 10
433.8904563119363
 20
249.892844809568
 30
0.0
 10
433.8904563119363
 20
249.892844809568
 30
0.0
 10
433.8904563119363
 20
247.1860606223347
 30
0.0
 10
433.8904563119363
 20
247.1860606223347
 30
0.0
 10
433.8904563119363
 20
247.1860606223347
 30
0.0
 10
432.7017948382986
 20
247.1860606223347
 30
0.0
 10
432.7017948382986
 20
247.1860606223347
 30
0.0
 10
432.7017948382986
 20
247.1860606223347
 30
0.0
 10
432.7017948382986
 20
249.5248019244046
 30
0.0
 10
432.7017948382986
 20
249.5248019244046
 30
0.0
 10
432.7017948382986
 20
250.1022260975938
 30
0.0
 10
432.5435667427921
 20
250.2827795271235
 30
0.0
 10
432.2063024734669
 20
250.2827795271235
 30
0.0
 10
432.0073252245975
 20
250.2827795271235
 30
0.0
 10
431.776268854996
 20
250.1572808047973
 30
0.0
 10
431.5231039021855
 20
249.892844809568
 30
0.0
 10
431.5231039021855
 20
249.892844809568
 30
0.0
 10
431.5231039021855
 20
247.1860606223347
 30
0.0
 10
431.5231039021855
 20
247.1860606223347
 30
0.0
 10
431.5231039021855
 20
247.1860606223347
 30
0.0
 10
430.334442428548
 20
247.1860606223347
 30
0.0
 10
430.334442428548
 20
247.1860606223347
 30
0.0
 10
430.334442428548
 20
247.1860606223347
 30
0.0
 10
430.334442428548
 20
251.1985517237169
 30
0.0
 10
430.334442428548
 20
251.1985517237169
 30
0.0
  0
HATCH
  5
15D
330
140
100
AcDbEntity
  8
Layer 1
 62
     5
100
AcDbHatch
 10
0.0
 20
0.0
 30
0.0
210
0.0
220
0.0
230
1.0
  2
SOLID
 70
     1
 71
     1
 91
        1
 92
        1
 93
        1
 72
     4
 94
        3
 73
     0
 74
     0
 95
       65
 96
       61
 40
0.0
 40
0.0
 40
0.0
 40
0.0
 40
1.0
 40
1.0
 40
1.0
 40
2.0
 40
2.0
 40
2.0
 40
3.0
 40
3.0
 40
3.0
 40
4.0
 40
4.0
 40
4.0
 40
5.0
 40
5.0
 40
5.0
 40
6.0
 40
6.0
 40
6.0
 40
7.0
 40
7.0
 40
7.0
 40
8.0
 40
8.0
 40
8.0
 40
9.0
 40
9.0
 40
9.0
 40
10.0
 40
10.0
 40
10.0
 40
11.0
 40
11.0
 40
11.0
 40
12.0
 40
12.0
 40
12.0
 40
13.0
 40
13.0
 40
13.0
 40
14.0
 40
14.0
 40
14.0
 40
15.0
 40
15.0
 40
15.0
 40
16.0
 40
16.0
 40
16.0
 40
17.0
 40
17.0
 40
17.0
 40
18.0
 40
18.0
 40
18.0
 40
19.0
 40
19.0
 40
19.0
 40
20.0
 40
20.0
 40
20.0
 40
20.0
 10
430.334442428548
 20
251.1985517237169
 10
430.334442428548
 20
251.1985517237169
 10
431.3041855782666
 20
251.1985517237169
 10
431.3041855782666
 20
251.1985517237169
 10
431.3041855782666
 20
251.1985517237169
 10
431.3900189013079
 20
250.6837685362827
 10
431.3900189013079
 20
250.6837685362827
 10
431.3900189013079
 20
250.6837685362827
 10
431.4194970122515
 20
250.6837685362827
 10
431.4194970122515
 20
250.6837685362827
 10
431.748524750578
 20
251.014963782767
 10
432.1083311047424
 20
251.2954393383626
 10
432.6354690886753
 20
251.2954393383626
 10
433.1994547112878
 20
251.2954393383626
 10
433.5401869936653
 20
251.0520281722622
 10
433.743065757218
 20
250.6200437964487
 10
434.0959360852785
 20
250.9883034324281
 10
434.4726490030724
 20
251.2954393383626
 10
435.0028214984253
 20
251.2954393383626
 10
435.8693912598414
 20
251.2954393383626
 10
436.2578087216862
 20
250.6798670215992
 10
436.2578087216862
 20
249.6769609970693
 10
436.2578087216862
 20
249.6769609970693
 10
436.2578087216862
 20
247.1860606223347
 10
436.2578087216862
 20
247.1860606223347
 10
436.2578087216862
 20
247.1860606223347
 10
435.068713746417
 20
247.1860606223347
 10
435.068713746417
 20
247.1860606223347
 10
435.068713746417
 20
247.1860606223347
 10
435.068713746417
 20
249.5248019244046
 10
435.068713746417
 20
249.5248019244046
 10
435.068713746417
 20
250.1022260975938
 10
434.9109191525427
 20
250.2827795271235
 10
434.5732213815859
 20
250.2827795271235
 10
434.3716431229275
 20
250.2827795271235
 10
434.1436212647459
 20
250.1572808047973
 10
433.8904563119363
 20
249.892844809568
 10
433.8904563119363
 20
249.892844809568
 10
433.8904563119363
 20
247.1860606223347
 10
433.8904563119363
 20
247.1860606223347
 10
433.8904563119363
 20
247.1860606223347
 10
432.7017948382986
 20
247.1860606223347
 10
432.7017948382986
 20
247.1860606223347
 10
432.7017948382986
 20
247.1860606223347
 10
432.7017948382986
 20
249.5248019244046
 10
432.7017948382986
 20
249.5248019244046
 10
432.7017948382986
 20
250.1022260975938
 10
432.5435667427921
 20
250.2827795271235
 10
432.2063024734669
 20
250.2827795271235
 10
432.0073252245975
 20
250.2827795271235
 10
431.776268854996
 20
250.1572808047973
 10
431.5231039021855
 20
249.892844809568
 10
431.5231039021855
 20
249.892844809568
 10
431.5231039021855
 20
247.1860606223347
 10
431.5231039021855
 20
247.1860606223347
 10
431.5231039021855
 20
247.1860606223347
 10
430.334442428548
 20
247.1860606223347
 10
430.334442428548
 20
247.1860606223347
 10
430.334442428548
 20
247.1860606223347
 10
430.334442428548
 20
251.1985517237169
 10
430.334442428548
 20
251.1985517237169
 97
        1
330
15C
 75
     2
 76
     1
 98
        1
 10
0.0
 20
0.0
  0
SPLINE
  5
15E
330
140
100
AcDbEntity
  8
Layer 1
100
AcDbSpline
210
0.0
220
0.0
230
1.0
 70
    11
 71
     3
 72
    35
 73
    31
 74
     0
 42
0.0000000001
 43
0.0000000001
 40
0.0
 40
0.0
 40
0.0
 40
0.0
 40
1.0
 40
1.0
 40
1.0
 40
2.0
 40
2.0
 40
2.0
 40
3.0
 40
3.0
 40
3.0
 40
4.0
 40
4.0
 40
4.0
 40
5.0
 40
5.0
 40
5.0
 40
6.0
 40
6.0
 40
6.0
 40
7.0
 40
7.0
 40
7.0
 40
8.0
 40
8.0
 40
8.0
 40
9.0
 40
9.0
 40
9.0
 40
10.0
 40
10.0
 40
10.0
 40
10.0
 10
438.97889846276
 20
252.4572237108459
 30
0.0
 10
438.97889846276
 20
252.4572237108459
 30
0.0
 10
442.3055899830719
 20
252.4572237108459
 30
0.0
 10
442.3055899830719
 20
252.4572237108459
 30
0.0
 10
442.3055899830719
 20
252.4572237108459
 30
0.0
 10
442.3055899830719
 20
251.4577856993682
 30
0.0
 10
442.3055899830719
 20
251.4577856993682
 30
0.0
 10
442.3055899830719
 20
251.4577856993682
 30
0.0
 10
440.1705944478181
 20
251.4577856993682
 30
0.0
 10
440.1705944478181
 20
251.4577856993682
 30
0.0
 10
440.1705944478181
 20
251.4577856993682
 30
0.0
 10
440.1705944478181
 20
250.2355278492874
 30
0.0
 10
440.1705944478181
 20
250.2355278492874
 30
0.0
 10
440.1705944478181
 20
250.2355278492874
 30
0.0
 10
441.994335811638
 20
250.2355278492874
 30
0.0
 10
441.994335811638
 20
250.2355278492874
 30
0.0
 10
441.994335811638
 20
250.2355278492874
 30
0.0
 10
441.994335811638
 20
249.2360898378097
 30
0.0
 10
441.994335811638
 20
249.2360898378097
 30
0.0
 10
441.994335811638
 20
249.2360898378097
 30
0.0
 10
440.1705944478181
 20
249.2360898378097
 30
0.0
 10
440.1705944478181
 20
249.2360898378097
 30
0.0
 10
440.1705944478181
 20
249.2360898378097
 30
0.0
 10
440.1705944478181
 20
247.1860606223347
 30
0.0
 10
440.1705944478181
 20
247.1860606223347
 30
0.0
 10
440.1705944478181
 20
247.1860606223347
 30
0.0
 10
438.97889846276
 20
247.1860606223347
 30
0.0
 10
438.97889846276
 20
247.1860606223347
 30
0.0
 10
438.97889846276
 20
247.1860606223347
 30
0.0
 10
438.97889846276
 20
252.4572237108459
 30
0.0
 10
438.97889846276
 20
252.4572237108459
 30
0.0
  0
HATCH
  5
15F
330
140
100
AcDbEntity
  8
Layer 1
 62
     5
100
AcDbHatch
 10
0.0
 20
0.0
 30
0.0
210
0.0
220
0.0
230
1.0
  2
SOLID
 70
     1
 71
     1
 91
        1
 92
        1
 93
        1
 72
     4
 94
        3
 73
     0
 74
     0
 95
       35
 96
       31
 40
0.0
 40
0.0
 40
0.0
 40
0.0
 40
1.0
 40
1.0
 40
1.0
 40
2.0
 40
2.0
 40
2.0
 40
3.0
 40
3.0
 40
3.0
 40
4.0
 40
4.0
 40
4.0
 40
5.0
 40
5.0
 40
5.0
 40
6.0
 40
6.0
 40
6.0
 40
7.0
 40
7.0
 40
7.0
 40
8.0
 40
8.0
 40
8.0
 40
9.0
 40
9.0
 40
9.0
 40
10.0
 40
10.0
 40
10.0
 40
10.0
 10
438.97889846276
 20
252.4572237108459
 10
438.97889846276
 20
252.4572237108459
 10
442.3055899830719
 20
252.4572237108459
 10
442.3055899830719
 20
252.4572237108459
 10
442.3055899830719
 20
252.4572237108459
 10
442.3055899830719
 20
251.4577856993682
 10
442.3055899830719
 20
251.4577856993682
 10
442.3055899830719
 20
251.4577856993682
 10
440.1705944478181
 20
251.4577856993682
 10
440.1705944478181
 20
251.4577856993682
 10
440.1705944478181
 20
251.4577856993682
 10
440.1705944478181
 20
250.2355278492874
 10
440.1705944478181
 20
250.2355278492874
 10
440.1705944478181
 20
250.2355278492874
 10
441.994335811638
 20
250.2355278492874
 10
441.994335811638
 20
250.2355278492874
 10
441.994335811638
 20
250.2355278492874
 10
441.994335811638
 20
249.2360898378097
 10
441.994335811638
 20
249.2360898378097
 10
441.994335811638
 20
249.2360898378097
 10
440.1705944478181
 20
249.2360898378097
 10
440.1705944478181
 20
249.2360898378097
 10
440.1705944478181
 20
249.2360898378097
 10
440.1705944478181
 20
247.1860606223347
 10
440.1705944478181
 20
247.1860606223347
 10
440.1705944478181
 20
247.1860606223347
 10
438.97889846276
 20
247.1860606223347
 10
438.97889846276
 20
247.1860606223347
 10
438.97889846276
 20
247.1860606223347
 10
438.97889846276
 20
252.4572237108459
 10
438.97889846276
 20
252.4572237108459
 97
        1
330
15E
 75
     2
 76
     1
 98
        1
 10
0.0
 20
0.0
  0
SPLINE
  5
160
330
140
100
AcDbEntity
  8
Layer 1
100
AcDbSpline
210
0.0
220
0.0
230
1.0
 70
     9
 71
     3
 72
    17
 73
    13
 74
     0
 42
0.0000000001
 43
0.0000000001
 40
0.0
 40
0.0
 40
0.0
 40
0.0
 40
1.0
 40
1.0
 40
1.0
 40
2.0
 40
2.0
 40
2.0
 40
3.0
 40
3.0
 40
3.0
 40
4.0
 40
4.0
 40
4.0
 40
4.0
 10
446.4515995869633
 20
249.8445093776532
 30
0.0
 10
446.4515995869633
 20
250.9013863553075
 30
0.0
 10
445.9981568803899
 20
251.5251952030699
 30
0.0
 10
445.2789776736921
 20
251.5251952030699
 30
0.0
 10
444.5597984669943
 20
251.5251952030699
 30
0.0
 10
444.1059222587893
 20
250.9013863553075
 30
0.0
 10
444.1059222587893
 20
249.8445093776532
 30
0.0
 10
444.1059222587893
 20
248.7876323999985
 30
0.0
 10
444.5597984669943
 20
248.1178723792949
 30
0.0
 10
445.2789776736921
 20
248.1178723792949
 30
0.0
 10
445.9981568803899
 20
248.1178723792949
 30
0.0
 10
446.4515995869633
 20
248.7876323999985
 30
0.0
 10
446.4515995869633
 20
249.8445093776532
 30
0.0
  0
SPLINE
  5
161
330
140
100
AcDbEntity
  8
Layer 1
100
AcDbSpline
210
0.0
220
0.0
230
1.0
 70
     9
 71
     3
 72
    17
 73
    13
 74
     0
 42
0.0000000001
 43
0.0000000001
 40
0.0
 40
0.0
 40
0.0
 40
0.0
 40
1.0
 40
1.0
 40
1.0
 40
2.0
 40
2.0
 40
2.0
 40
3.0
 40
3.0
 40
3.0
 40
4.0
 40
4.0
 40
4.0
 40
4.0
 10
442.8847481627875
 20
249.8445093776532
 30
0.0
 10
442.8847481627875
 20
251.5665946088806
 30
0.0
 10
443.857525823926
 20
252.554328076307
 30
0.0
 10
445.2789776736921
 20
252.554328076307
 30
0.0
 10
446.7004295234576
 20
252.554328076307
 30
0.0
 10
447.6727736829651
 20
251.5600920844077
 30
0.0
 10
447.6727736829651
 20
249.8445093776532
 30
0.0
 10
447.6727736829651
 20
248.12220739561
 30
0.0
 10
446.7004295234576
 20
247.0889562568735
 30
0.0
 10
445.2789776736921
 20
247.0889562568735
 30
0.0
 10
443.857525823926
 20
247.0889562568735
 30
0.0
 10
442.8847481627875
 20
248.12220739561
 30
0.0
 10
442.8847481627875
 20
249.8445093776532
 30
0.0
  0
HATCH
  5
162
330
140
100
AcDbEntity
  8
Layer 1
 62
     5
100
AcDbHatch
 10
0.0
 20
0.0
 30
0.0
210
0.0
220
0.0
230
1.0
  2
SOLID
 70
     1
 71
     1
 91
        2
 92
        1
 93
        1
 72
     4
 94
        3
 73
     0
 74
     0
 95
       17
 96
       13
 40
0.0
 40
0.0
 40
0.0
 40
0.0
 40
1.0
 40
1.0
 40
1.0
 40
2.0
 40
2.0
 40
2.0
 40
3.0
 40
3.0
 40
3.0
 40
4.0
 40
4.0
 40
4.0
 40
4.0
 10
446.4515995869633
 20
249.8445093776532
 10
446.4515995869633
 20
250.9013863553075
 10
445.9981568803899
 20
251.5251952030699
 10
445.2789776736921
 20
251.5251952030699
 10
444.5597984669943
 20
251.5251952030699
 10
444.1059222587893
 20
250.9013863553075
 10
444.1059222587893
 20
249.8445093776532
 10
444.1059222587893
 20
248.7876323999985
 10
444.5597984669943
 20
248.1178723792949
 10
445.2789776736921
 20
248.1178723792949
 10
445.9981568803899
 20
248.1178723792949
 10
446.4515995869633
 20
248.7876323999985
 10
446.4515995869633
 20
249.8445093776532
 97
        1
330
160
 92
        1
 93
        1
 72
     4
 94
        3
 73
     0
 74
     0
 95
       17
 96
       13
 40
0.0
 40
0.0
 40
0.0
 40
0.0
 40
1.0
 40
1.0
 40
1.0
 40
2.0
 40
2.0
 40
2.0
 40
3.0
 40
3.0
 40
3.0
 40
4.0
 40
4.0
 40
4.0
 40
4.0
 10
442.8847481627875
 20
249.8445093776532
 10
442.8847481627875
 20
251.5665946088806
 10
443.857525823926
 20
252.554328076307
 10
445.2789776736921
 20
252.554328076307
 10
446.7004295234576
 20
252.554328076307
 10
447.6727736829651
 20
251.5600920844077
 10
447.6727736829651
 20
249.8445093776532
 10
447.6727736829651
 20
248.12220739561
 10
446.7004295234576
 20
247.0889562568735
 10
445.2789776736921
 20
247.0889562568735
 10
443.857525823926
 20
247.0889562568735
 10
442.8847481627875
 20
248.12220739561
 10
442.8847481627875
 20
249.8445093776532
 97
        1
330
161
 75
     2
 76
     1
 98
        1
 10
0.0
 20
0.0
  0
SPLINE
  5
163
330
140
100
AcDbEntity
  8
Layer 1
100
AcDbSpline
210
0.0
220
0.0
230
1.0
 70
    11
 71
     3
 72
    17
 73
    13
 74
     0
 42
0.0000000001
 43
0.0000000001
 40
0.0
 40
0.0
 40
0.0
 40
0.0
 40
1.0
 40
1.0
 40
1.0
 40
2.0
 40
2.0
 40
2.0
 40
3.0
 40
3.0
 40
3.0
 40
4.0
 40
4.0
 40
4.0
 40
4.0
 10
450.3444442380451
 20
249.3971356939208
 30
0.0
 10
450.3444442380451
 20
249.3971356939208
 30
0.0
 10
451.1685308395711
 20
250.1596650637708
 30
0.0
 10
451.1685308395711
 20
250.1596650637708
 30
0.0
 10
451.1685308395711
 20
250.1596650637708
 30
0.0
 10
452.8509506715146
 20
247.1860606223347
 30
0.0
 10
452.8509506715146
 20
247.1860606223347
 30
0.0
 10
452.8509506715146
 20
247.1860606223347
 30
0.0
 10
451.5170661513163
 20
247.1860606223347
 30
0.0
 10
451.5170661513163
 20
247.1860606223347
 30
0.0
 10
451.5170661513163
 20
247.1860606223347
 30
0.0
 10
450.3444442380451
 20
249.3971356939208
 30
0.0
 10
450.3444442380451
 20
249.3971356939208
 30
0.0
  0
SPLINE
  5
164
330
140
100
AcDbEntity
  8
Layer 1
100
AcDbSpline
210
0.0
220
0.0
230
1.0
 70
     9
 71
     3
 72
    20
 73
    16
 74
     0
 42
0.0000000001
 43
0.0000000001
 40
0.0
 40
0.0
 40
0.0
 40
0.0
 40
1.0
 40
1.0
 40
1.0
 40
2.0
 40
2.0
 40
2.0
 40
3.0
 40
3.0
 40
3.0
 40
4.0
 40
4.0
 40
4.0
 40
5.0
 40
5.0
 40
5.0
 40
5.0
 10
450.4653911932403
 20
250.0291810726821
 30
0.0
 10
451.0922345524233
 20
250.0291810726821
 30
0.0
 10
451.4286318184853
 20
250.2973018317795
 30
0.0
 10
451.4286318184853
 20
250.8157697830817
 30
0.0
 10
451.4286318184853
 20
251.3370554949887
 30
0.0
 10
451.0922345524233
 20
251.5111064000455
 30
0.0
 10
450.4653911932403
 20
251.5111064000455
 30
0.0
 10
450.4653911932403
 20
251.5111064000455
 30
0.0
 10
449.8554543976868
 20
251.5111064000455
 30
0.0
 10
449.8554543976868
 20
251.5111064000455
 30
0.0
 10
449.8554543976868
 20
251.5111064000455
 30
0.0
 10
449.8554543976868
 20
250.0291810726821
 30
0.0
 10
449.8554543976868
 20
250.0291810726821
 30
0.0
 10
449.8554543976868
 20
250.0291810726821
 30
0.0
 10
450.4653911932403
 20
250.0291810726821
 30
0.0
 10
450.4653911932403
 20
250.0291810726821
 30
0.0
  0
SPLINE
  5
165
330
140
100
AcDbEntity
  8
Layer 1
100
AcDbSpline
210
0.0
220
0.0
230
1.0
 70
    11
 71
     3
 72
    26
 73
    22
 74
     0
 42
0.0000000001
 43
0.0000000001
 40
0.0
 40
0.0
 40
0.0
 40
0.0
 40
1.0
 40
1.0
 40
1.0
 40
2.0
 40
2.0
 40
2.0
 40
3.0
 40
3.0
 40
3.0
 40
4.0
 40
4.0
 40
4.0
 40
5.0
 40
5.0
 40
5.0
 40
6.0
 40
6.0
 40
6.0
 40
7.0
 40
7.0
 40
7.0
 40
7.0
 10
448.663758412628
 20
252.4572237108459
 30
0.0
 10
448.663758412628
 20
252.4572237108459
 30
0.0
 10
450.56206205707
 20
252.4572237108459
 30
0.0
 10
450.56206205707
 20
252.4572237108459
 30
0.0
 10
451.6800627647692
 20
252.4572237108459
 30
0.0
 10
452.5964852138101
 20
252.0690229998165
 30
0.0
 10
452.5964852138101
 20
250.8157697830817
 30
0.0
 10
452.5964852138101
 20
249.6043494737892
 30
0.0
 10
451.6800627647692
 20
249.0830637618821
 30
0.0
 10
450.56206205707
 20
249.0830637618821
 30
0.0
 10
450.56206205707
 20
249.0830637618821
 30
0.0
 10
449.8554543976868
 20
249.0830637618821
 30
0.0
 10
449.8554543976868
 20
249.0830637618821
 30
0.0
 10
449.8554543976868
 20
249.0830637618821
 30
0.0
 10
449.8554543976868
 20
247.1860606223347
 30
0.0
 10
449.8554543976868
 20
247.1860606223347
 30
0.0
 10
449.8554543976868
 20
247.1860606223347
 30
0.0
 10
448.663758412628
 20
247.1860606223347
 30
0.0
 10
448.663758412628
 20
247.1860606223347
 30
0.0
 10
448.663758412628
 20
247.1860606223347
 30
0.0
 10
448.663758412628
 20
252.4572237108459
 30
0.0
 10
448.663758412628
 20
252.4572237108459
 30
0.0
  0
HATCH
  5
166
330
140
100
AcDbEntity
  8
Layer 1
 62
     5
100
AcDbHatch
 10
0.0
 20
0.0
 30
0.0
210
0.0
220
0.0
230
1.0
  2
SOLID
 70
     1
 71
     1
 91
        3
 92
        1
 93
        1
 72
     4
 94
        3
 73
     0
 74
     0
 95
       17
 96
       13
 40
0.0
 40
0.0
 40
0.0
 40
0.0
 40
1.0
 40
1.0
 40
1.0
 40
2.0
 40
2.0
 40
2.0
 40
3.0
 40
3.0
 40
3.0
 40
4.0
 40
4.0
 40
4.0
 40
4.0
 10
450.3444442380451
 20
249.3971356939208
 10
450.3444442380451
 20
249.3971356939208
 10
451.1685308395711
 20
250.1596650637708
 10
451.1685308395711
 20
250.1596650637708
 10
451.1685308395711
 20
250.1596650637708
 10
452.8509506715146
 20
247.1860606223347
 10
452.8509506715146
 20
247.1860606223347
 10
452.8509506715146
 20
247.1860606223347
 10
451.5170661513163
 20
247.1860606223347
 10
451.5170661513163
 20
247.1860606223347
 10
451.5170661513163
 20
247.1860606223347
 10
450.3444442380451
 20
249.3971356939208
 10
450.3444442380451
 20
249.3971356939208
 97
        1
330
163
 92
        1
 93
        1
 72
     4
 94
        3
 73
     0
 74
     0
 95
       20
 96
       16
 40
0.0
 40
0.0
 40
0.0
 40
0.0
 40
1.0
 40
1.0
 40
1.0
 40
2.0
 40
2.0
 40
2.0
 40
3.0
 40
3.0
 40
3.0
 40
4.0
 40
4.0
 40
4.0
 40
5.0
 40
5.0
 40
5.0
 40
5.0
 10
450.4653911932403
 20
250.0291810726821
 10
451.0922345524233
 20
250.0291810726821
 10
451.4286318184853
 20
250.2973018317795
 10
451.4286318184853
 20
250.8157697830817
 10
451.4286318184853
 20
251.3370554949887
 10
451.0922345524233
 20
251.5111064000455
 10
450.4653911932403
 20
251.5111064000455
 10
450.4653911932403
 20
251.5111064000455
 10
449.8554543976868
 20
251.5111064000455
 10
449.8554543976868
 20
251.5111064000455
 10
449.8554543976868
 20
251.5111064000455
 10
449.8554543976868
 20
250.0291810726821
 10
449.8554543976868
 20
250.0291810726821
 10
449.8554543976868
 20
250.0291810726821
 10
450.4653911932403
 20
250.0291810726821
 10
450.4653911932403
 20
250.0291810726821
 97
        1
330
164
 92
        1
 93
        1
 72
     4
 94
        3
 73
     0
 74
     0
 95
       26
 96
       22
 40
0.0
 40
0.0
 40
0.0
 40
0.0
 40
1.0
 40
1.0
 40
1.0
 40
2.0
 40
2.0
 40
2.0
 40
3.0
 40
3.0
 40
3.0
 40
4.0
 40
4.0
 40
4.0
 40
5.0
 40
5.0
 40
5.0
 40
6.0
 40
6.0
 40
6.0
 40
7.0
 40
7.0
 40
7.0
 40
7.0
 10
448.663758412628
 20
252.4572237108459
 10
448.663758412628
 20
252.4572237108459
 10
450.56206205707
 20
252.4572237108459
 10
450.56206205707
 20
252.4572237108459
 10
451.6800627647692
 20
252.4572237108459
 10
452.5964852138101
 20
252.0690229998165
 10
452.5964852138101
 20
250.8157697830817
 10
452.5964852138101
 20
249.6043494737892
 10
451.6800627647692
 20
249.0830637618821
 10
450.56206205707
 20
249.0830637618821
 10
450.56206205707
 20
249.0830637618821
 10
449.8554543976868
 20
249.0830637618821
 10
449.8554543976868
 20
249.0830637618821
 10
449.8554543976868
 20
249.0830637618821
 10
449.8554543976868
 20
247.1860606223347
 10
449.8554543976868
 20
247.1860606223347
 10
449.8554543976868
 20
247.1860606223347
 10
448.663758412628
 20
247.1860606223347
 10
448.663758412628
 20
247.1860606223347
 10
448.663758412628
 20
247.1860606223347
 10
448.663758412628
 20
252.4572237108459
 10
448.663758412628
 20
252.4572237108459
 97
        1
330
165
 75
     2
 76
     1
 98
        1
 10
0.0
 20
0.0
  0
SPLINE
  5
167
330
140
100
AcDbEntity
  8
Layer 1
100
AcDbSpline
210
0.0
220
0.0
230
1.0
 70
     9
 71
     3
 72
    53
 73
    49
 74
     0
 42
0.0000000001
 43
0.0000000001
 40
0.0
 40
0.0
 40
0.0
 40
0.0
 40
1.0
 40
1.0
 40
1.0
 40
2.0
 40
2.0
 40
2.0
 40
3.0
 40
3.0
 40
3.0
 40
4.0
 40
4.0
 40
4.0
 40
5.0
 40
5.0
 40
5.0
 40
6.0
 40
6.0
 40
6.0
 40
7.0
 40
7.0
 40
7.0
 40
8.0
 40
8.0
 40
8.0
 40
9.0
 40
9.0
 40
9.0
 40
10.0
 40
10.0
 40
10.0
 40
11.0
 40
11.0
 40
11.0
 40
12.0
 40
12.0
 40
12.0
 40
13.0
 40
13.0
 40
13.0
 40
14.0
 40
14.0
 40
14.0
 40
15.0
 40
15.0
 40
15.0
 40
16.0
 40
16.0
 40
16.0
 40
16.0
 10
454.8962113690426
 20
247.851052125092
 30
0.0
 10
454.8962113690426
 20
247.851052125092
 30
0.0
 10
455.5802769435871
 20
248.6688529529613
 30
0.0
 10
455.5802769435871
 20
248.6688529529613
 30
0.0
 10
455.9552558548547
 20
248.3424262244238
 30
0.0
 10
456.4412111837929
 20
248.1178723792949
 30
0.0
 10
456.8751463169477
 20
248.1178723792949
 30
0.0
 10
457.3728061899369
 20
248.1178723792949
 30
0.0
 10
457.6160006052216
 20
248.3138151167434
 30
0.0
 10
457.6160006052216
 20
248.6265865438878
 30
0.0
 10
457.6160006052216
 20
248.9584320428189
 30
0.0
 10
457.3164509778386
 20
249.0650734441739
 30
0.0
 10
456.8560722451608
 20
249.2542969063337
 30
0.0
 10
456.8560722451608
 20
249.2542969063337
 30
0.0
 10
456.1711396673536
 20
249.5464770059806
 30
0.0
 10
456.1711396673536
 20
249.5464770059806
 30
0.0
 10
455.6249276116338
 20
249.7686465921367
 30
0.0
 10
455.1073266635945
 20
250.2173207807633
 30
0.0
 10
455.1073266635945
 20
250.9831014128498
 30
0.0
 10
455.1073266635945
 20
251.8566072003697
 30
0.0
 10
455.887629600337
 20
252.554328076307
 30
0.0
 10
456.984822229723
 20
252.554328076307
 30
0.0
 10
457.5917245138565
 20
252.554328076307
 30
0.0
 10
458.2263709024066
 20
252.315035175706
 30
0.0
 10
458.6802471106123
 20
251.8635432264742
 30
0.0
 10
458.6802471106123
 20
251.8635432264742
 30
0.0
 10
458.0785468460574
 20
251.1125016498598
 30
0.0
 10
458.0785468460574
 20
251.1125016498598
 30
0.0
 10
457.7313120392071
 20
251.378888402431
 30
0.0
 10
457.4014172976173
 20
251.5251952030699
 30
0.0
 10
456.984822229723
 20
251.5251952030699
 30
0.0
 10
456.573862683039
 20
251.5251952030699
 30
0.0
 10
456.3120276975983
 20
251.3541788094341
 30
0.0
 10
456.3120276975983
 20
251.0526784247093
 30
0.0
 10
456.3120276975983
 20
250.7292862075927
 30
0.0
 10
456.6570949962913
 20
250.6120240162658
 30
0.0
 10
457.1170402273382
 20
250.4286528261311
 30
0.0
 10
457.1170402273382
 20
250.4286528261311
 30
0.0
 10
457.7889677561996
 20
250.1566305523502
 30
0.0
 10
457.7889677561996
 20
250.1566305523502
 30
0.0
 10
458.4322841773806
 20
249.896529573436
 30
0.0
 10
458.8345736914343
 20
249.4677964598592
 30
0.0
 10
458.8345736914343
 20
248.7228239060858
 30
0.0
 10
458.8345736914343
 20
247.847367361224
 30
0.0
 10
458.1045569439488
 20
247.0889562568735
 30
0.0
 10
456.8487027174247
 20
247.0889562568735
 30
0.0
 10
456.1624696347228
 20
247.0889562568735
 30
0.0
 10
455.4337533921321
 20
247.3486237341561
 30
0.0
 10
454.8962113690426
 20
247.851052125092
 30
0.0
  0
HATCH
  5
168
330
140
100
AcDbEntity
  8
Layer 1
 62
     5
100
AcDbHatch
 10
0.0
 20
0.0
 30
0.0
210
0.0
220
0.0
230
1.0
  2
SOLID
 70
     1
 71
     1
 91
        1
 92
        1
 93
        1
 72
     4
 94
        3
 73
     0
 74
     0
 95
       53
 96
       49
 40
0.0
 40
0.0
 40
0.0
 40
0.0
 40
1.0
 40
1.0
 40
1.0
 40
2.0
 40
2.0
 40
2.0
 40
3.0
 40
3.0
 40
3.0
 40
4.0
 40
4.0
 40
4.0
 40
5.0
 40
5.0
 40
5.0
 40
6.0
 40
6.0
 40
6.0
 40
7.0
 40
7.0
 40
7.0
 40
8.0
 40
8.0
 40
8.0
 40
9.0
 40
9.0
 40
9.0
 40
10.0
 40
10.0
 40
10.0
 40
11.0
 40
11.0
 40
11.0
 40
12.0
 40
12.0
 40
12.0
 40
13.0
 40
13.0
 40
13.0
 40
14.0
 40
14.0
 40
14.0
 40
15.0
 40
15.0
 40
15.0
 40
16.0
 40
16.0
 40
16.0
 40
16.0
 10
454.8962113690426
 20
247.851052125092
 10
454.8962113690426
 20
247.851052125092
 10
455.5802769435871
 20
248.6688529529613
 10
455.5802769435871
 20
248.6688529529613
 10
455.9552558548547
 20
248.3424262244238
 10
456.4412111837929
 20
248.1178723792949
 10
456.8751463169477
 20
248.1178723792949
 10
457.3728061899369
 20
248.1178723792949
 10
457.6160006052216
 20
248.3138151167434
 10
457.6160006052216
 20
248.6265865438878
 10
457.6160006052216
 20
248.9584320428189
 10
457.3164509778386
 20
249.0650734441739
 10
456.8560722451608
 20
249.2542969063337
 10
456.8560722451608
 20
249.2542969063337
 10
456.1711396673536
 20
249.5464770059806
 10
456.1711396673536
 20
249.5464770059806
 10
455.6249276116338
 20
249.7686465921367
 10
455.1073266635945
 20
250.2173207807633
 10
455.1073266635945
 20
250.9831014128498
 10
455.1073266635945
 20
251.8566072003697
 10
455.887629600337
 20
252.554328076307
 10
456.984822229723
 20
252.554328076307
 10
457.5917245138565
 20
252.554328076307
 10
458.2263709024066
 20
252.315035175706
 10
458.6802471106123
 20
251.8635432264742
 10
458.6802471106123
 20
251.8635432264742
 10
458.0785468460574
 20
251.1125016498598
 10
458.0785468460574
 20
251.1125016498598
 10
457.7313120392071
 20
251.378888402431
 10
457.4014172976173
 20
251.5251952030699
 10
456.984822229723
 20
251.5251952030699
 10
456.573862683039
 20
251.5251952030699
 10
456.3120276975983
 20
251.3541788094341
 10
456.3120276975983
 20
251.0526784247093
 10
456.3120276975983
 20
250.7292862075927
 10
456.6570949962913
 20
250.6120240162658
 10
457.1170402273382
 20
250.4286528261311
 10
457.1170402273382
 20
250.4286528261311
 10
457.7889677561996
 20
250.1566305523502
 10
457.7889677561996
 20
250.1566305523502
 10
458.4322841773806
 20
249.896529573436
 10
458.8345736914343
 20
249.4677964598592
 10
458.8345736914343
 20
248.7228239060858
 10
458.8345736914343
 20
247.847367361224
 10
458.1045569439488
 20
247.0889562568735
 10
456.8487027174247
 20
247.0889562568735
 10
456.1624696347228
 20
247.0889562568735
 10
455.4337533921321
 20
247.3486237341561
 10
454.8962113690426
 20
247.851052125092
 97
        1
330
167
 75
     2
 76
     1
 98
        1
 10
0.0
 20
0.0
  0
SPLINE
  5
169
330
140
100
AcDbEntity
  8
Layer 1
100
AcDbSpline
210
0.0
220
0.0
230
1.0
 70
     9
 71
     3
 72
    35
 73
    31
 74
     0
 42
0.0000000001
 43
0.0000000001
 40
0.0
 40
0.0
 40
0.0
 40
0.0
 40
1.0
 40
1.0
 40
1.0
 40
2.0
 40
2.0
 40
2.0
 40
3.0
 40
3.0
 40
3.0
 40
4.0
 40
4.0
 40
4.0
 40
5.0
 40
5.0
 40
5.0
 40
6.0
 40
6.0
 40
6.0
 40
7.0
 40
7.0
 40
7.0
 40
8.0
 40
8.0
 40
8.0
 40
9.0
 40
9.0
 40
9.0
 40
10.0
 40
10.0
 40
10.0
 40
10.0
 10
459.4822251289308
 20
249.7911886769759
 30
0.0
 10
459.4822251289308
 20
251.5399342585418
 30
0.0
 10
460.638373980204
 20
252.554328076307
 30
0.0
 10
461.9705244938759
 20
252.554328076307
 30
0.0
 10
462.6519890586308
 20
252.554328076307
 30
0.0
 10
463.2008021241396
 20
252.2335368689795
 30
0.0
 10
463.5558399603576
 20
251.8700457509471
 30
0.0
 10
463.5558399603576
 20
251.8700457509471
 30
0.0
 10
462.9276960962798
 20
251.1057823745711
 30
0.0
 10
462.9276960962798
 20
251.1057823745711
 30
0.0
 10
462.6632601010507
 20
251.3522280520922
 30
0.0
 10
462.3788830307709
 20
251.5251952030699
 30
0.0
 10
461.9974015950305
 20
251.5251952030699
 30
0.0
 10
461.2743208736489
 20
251.5251952030699
 30
0.0
 10
460.7033992249325
 20
250.8879478047305
 30
0.0
 10
460.7033992249325
 20
249.8310708270759
 30
0.0
 10
460.7033992249325
 20
248.7475334990827
 30
0.0
 10
461.2075616223946
 20
248.1178723792949
 30
0.0
 10
461.978327523243
 20
248.1178723792949
 30
0.0
 10
462.4109621515036
 20
248.1178723792949
 30
0.0
 10
462.7516944338811
 20
248.3311551820042
 30
0.0
 10
463.0096279046378
 20
248.610763734337
 30
0.0
 10
463.0096279046378
 20
248.610763734337
 30
0.0
 10
463.6377717687158
 20
247.8625399183274
 30
0.0
 10
463.6377717687158
 20
247.8625399183274
 30
0.0
 10
463.199935120877
 20
247.3536090029186
 30
0.0
 10
462.6177424297408
 20
247.0889562568735
 30
0.0
 10
461.9354108617227
 20
247.0889562568735
 30
0.0
 10
460.5984918301037
 20
247.0889562568735
 30
0.0
 10
459.4822251289308
 20
248.0155659942553
 30
0.0
 10
459.4822251289308
 20
249.7911886769759
 30
0.0
  0
HATCH
  5
16A
330
140
100
AcDbEntity
  8
Layer 1
 62
     5
100
AcDbHatch
 10
0.0
 20
0.0
 30
0.0
210
0.0
220
0.0
230
1.0
  2
SOLID
 70
     1
 71
     1
 91
        1
 92
        1
 93
        1
 72
     4
 94
        3
 73
     0
 74
     0
 95
       35
 96
       31
 40
0.0
 40
0.0
 40
0.0
 40
0.0
 40
1.0
 40
1.0
 40
1.0
 40
2.0
 40
2.0
 40
2.0
 40
3.0
 40
3.0
 40
3.0
 40
4.0
 40
4.0
 40
4.0
 40
5.0
 40
5.0
 40
5.0
 40
6.0
 40
6.0
 40
6.0
 40
7.0
 40
7.0
 40
7.0
 40
8.0
 40
8.0
 40
8.0
 40
9.0
 40
9.0
 40
9.0
 40
10.0
 40
10.0
 40
10.0
 40
10.0
 10
459.4822251289308
 20
249.7911886769759
 10
459.4822251289308
 20
251.5399342585418
 10
460.638373980204
 20
252.554328076307
 10
461.9705244938759
 20
252.554328076307
 10
462.6519890586308
 20
252.554328076307
 10
463.2008021241396
 20
252.2335368689795
 10
463.5558399603576
 20
251.8700457509471
 10
463.5558399603576
 20
251.8700457509471
 10
462.9276960962798
 20
251.1057823745711
 10
462.9276960962798
 20
251.1057823745711
 10
462.6632601010507
 20
251.3522280520922
 10
462.3788830307709
 20
251.5251952030699
 10
461.9974015950305
 20
251.5251952030699
 10
461.2743208736489
 20
251.5251952030699
 10
460.7033992249325
 20
250.8879478047305
 10
460.7033992249325
 20
249.8310708270759
 10
460.7033992249325
 20
248.7475334990827
 10
461.2075616223946
 20
248.1178723792949
 10
461.978327523243
 20
248.1178723792949
 10
462.4109621515036
 20
248.1178723792949
 10
462.7516944338811
 20
248.3311551820042
 10
463.0096279046378
 20
248.610763734337
 10
463.0096279046378
 20
248.610763734337
 10
463.6377717687158
 20
247.8625399183274
 10
463.6377717687158
 20
247.8625399183274
 10
463.199935120877
 20
247.3536090029186
 10
462.6177424297408
 20
247.0889562568735
 10
461.9354108617227
 20
247.0889562568735
 10
460.5984918301037
 20
247.0889562568735
 10
459.4822251289308
 20
248.0155659942553
 10
459.4822251289308
 20
249.7911886769759
 97
        1
330
169
 75
     2
 76
     1
 98
        1
 10
0.0
 20
0.0
  0
SPLINE
  5
16B
330
140
100
AcDbEntity
  8
Layer 1
100
AcDbSpline
210
0.0
220
0.0
230
1.0
 70
    11
 71
     3
 72
    17
 73
    13
 74
     0
 42
0.0000000001
 43
0.0000000001
 40
0.0
 40
0.0
 40
0.0
 40
0.0
 40
1.0
 40
1.0
 40
1.0
 40
2.0
 40
2.0
 40
2.0
 40
3.0
 40
3.0
 40
3.0
 40
4.0
 40
4.0
 40
4.0
 40
4.0
 10
464.8537438451395
 20
249.3678743337929
 30
0.0
 10
464.8537438451395
 20
249.3678743337929
 30
0.0
 10
467.3901618911838
 20
249.3678743337929
 30
0.0
 10
467.3901618911838
 20
249.3678743337929
 30
0.0
 10
467.3901618911838
 20
249.3678743337929
 30
0.0
 10
467.3901618911838
 20
248.4416980980427
 30
0.0
 10
467.3901618911838
 20
248.4416980980427
 30
0.0
 10
467.3901618911838
 20
248.4416980980427
 30
0.0
 10
464.8537438451395
 20
248.4416980980427
 30
0.0
 10
464.8537438451395
 20
248.4416980980427
 30
0.0
 10
464.8537438451395
 20
248.4416980980427
 30
0.0
 10
464.8537438451395
 20
249.3678743337929
 30
0.0
 10
464.8537438451395
 20
249.3678743337929
 30
0.0
  0
SPLINE
  5
16C
330
140
100
AcDbEntity
  8
Layer 1
100
AcDbSpline
210
0.0
220
0.0
230
1.0
 70
    11
 71
     3
 72
    35
 73
    31
 74
     0
 42
0.0000000001
 43
0.0000000001
 40
0.0
 40
0.0
 40
0.0
 40
0.0
 40
1.0
 40
1.0
 40
1.0
 40
2.0
 40
2.0
 40
2.0
 40
3.0
 40
3.0
 40
3.0
 40
4.0
 40
4.0
 40
4.0
 40
5.0
 40
5.0
 40
5.0
 40
6.0
 40
6.0
 40
6.0
 40
7.0
 40
7.0
 40
7.0
 40
8.0
 40
8.0
 40
8.0
 40
9.0
 40
9.0
 40
9.0
 40
10.0
 40
10.0
 40
10.0
 40
10.0
 10
465.4177294677514
 20
252.4572237108459
 30
0.0
 10
465.4177294677514
 20
252.4572237108459
 30
0.0
 10
466.8435163338323
 20
252.4572237108459
 30
0.0
 10
466.8435163338323
 20
252.4572237108459
 30
0.0
 10
466.8435163338323
 20
252.4572237108459
 30
0.0
 10
468.4990590646212
 20
247.1860606223347
 30
0.0
 10
468.4990590646212
 20
247.1860606223347
 30
0.0
 10
468.4990590646212
 20
247.1860606223347
 30
0.0
 10
467.238002818519
 20
247.1860606223347
 30
0.0
 10
467.238002818519
 20
247.1860606223347
 30
0.0
 10
467.238002818519
 20
247.1860606223347
 30
0.0
 10
466.5483017227649
 20
249.855563669257
 30
0.0
 10
466.5483017227649
 20
249.855563669257
 30
0.0
 10
466.4017781713098
 20
250.3827016531898
 30
0.0
 10
466.2608901410651
 20
251.0058602485048
 30
0.0
 10
466.1200021108196
 20
251.5557570680926
 30
0.0
 10
466.1200021108196
 20
251.5557570680926
 30
0.0
 10
466.087922990087
 20
251.5557570680926
 30
0.0
 10
466.087922990087
 20
251.5557570680926
 30
0.0
 10
465.9604735104189
 20
250.9993577240319
 30
0.0
 10
465.8195854801736
 20
250.3827016531898
 30
0.0
 10
465.6730619287192
 20
249.855563669257
 30
0.0
 10
465.6730619287192
 20
249.855563669257
 30
0.0
 10
464.9807598231753
 20
247.1860606223347
 30
0.0
 10
464.9807598231753
 20
247.1860606223347
 30
0.0
 10
464.9807598231753
 20
247.1860606223347
 30
0.0
 10
463.7621867369632
 20
247.1860606223347
 30
0.0
 10
463.7621867369632
 20
247.1860606223347
 30
0.0
 10
463.7621867369632
 20
247.1860606223347
 30
0.0
 10
465.4177294677514
 20
252.4572237108459
 30
0.0
 10
465.4177294677514
 20
252.4572237108459
 30
0.0
  0
HATCH
  5
16D
330
140
100
AcDbEntity
  8
Layer 1
 62
     5
100
AcDbHatch
 10
0.0
 20
0.0
 30
0.0
210
0.0
220
0.0
230
1.0
  2
SOLID
 70
     1
 71
     1
 91
        2
 92
        1
 93
        1
 72
     4
 94
        3
 73
     0
 74
     0
 95
       17
 96
       13
 40
0.0
 40
0.0
 40
0.0
 40
0.0
 40
1.0
 40
1.0
 40
1.0
 40
2.0
 40
2.0
 40
2.0
 40
3.0
 40
3.0
 40
3.0
 40
4.0
 40
4.0
 40
4.0
 40
4.0
 10
464.8537438451395
 20
249.3678743337929
 10
464.8537438451395
 20
249.3678743337929
 10
467.3901618911838
 20
249.3678743337929
 10
467.3901618911838
 20
249.3678743337929
 10
467.3901618911838
 20
249.3678743337929
 10
467.3901618911838
 20
248.4416980980427
 10
467.3901618911838
 20
248.4416980980427
 10
467.3901618911838
 20
248.4416980980427
 10
464.8537438451395
 20
248.4416980980427
 10
464.8537438451395
 20
248.4416980980427
 10
464.8537438451395
 20
248.4416980980427
 10
464.8537438451395
 20
249.3678743337929
 10
464.8537438451395
 20
249.3678743337929
 97
        1
330
16B
 92
        1
 93
        1
 72
     4
 94
        3
 73
     0
 74
     0
 95
       35
 96
       31
 40
0.0
 40
0.0
 40
0.0
 40
0.0
 40
1.0
 40
1.0
 40
1.0
 40
2.0
 40
2.0
 40
2.0
 40
3.0
 40
3.0
 40
3.0
 40
4.0
 40
4.0
 40
4.0
 40
5.0
 40
5.0
 40
5.0
 40
6.0
 40
6.0
 40
6.0
 40
7.0
 40
7.0
 40
7.0
 40
8.0
 40
8.0
 40
8.0
 40
9.0
 40
9.0
 40
9.0
 40
10.0
 40
10.0
 40
10.0
 40
10.0
 10
465.4177294677514
 20
252.4572237108459
 10
465.4177294677514
 20
252.4572237108459
 10
466.8435163338323
 20
252.4572237108459
 10
466.8435163338323
 20
252.4572237108459
 10
466.8435163338323
 20
252.4572237108459
 10
468.4990590646212
 20
247.1860606223347
 10
468.4990590646212
 20
247.1860606223347
 10
468.4990590646212
 20
247.1860606223347
 10
467.238002818519
 20
247.1860606223347
 10
467.238002818519
 20
247.1860606223347
 10
467.238002818519
 20
247.1860606223347
 10
466.5483017227649
 20
249.855563669257
 10
466.5483017227649
 20
249.855563669257
 10
466.4017781713098
 20
250.3827016531898
 10
466.2608901410651
 20
251.0058602485048
 10
466.1200021108196
 20
251.5557570680926
 10
466.1200021108196
 20
251.5557570680926
 10
466.087922990087
 20
251.5557570680926
 10
466.087922990087
 20
251.5557570680926
 10
465.9604735104189
 20
250.9993577240319
 10
465.8195854801736
 20
250.3827016531898
 10
465.6730619287192
 20
249.855563669257
 10
465.6730619287192
 20
249.855563669257
 10
464.9807598231753
 20
247.1860606223347
 10
464.9807598231753
 20
247.1860606223347
 10
464.9807598231753
 20
247.1860606223347
 10
463.7621867369632
 20
247.1860606223347
 10
463.7621867369632
 20
247.1860606223347
 10
463.7621867369632
 20
247.1860606223347
 10
465.4177294677514
 20
252.4572237108459
 10
465.4177294677514
 20
252.4572237108459
 97
        1
330
16C
 75
     2
 76
     1
 98
        1
 10
0.0
 20
0.0
  0
SPLINE
  5
16E
330
140
100
AcDbEntity
  8
Layer 1
100
AcDbSpline
210
0.0
220
0.0
230
1.0
 70
    11
 71
     3
 72
    23
 73
    19
 74
     0
 42
0.0000000001
 43
0.0000000001
 40
0.0
 40
0.0
 40
0.0
 40
0.0
 40
1.0
 40
1.0
 40
1.0
 40
2.0
 40
2.0
 40
2.0
 40
3.0
 40
3.0
 40
3.0
 40
4.0
 40
4.0
 40
4.0
 40
5.0
 40
5.0
 40
5.0
 40
6.0
 40
6.0
 40
6.0
 40
6.0
 10
469.0045219669774
 20
252.4572237108459
 30
0.0
 10
469.0045219669774
 20
252.4572237108459
 30
0.0
 10
470.1962179520356
 20
252.4572237108459
 30
0.0
 10
470.1962179520356
 20
252.4572237108459
 30
0.0
 10
470.1962179520356
 20
252.4572237108459
 30
0.0
 10
470.1962179520356
 20
248.1854986338124
 30
0.0
 10
470.1962179520356
 20
248.1854986338124
 30
0.0
 10
470.1962179520356
 20
248.1854986338124
 30
0.0
 10
472.2770257833491
 20
248.1854986338124
 30
0.0
 10
472.2770257833491
 20
248.1854986338124
 30
0.0
 10
472.2770257833491
 20
248.1854986338124
 30
0.0
 10
472.2770257833491
 20
247.1860606223347
 30
0.0
 10
472.2770257833491
 20
247.1860606223347
 30
0.0
 10
472.2770257833491
 20
247.1860606223347
 30
0.0
 10
469.0045219669774
 20
247.1860606223347
 30
0.0
 10
469.0045219669774
 20
247.1860606223347
 30
0.0
 10
469.0045219669774
 20
247.1860606223347
 30
0.0
 10
469.0045219669774
 20
252.4572237108459
 30
0.0
 10
469.0045219669774
 20
252.4572237108459
 30
0.0
  0
HATCH
  5
16F
330
140
100
AcDbEntity
  8
Layer 1
 62
     5
100
AcDbHatch
 10
0.0
 20
0.0
 30
0.0
210
0.0
220
0.0
230
1.0
  2
SOLID
 70
     1
 71
     1
 91
        1
 92
        1
 93
        1
 72
     4
 94
        3
 73
     0
 74
     0
 95
       23
 96
       19
 40
0.0
 40
0.0
 40
0.0
 40
0.0
 40
1.0
 40
1.0
 40
1.0
 40
2.0
 40
2.0
 40
2.0
 40
3.0
 40
3.0
 40
3.0
 40
4.0
 40
4.0
 40
4.0
 40
5.0
 40
5.0
 40
5.0
 40
6.0
 40
6.0
 40
6.0
 40
6.0
 10
469.0045219669774
 20
252.4572237108459
 10
469.0045219669774
 20
252.4572237108459
 10
470.1962179520356
 20
252.4572237108459
 10
470.1962179520356
 20
252.4572237108459
 10
470.1962179520356
 20
252.4572237108459
 10
470.1962179520356
 20
248.1854986338124
 10
470.1962179520356
 20
248.1854986338124
 10
470.1962179520356
 20
248.1854986338124
 10
472.2770257833491
 20
248.1854986338124
 10
472.2770257833491
 20
248.1854986338124
 10
472.2770257833491
 20
248.1854986338124
 10
472.2770257833491
 20
247.1860606223347
 10
472.2770257833491
 20
247.1860606223347
 10
472.2770257833491
 20
247.1860606223347
 10
469.0045219669774
 20
247.1860606223347
 10
469.0045219669774
 20
247.1860606223347
 10
469.0045219669774
 20
247.1860606223347
 10
469.0045219669774
 20
252.4572237108459
 10
469.0045219669774
 20
252.4572237108459
 97
        1
330
16E
 75
     2
 76
     1
 98
        1
 10
0.0
 20
0.0
  0
SPLINE
  5
170
330
140
100
AcDbEntity
  8
Layer 1
100
AcDbSpline
210
0.0
220
0.0
230
1.0
 70
    11
 71
     3
 72
    41
 73
    37
 74
     0
 42
0.0000000001
 43
0.0000000001
 40
0.0
 40
0.0
 40
0.0
 40
0.0
 40
1.0
 40
1.0
 40
1.0
 40
2.0
 40
2.0
 40
2.0
 40
3.0
 40
3.0
 40
3.0
 40
4.0
 40
4.0
 40
4.0
 40
5.0
 40
5.0
 40
5.0
 40
6.0
 40
6.0
 40
6.0
 40
7.0
 40
7.0
 40
7.0
 40
8.0
 40
8.0
 40
8.0
 40
9.0
 40
9.0
 40
9.0
 40
10.0
 40
10.0
 40
10.0
 40
11.0
 40
11.0
 40
11.0
 40
12.0
 40
12.0
 40
12.0
 40
12.0
 10
473.192147727495
 20
252.4572237108459
 30
0.0
 10
473.192147727495
 20
252.4572237108459
 30
0.0
 10
476.4949966580735
 20
252.4572237108459
 30
0.0
 10
476.4949966580735
 20
252.4572237108459
 30
0.0
 10
476.4949966580735
 20
252.4572237108459
 30
0.0
 10
476.4949966580735
 20
251.4577856993682
 30
0.0
 10
476.4949966580735
 20
251.4577856993682
 30
0.0
 10
476.4949966580735
 20
251.4577856993682
 30
0.0
 10
474.3838437125539
 20
251.4577856993682
 30
0.0
 10
474.3838437125539
 20
251.4577856993682
 30
0.0
 10
474.3838437125539
 20
251.4577856993682
 30
0.0
 10
474.3838437125539
 20
250.3993914660032
 30
0.0
 10
474.3838437125539
 20
250.3993914660032
 30
0.0
 10
474.3838437125539
 20
250.3993914660032
 30
0.0
 10
476.1811414768508
 20
250.3993914660032
 30
0.0
 10
476.1811414768508
 20
250.3993914660032
 30
0.0
 10
476.1811414768508
 20
250.3993914660032
 30
0.0
 10
476.1811414768508
 20
249.3999534545259
 30
0.0
 10
476.1811414768508
 20
249.3999534545259
 30
0.0
 10
476.1811414768508
 20
249.3999534545259
 30
0.0
 10
474.3838437125539
 20
249.3999534545259
 30
0.0
 10
474.3838437125539
 20
249.3999534545259
 30
0.0
 10
474.3838437125539
 20
249.3999534545259
 30
0.0
 10
474.3838437125539
 20
248.1854986338124
 30
0.0
 10
474.3838437125539
 20
248.1854986338124
 30
0.0
 10
474.3838437125539
 20
248.1854986338124
 30
0.0
 10
476.5760614631684
 20
248.1854986338124
 30
0.0
 10
476.5760614631684
 20
248.1854986338124
 30
0.0
 10
476.5760614631684
 20
248.1854986338124
 30
0.0
 10
476.5760614631684
 20
247.1860606223347
 30
0.0
 10
476.5760614631684
 20
247.1860606223347
 30
0.0
 10
476.5760614631684
 20
247.1860606223347
 30
0.0
 10
473.192147727495
 20
247.1860606223347
 30
0.0
 10
473.192147727495
 20
247.1860606223347
 30
0.0
 10
473.192147727495
 20
247.1860606223347
 30
0.0
 10
473.192147727495
 20
252.4572237108459
 30
0.0
 10
473.192147727495
 20
252.4572237108459
 30
0.0
  0
HATCH
  5
171
330
140
100
AcDbEntity
  8
Layer 1
 62
     5
100
AcDbHatch
 10
0.0
 20
0.0
 30
0.0
210
0.0
220
0.0
230
1.0
  2
SOLID
 70
     1
 71
     1
 91
        1
 92
        1
 93
        1
 72
     4
 94
        3
 73
     0
 74
     0
 95
       41
 96
       37
 40
0.0
 40
0.0
 40
0.0
 40
0.0
 40
1.0
 40
1.0
 40
1.0
 40
2.0
 40
2.0
 40
2.0
 40
3.0
 40
3.0
 40
3.0
 40
4.0
 40
4.0
 40
4.0
 40
5.0
 40
5.0
 40
5.0
 40
6.0
 40
6.0
 40
6.0
 40
7.0
 40
7.0
 40
7.0
 40
8.0
 40
8.0
 40
8.0
 40
9.0
 40
9.0
 40
9.0
 40
10.0
 40
10.0
 40
10.0
 40
11.0
 40
11.0
 40
11.0
 40
12.0
 40
12.0
 40
12.0
 40
12.0
 10
473.192147727495
 20
252.4572237108459
 10
473.192147727495
 20
252.4572237108459
 10
476.4949966580735
 20
252.4572237108459
 10
476.4949966580735
 20
252.4572237108459
 10
476.4949966580735
 20
252.4572237108459
 10
476.4949966580735
 20
251.4577856993682
 10
476.4949966580735
 20
251.4577856993682
 10
476.4949966580735
 20
251.4577856993682
 10
474.3838437125539
 20
251.4577856993682
 10
474.3838437125539
 20
251.4577856993682
 10
474.3838437125539
 20
251.4577856993682
 10
474.3838437125539
 20
250.3993914660032
 10
474.3838437125539
 20
250.3993914660032
 10
474.3838437125539
 20
250.3993914660032
 10
476.1811414768508
 20
250.3993914660032
 10
476.1811414768508
 20
250.3993914660032
 10
476.1811414768508
 20
250.3993914660032
 10
476.1811414768508
 20
249.3999534545259
 10
476.1811414768508
 20
249.3999534545259
 10
476.1811414768508
 20
249.3999534545259
 10
474.3838437125539
 20
249.3999534545259
 10
474.3838437125539
 20
249.3999534545259
 10
474.3838437125539
 20
249.3999534545259
 10
474.3838437125539
 20
248.1854986338124
 10
474.3838437125539
 20
248.1854986338124
 10
474.3838437125539
 20
248.1854986338124
 10
476.5760614631684
 20
248.1854986338124
 10
476.5760614631684
 20
248.1854986338124
 10
476.5760614631684
 20
248.1854986338124
 10
476.5760614631684
 20
247.1860606223347
 10
476.5760614631684
 20
247.1860606223347
 10
476.5760614631684
 20
247.1860606223347
 10
473.192147727495
 20
247.1860606223347
 10
473.192147727495
 20
247.1860606223347
 10
473.192147727495
 20
247.1860606223347
 10
473.192147727495
 20
252.4572237108459
 10
473.192147727495
 20
252.4572237108459
 97
        1
330
170
 75
     2
 76
     1
 98
        1
 10
0.0
 20
0.0
  0
ENDBLK
  5
143
330
140
100
AcDbEntity
  8
0
100
AcDbBlockEnd
  0
ENDSEC
  0
SECTION
  2
ENTITIES
  0
LINE
  5
79
330
70
100
AcDbEntity
  8
Layer 1
 62
     7
370
    70
100
AcDbLine
 10
298.1823580071363
 20
308.2669093664716
 30
0.0
 11
293.0317626672718
 21
305.1947697196336
 31
0.0
  0
LWPOLYLINE
  5
7A
330
70
100
AcDbEntity
  8
Layer 1
 62
     7
370
    70
100
AcDbPolyline
 90
       18
 70
     0
 43
0.0
 10
298.1823580071363
 20
308.2669093664716
 10
299.8854042251043
 20
309.4059380828496
 10
301.4858701695904
 20
310.6480976769708
 10
302.9295253253116
 20
312.0842662794219
 10
304.2706112374706
 20
313.6235472674142
 10
305.4304509406918
 20
315.2601043305598
 10
306.4696295035598
 20
317.0300742217797
 10
307.2972513587144
 20
318.8792661676734
 10
307.9617114394335
 20
320.7954042240749
 10
308.4810593066575
 20
322.7482379100962
 10
308.7888568730356
 20
324.7802724011125
 10
308.9090213158207
 20
326.7825487814251
 10
308.8357070785295
 20
328.8337385014443
 10
308.6231482440588
 20
330.8429154162713
 10
308.174574166453
 20
332.8345676652054
 10
307.5564385860263
 20
334.7661743381476
 10
306.7687589395648
 20
336.6376956932187
 10
305.8295801649556
 20
338.4188784920551
  0
LWPOLYLINE
  5
7B
330
70
100
AcDbEntity
  8
Layer 1
 62
     7
370
    70
100
AcDbPolyline
 90
       18
 70
     0
 43
0.0
 10
262.8978540507883
 20
312.8116915166785
 10
263.9885255466795
 20
311.120868523758
 10
265.2609643336516
 20
309.5384880691944
 10
266.6668444971502
 20
308.0767419085921
 10
268.2364249540082
 20
306.7537285091125
 10
269.8729709872412
 20
305.5939072980913
 10
271.6429583969982
 20
304.5547203810287
 10
273.461835139304
 20
303.7090103602327
 10
275.3960642005821
 20
303.0142618405613
 10
277.3611248427924
 20
302.5432859548803
 10
279.3628515925062
 20
302.2174297449781
 10
281.4134989806961
 20
302.0850189618973
 10
283.4343772282734
 20
302.1402597946047
 10
285.455796834011
 20
302.4012062635792
 10
287.4171496140787
 20
302.8317078285084
 10
289.3971125338424
 20
303.4376007997814
 10
291.2505826259156
 20
304.2555863219761
 10
293.0317626672724
 20
305.1947697196336
  0
LWPOLYLINE
  5
7C
330
70
100
AcDbEntity
  8
Layer 1
 62
     7
370
    70
100
AcDbPolyline
 90
       12
 70
     0
 43
0.0
 10
118.2166837877657
 20
518.8288697217631
 10
116.9466816348985
 20
518.8288697217631
 10
115.6766794820314
 20
518.8288697217631
 10
114.4772371910715
 20
518.8288697217631
 10
113.3483439960954
 20
518.8288697217631
 10
112.3252905939803
 20
518.8288697217631
 10
111.4080662188027
 20
518.8288697217631
 10
110.6319615674397
 20
518.8288697217631
 10
110.032235038998
 20
518.8288697217631
 10
109.5736282343709
 20
518.8288697217631
 10
109.2913995526652
 20
518.8288697217631
 10
109.2208504566813
 20
518.8288697217631
  0
LWPOLYLINE
  5
7D
330
70
100
AcDbEntity
  8
Layer 1
 62
     7
370
    70
100
AcDbPolyline
 90
       22
 70
     0
 43
0.0
 10
212.514179457822
 20
502.7958952467241
 10
212.2672307070693
 20
503.8787246388154
 10
211.9497220944106
 20
504.8917105757277
 10
211.5969443167204
 20
505.9046751929034
 10
210.25639306787
 20
508.629230856663
 10
208.4925041794221
 20
511.0045052853219
 10
207.4694400113835
 20
512.0873346774133
 10
206.3758375132839
 20
513.0653775670027
 10
205.141115291371
 20
513.9735770014104
 10
203.80056404252
 20
514.7769686135831
 10
202.2130640429162
 20
515.5803602257527
 10
200.5197350163762
 20
516.2789653354206
 10
198.6499955691439
 20
516.9077056701765
 10
196.6744486268203
 20
517.4316595024276
 10
194.5577819606828
 20
517.8857485597628
 10
192.2999955707314
 20
518.2350511145964
 10
190.3950084903158
 20
518.4446454393398
 10
188.3841708511151
 20
518.619296716757
 10
186.2675041849776
 20
518.7240832192616
 10
184.6800041853752
 20
518.7590049468474
 10
182.6338973811449
 20
518.7939479941737
 10
180.1997221023481
 20
518.8288697217631
  0
LWPOLYLINE
  5
7E
330
70
100
AcDbEntity
  8
Layer 1
 62
     7
370
    70
100
AcDbPolyline
 90
        5
 70
     0
 43
0.0
 10
153.9177776644741
 20
468.9644977535517
 10
118.3048674662647
 20
468.9108141786871
 10
117.9520896885752
 20
468.9108141786871
 10
109.1326452463356
 20
468.9108141786871
 10
109.1326452463356
 20
468.9108141786871
  0
LINE
  5
7F
330
70
100
AcDbEntity
  8
Layer 1
 62
     7
370
    70
100
AcDbLine
 10
180.1997221023481
 20
518.8288697217631
 30
0.0
 11
118.2166837877657
 21
518.8288697217631
 31
0.0
  0
LWPOLYLINE
  5
80
330
70
100
AcDbEntity
  8
Layer 1
 62
     7
370
    70
100
AcDbPolyline
 90
        8
 70
     0
 43
0.0
 10
212.5141729982671
 20
502.7951197257715
 10
212.7963952204191
 20
501.3840086150132
 10
212.9727841092646
 20
499.9728975042549
 10
213.1138952203403
 20
498.5970641712653
 10
213.1844507758784
 20
497.3623419493518
 10
213.2197285536469
 20
496.1628975052073
 10
213.2197285536469
 20
495.1751197276764
 10
213.2197285536469
 20
494.5965641722658
  0
LWPOLYLINE
  5
81
330
70
100
AcDbEntity
  8
Layer 1
 62
     7
370
    70
100
AcDbPolyline
 90
       13
 70
     0
 43
0.0
 10
169.3341708558783
 20
468.9644977535517
 10
168.7697350243137
 20
468.9644977535517
 10
168.0641794689345
 20
468.9644977535517
 10
167.1822350247105
 20
468.9644977535517
 10
166.1239016916418
 20
468.9644977535517
 10
164.9244486347585
 20
468.9644977535517
 10
163.6191665509377
 20
468.9644977535517
 10
162.1727862751491
 20
468.9644977535517
 10
160.6558461374532
 20
468.9644977535517
 10
159.0330554409731
 20
468.9644977535517
 10
157.3749955794627
 20
468.9644977535517
 10
155.6463973878918
 20
468.9644977535517
 10
153.9177776644741
 20
468.9644977535517
  0
LINE
  5
82
330
70
100
AcDbEntity
  8
Layer 1
 62
     7
370
    70
100
AcDbLine
 10
169.5035063423543
 20
468.9637308453403
 30
0.0
 11
169.3341730090628
 21
468.9637308453403
 31
0.0
  0
LWPOLYLINE
  5
83
330
70
100
AcDbEntity
  8
Layer 1
 62
     7
370
    70
100
AcDbPolyline
 90
        4
 70
     0
 43
0.0
 10
213.3467285536153
 20
493.7569530613645
 10
215.2305618864778
 20
490.518453062174
 10
215.3187563309002
 20
490.4302586177516
 10
305.8309507527165
 20
338.4183142113097
  0
LINE
  5
84
330
70
100
AcDbEntity
  8
Layer 1
  6
AI-Linetype-0
 62
     1
370
    70
100
AcDbLine
 10
212.7611174426501
 20
493.7110919502648
 30
0.0
 11
170.4489507865619
 21
469.2812308452611
 31
0.0
  0
LWPOLYLINE
  5
86
330
70
100
AcDbEntity
  8
Layer 1
 62
     7
370
    70
100
AcDbPolyline
 90
        4
 70
     0
 43
0.0
 10
170.1067563422032
 20
468.6038975120971
 10
171.9094507861965
 20
465.5065086239827
 10
176.4814507850539
 20
457.6960086259352
 10
262.8978952078946
 20
312.8101753288228
  0
LINE
  5
87
330
70
100
AcDbEntity
  8
Layer 1
  6
AI-Linetype-1
 62
     1
370
    70
100
AcDbLine
 10
104.8993119140602
 20
468.9813697342249
 30
0.0
 11
104.8993119140602
 21
518.4055363885356
 31
0.0
  0
LINE
  5
89
330
70
100
AcDbEntity
  8
Layer 1
  6
AI-Linetype-2
 62
     1
370
    70
100
AcDbLine
 10
72.090978588929
 20
518.2997030552287
 30
0.0
 11
72.090978588929
 21
469.0872030675318
 31
0.0
  0
LINE
  5
8B
330
70
100
AcDbEntity
  8
Layer 1
 62
     7
370
    70
100
AcDbLine
 10
104.5359508030401
 20
518.8288697217631
 30
0.0
 11
72.76831192209304
 21
518.8288697217631
 31
0.0
  0
LINE
  5
8C
330
70
100
AcDbEntity
  8
Layer 1
 62
     7
370
    70
100
AcDbLine
 10
109.1326452463356
 20
518.8288697217631
 30
0.0
 11
105.5237285805713
 21
518.8288697217631
 31
0.0
  0
LINE
  5
8D
330
70
100
AcDbEntity
  8
Layer 1
 62
     7
370
    70
100
AcDbLine
 10
109.1326452463356
 20
468.9108141786871
 30
0.0
 11
105.4002563583791
 21
468.9108141786871
 31
0.0
  0
LINE
  5
8E
330
70
100
AcDbEntity
  8
Layer 1
 62
     7
370
    70
100
AcDbLine
 10
104.398367469741
 20
468.9108141786871
 30
0.0
 11
72.94470081093783
 21
468.9108141786871
 31
0.0
  0
LWPOLYLINE
  5
8F
330
70
100
AcDbEntity
  8
Layer 1
 62
     7
370
    70
100
AcDbPolyline
 90
       39
 70
     0
 43
0.0
 10
71.94281192229936
 20
468.9108141786871
 10
12.13001231505277
 20
468.9108141786871
 10
11.06042304863109
 20
468.9108141786871
 10
8.940228604716617
 20
469.0942586230858
 10
6.767117494148836
 20
469.5599252896359
 10
4.632811939126792
 20
470.2443141783539
 10
2.576117495196547
 20
471.0698141781472
 10
0.6358397179038393
 20
472.0752308445627
 10
-1.226826948297071
 20
473.2605641775996
 10
-2.934271392314705
 20
474.5517308439434
 10
-4.525299169694803
 20
476.026341954686
 10
-5.922299169345246
 20
477.6067863987351
 10
-7.202882502358792
 20
479.3318697316373
 10
-8.289438057642042
 20
481.1275086200773
 10
-9.181965835197239
 20
483.0289808418243
 10
-9.919271390568519
 20
485.0045363968858
 10
-10.4237436126644
 20
487.0153697297164
 10
-10.73418805703128
 20
489.0650086180929
 10
-10.81179916812307
 20
491.1111197286926
 10
-10.81179916812307
 20
497.1224530605231
 10
-10.79915264177797
 20
497.4512627454881
 10
-10.73418805703128
 20
499.1403419489076
 10
-10.43079916821835
 20
501.1229530595231
 10
-9.936910279453064
 20
503.0702863923694
 10
-9.217243612966004
 20
504.982341947447
 10
-8.342354724295992
 20
506.7920919469945
 10
-7.276965835673297
 20
508.5665641687731
 10
-6.024604724875533
 20
510.1999252794759
 10
-4.65582694743991
 20
511.7309808346487
 10
-3.096549170051927
 20
513.1597308342916
 10
-1.424382503803057
 20
514.4473697228583
 10
0.3994786068517926
 20
515.5938975003496
 10
2.300950828598762
 20
516.5675641667729
 10
4.315311939206296
 20
517.3683697221284
 10
6.403756383128655
 20
517.9927863886388
 10
8.534534160373725
 20
518.4478697218584
 10
10.7005897153882
 20
518.7230363884562
 10
12.11875638169984
 20
518.8288697217631
 10
71.76642303345457
 20
518.8288697217631
  0
SPLINE
  5
90
330
70
100
AcDbEntity
  8
Layer 1
 62
     7
370
    70
100
AcDbSpline
210
0.0
220
0.0
230
1.0
 70
     8
 71
     3
 72
    20
 73
    16
 74
     0
 42
0.0000000001
 43
0.0000000001
 40
0.0
 40
0.0
 40
0.0
 40
0.0
 40
1.0
 40
1.0
 40
1.0
 40
2.0
 40
2.0
 40
2.0
 40
3.0
 40
3.0
 40
3.0
 40
4.0
 40
4.0
 40
4.0
 40
5.0
 40
5.0
 40
5.0
 40
5.0
 10
169.5035063423543
 20
468.9637308453403
 30
0.0
 10
169.4929230090228
 20
469.0025364008864
 30
0.0
 10
169.4858674534688
 20
469.0448697342091
 30
0.0
 10
169.4858674534688
 20
469.0872030675318
 30
0.0
 10
169.4858674534688
 20
469.3623697341299
 30
0.0
 10
169.71164523119
 20
469.588147511851
 30
0.0
 10
169.9868118977881
 20
469.588147511851
 30
0.0
 10
170.191423008848
 20
469.588147511851
 30
0.0
 10
170.3713396754704
 20
469.4611475118829
 30
0.0
 10
170.4489507865619
 20
469.2812308452611
 30
0.0
 10
170.473645231
 20
469.2212586230539
 30
0.0
 10
170.4877563421079
 20
469.1577586230697
 30
0.0
 10
170.4877563421079
 20
469.0872030675318
 30
0.0
 10
170.4877563421079
 20
468.8543697342567
 30
0.0
 10
170.325478564371
 20
468.6568141787508
 30
0.0
 10
170.1067563422032
 20
468.6038975120971
 30
0.0
  0
SPLINE
  5
91
330
70
100
AcDbEntity
  8
Layer 1
 62
     7
370
    70
100
AcDbSpline
210
0.0
220
0.0
230
1.0
 70
     8
 71
     3
 72
    20
 73
    16
 74
     0
 42
0.0000000001
 43
0.0000000001
 40
0.0
 40
0.0
 40
0.0
 40
0.0
 40
1.0
 40
1.0
 40
1.0
 40
2.0
 40
2.0
 40
2.0
 40
3.0
 40
3.0
 40
3.0
 40
4.0
 40
4.0
 40
4.0
 40
5.0
 40
5.0
 40
5.0
 40
5.0
 10
213.2197285536469
 20
494.5965641722658
 30
0.0
 10
213.1597563314403
 20
494.6212586167039
 30
0.0
 10
213.0962563314561
 20
494.6353697278115
 30
0.0
 10
213.0257007759179
 20
494.6353697278115
 30
0.0
 10
212.7505341093191
 20
494.6353697278115
 30
0.0
 10
212.524756331598
 20
494.4095919500903
 30
0.0
 10
212.524756331598
 20
494.1344252834922
 30
0.0
 10
212.524756331598
 20
493.9580363946475
 30
0.0
 10
212.620006331575
 20
493.7992863946872
 30
0.0
 10
212.7611174426501
 20
493.7110919502648
 30
0.0
 10
212.8387285537415
 20
493.6617030613882
 30
0.0
 10
212.9269229981646
 20
493.633480839173
 30
0.0
 10
213.0257007759179
 20
493.633480839173
 30
0.0
 10
213.1491729981093
 20
493.633480839173
 30
0.0
 10
213.2585341091929
 20
493.6793419502727
 30
0.0
 10
213.3467285536153
 20
493.7569530613645
 30
0.0
  0
SPLINE
  5
92
330
70
100
AcDbEntity
  8
Layer 1
 62
     7
370
    70
100
AcDbSpline
210
0.0
220
0.0
230
1.0
 70
     8
 71
     3
 72
    11
 73
     7
 74
     0
 42
0.0000000001
 43
0.0000000001
 40
0.0
 40
0.0
 40
0.0
 40
0.0
 40
1.0
 40
1.0
 40
1.0
 40
2.0
 40
2.0
 40
2.0
 40
2.0
 10
104.398367469741
 20
468.9108141786871
 30
0.0
 10
104.398367469741
 20
469.1859808452852
 30
0.0
 10
104.6241452474625
 20
469.4117586230063
 30
0.0
 10
104.8993119140602
 20
469.4117586230063
 30
0.0
 10
105.174478580658
 20
469.4117586230063
 30
0.0
 10
105.4002563583791
 20
469.1859808452852
 30
0.0
 10
105.4002563583791
 20
468.9108141786871
 30
0.0
  0
SPLINE
  5
93
330
70
100
AcDbEntity
  8
Layer 1
 62
     7
370
    70
100
AcDbSpline
210
0.0
220
0.0
230
1.0
 70
     8
 71
     3
 72
    14
 73
    10
 74
     0
 42
0.0000000001
 43
0.0000000001
 40
0.0
 40
0.0
 40
0.0
 40
0.0
 40
1.0
 40
1.0
 40
1.0
 40
2.0
 40
2.0
 40
2.0
 40
3.0
 40
3.0
 40
3.0
 40
3.0
 10
105.5237285805713
 20
518.8288697217631
 30
0.0
 10
105.4990341361325
 20
518.5783974996034
 30
0.0
 10
105.2838396917423
 20
518.384369721874
 30
0.0
 10
105.0298396918053
 20
518.384369721874
 30
0.0
 10
104.9839785807056
 20
518.384369721874
 30
0.0
 10
104.941645247383
 20
518.3914252774281
 30
0.0
 10
104.8993119140602
 20
518.4055363885356
 30
0.0
 10
104.7052841363309
 20
518.4549252774123
 30
0.0
 10
104.5571174697013
 20
518.6242586107031
 30
0.0
 10
104.5359508030401
 20
518.8288697217631
 30
0.0
  0
SPLINE
  5
94
330
70
100
AcDbEntity
  8
Layer 1
  6
AI-Linetype-3
 62
     7
370
    70
100
AcDbSpline
210
0.0
220
0.0
230
1.0
 70
     8
 71
     3
 72
    11
 73
     7
 74
     0
 42
0.0000000001
 43
0.0000000001
 40
0.0
 40
0.0
 40
0.0
 40
0.0
 40
1.0
 40
1.0
 40
1.0
 40
2.0
 40
2.0
 40
2.0
 40
2.0
 10
71.76642303345457
 20
518.8288697217631
 30
0.0
 10
71.76642303345457
 20
518.5537030551653
 30
0.0
 10
71.99220081117601
 20
518.3279252774439
 30
0.0
 10
72.2673674777738
 20
518.3279252774439
 30
0.0
 10
72.54253414437158
 20
518.3279252774439
 30
0.0
 10
72.76831192209304
 20
518.5537030551653
 30
0.0
 10
72.76831192209304
 20
518.8288697217631
 30
0.0
  0
SPLINE
  5
96
330
70
100
AcDbEntity
  8
Layer 1
  6
AI-Linetype-4
 62
     7
370
    70
100
AcDbSpline
210
0.0
220
0.0
230
1.0
 70
     8
 71
     3
 72
    14
 73
    10
 74
     0
 42
0.0000000001
 43
0.0000000001
 40
0.0
 40
0.0
 40
0.0
 40
0.0
 40
1.0
 40
1.0
 40
1.0
 40
2.0
 40
2.0
 40
2.0
 40
3.0
 40
3.0
 40
3.0
 40
3.0
 10
72.94470081093783
 20
468.9108141786871
 30
0.0
 10
72.94470081093783
 20
469.1859808452852
 30
0.0
 10
72.71892303321639
 20
469.4117586230063
 30
0.0
 10
72.4437563666186
 20
469.4117586230063
 30
0.0
 10
72.30617303331986
 20
469.4117586230063
 30
0.0
 10
72.18270081112869
 20
469.355314178576
 30
0.0
 10
72.090978588929
 20
469.2635919563766
 30
0.0
 10
71.99925636672964
 20
469.1718697341772
 30
0.0
 10
71.94281192229936
 20
469.0483975119861
 30
0.0
 10
71.94281192229936
 20
468.9108141786871
 30
0.0
  0
CIRCLE
  5
98
330
70
100
AcDbEntity
  8
Layer 1
 62
     7
370
    70
100
AcDbCircle
 10
286.3293213199331
 20
321.8024808821308
 30
0.0
 40
3.17499999920625
  0
CIRCLE
  5
99
330
70
100
AcDbEntity
  8
Layer 1
 62
     7
370
    70
100
AcDbCircle
 10
143.7666046476028
 20
493.8790437721809
 30
0.0
 40
4.099999998975551
  0
LINE
  5
9A
330
70
100
AcDbEntity
  8
Layer 1
 62
     7
370
    70
100
AcDbLine
 10
252.67402468518
 20
239.4752427170029
 30
0.0
 11
247.5234293453155
 21
236.4031030701648
 31
0.0
  0
LWPOLYLINE
  5
9B
330
70
100
AcDbEntity
  8
Layer 1
 62
     7
370
    70
100
AcDbPolyline
 90
       18
 70
     0
 43
0.0
 10
252.67402468518
 20
239.4752427170029
 10
254.377070903148
 20
240.6142714333808
 10
255.9775368476342
 20
241.8564310275021
 10
257.421192003356
 20
243.2925996299531
 10
258.762277915515
 20
244.8318806179455
 10
259.9221176187362
 20
246.4684376810911
 10
260.9612961816036
 20
248.2384075723109
 10
261.7889180367575
 20
250.0875995182046
 10
262.4533781174779
 20
252.0037375746061
 10
262.9727259847019
 20
253.9565712606274
 10
263.28052355108
 20
255.9886057516437
 10
263.4006879938644
 20
257.9908821319563
 10
263.3273737565726
 20
260.0420718519755
 10
263.1148149221032
 20
262.0512487668027
 10
262.6662408444974
 20
264.0429010157366
 10
262.0481052640701
 20
265.9745076886789
 10
261.2604256176086
 20
267.84602904375
 10
260.321246843
 20
269.6272118425863
  0
LWPOLYLINE
  5
9C
330
70
100
AcDbEntity
  8
Layer 1
 62
     7
370
    70
100
AcDbPolyline
 90
       18
 70
     0
 43
0.0
 10
217.3895207288321
 20
244.0200248672097
 10
218.4801922247233
 20
242.3292018742893
 10
219.7526310116959
 20
240.7468214197257
 10
221.1585111751946
 20
239.2850752591234
 10
222.728091632052
 20
237.9620618596437
 10
224.3646376652856
 20
236.8022406486225
 10
226.1346250750413
 20
235.7630537315599
 10
227.9535018173471
 20
234.9173437107639
 10
229.8877308786259
 20
234.2225951910925
 10
231.8527915208361
 20
233.7516193054115
 10
233.8545182705506
 20
233.4257630955093
 10
235.9051656587405
 20
233.2933523124286
 10
237.9260439063165
 20
233.348593145136
 10
239.9474635120554
 20
233.6095396141105
 10
241.9088162921231
 20
234.0400411790396
 10
243.8887792118868
 20
234.6459341503126
 10
245.74224930396
 20
235.4639196725074
 10
247.5234293453155
 20
236.4031030701648
  0
LWPOLYLINE
  5
9D
330
70
100
AcDbEntity
  8
Layer 1
 62
     7
370
    70
100
AcDbPolyline
 90
       12
 70
     0
 43
0.0
 10
72.70835046580884
 20
450.0372030722943
 10
71.43834831294199
 20
450.0372030722943
 10
70.16834616007482
 20
450.0372030722943
 10
68.96890386911491
 20
450.0372030722943
 10
67.84001067413888
 20
450.0372030722943
 10
66.81695727202377
 20
450.0372030722943
 10
65.89973289684618
 20
450.0372030722943
 10
65.1236282454828
 20
450.0372030722943
 10
64.52390171704148
 20
450.0372030722943
 10
64.06529491241406
 20
450.0372030722943
 10
63.78306623070868
 20
450.0372030722943
 10
63.71251713472448
 20
450.0372030722943
  0
LWPOLYLINE
  5
9E
330
70
100
AcDbEntity
  8
Layer 1
 62
     7
370
    70
100
AcDbPolyline
 90
       22
 70
     0
 43
0.0
 10
167.0058461358657
 20
434.0042285972553
 10
166.758897385113
 20
435.0870579893431
 10
166.4413887724543
 20
436.1000439262589
 10
166.0886109947648
 20
437.1130085434346
 10
164.7480597459131
 20
439.8375642071942
 10
162.9841708574658
 20
442.2128386358531
 10
161.9611066894266
 20
443.2956680279445
 10
160.8675041913283
 20
444.273710917534
 10
159.6327819694147
 20
445.1819103519417
 10
158.292230720563
 20
445.9853019641145
 10
156.7047307209606
 20
446.788693576284
 10
155.0114016944199
 20
447.4872986859518
 10
153.1416622471877
 20
448.1160390207078
 10
151.1661153048647
 20
448.6399928529587
 10
149.0494486387272
 20
449.0940819102942
 10
146.7916622487752
 20
449.4433844651276
 10
144.8866751683595
 20
449.6529787898711
 10
142.8758375291595
 20
449.8276300672882
 10
140.7591708630221
 20
449.9324165697928
 10
139.1716708634189
 20
449.9673382973787
 10
137.1255640591887
 20
450.002281344705
 10
134.6913887803918
 20
450.0372030722943
  0
LWPOLYLINE
  5
9F
330
70
100
AcDbEntity
  8
Layer 1
 62
     7
370
    70
100
AcDbPolyline
 90
        5
 70
     0
 43
0.0
 10
108.4094443425172
 20
400.172831104083
 10
72.79653414430818
 20
400.1191475292182
 10
72.4437563666186
 20
400.1191475292182
 10
63.62431192437901
 20
400.1191475292182
 10
63.62431192437901
 20
400.1191475292182
  0
LINE
  5
A0
330
70
100
AcDbEntity
  8
Layer 1
 62
     7
370
    70
100
AcDbLine
 10
134.6913887803918
 20
450.0372030722943
 30
0.0
 11
72.70835046580884
 21
450.0372030722943
 31
0.0
  0
LWPOLYLINE
  5
A1
330
70
100
AcDbEntity
  8
Layer 1
 62
     7
370
    70
100
AcDbPolyline
 90
        8
 70
     0
 43
0.0
 10
167.0058396763114
 20
434.0034530763028
 10
167.2880618984629
 20
432.5923419655445
 10
167.4644507873083
 20
431.1812308547861
 10
167.6055618983833
 20
429.8053975217966
 10
167.6761174539215
 20
428.570675299883
 10
167.7113952316906
 20
427.3712308557386
 10
167.7113952316906
 20
426.3834530782077
 10
167.7113952316906
 20
425.8048975227969
  0
LWPOLYLINE
  5
A2
330
70
100
AcDbEntity
  8
Layer 1
 62
     7
370
    70
100
AcDbPolyline
 90
       13
 70
     0
 43
0.0
 10
123.8258375339214
 20
400.172831104083
 10
123.2614017023574
 20
400.172831104083
 10
122.5558461469782
 20
400.172831104083
 10
121.6739017027543
 20
400.172831104083
 10
120.6155683696855
 20
400.172831104083
 10
119.4161153128022
 20
400.172831104083
 10
118.1108332289814
 20
400.172831104083
 10
116.6644529531928
 20
400.172831104083
 10
115.1475128154964
 20
400.172831104083
 10
113.5247221190168
 20
400.172831104083
 10
111.8666622575064
 20
400.172831104083
 10
110.1380640659356
 20
400.172831104083
 10
108.4094443425172
 20
400.172831104083
  0
LINE
  5
A3
330
70
100
AcDbEntity
  8
Layer 1
 62
     7
370
    70
100
AcDbLine
 10
123.9951730203981
 20
400.1720641958716
 30
0.0
 11
123.8258396871059
 21
400.1720641958716
 31
0.0
  0
LWPOLYLINE
  5
A4
330
70
100
AcDbEntity
  8
Layer 1
 62
     7
370
    70
100
AcDbPolyline
 90
        4
 70
     0
 43
0.0
 10
167.8383952316591
 20
424.9652864118957
 10
169.7222285645209
 20
421.7267864127053
 10
169.8104230089439
 20
421.6385919682829
 10
260.3226174307596
 20
269.6266475618409
  0
LINE
  5
A5
330
70
100
AcDbEntity
  8
Layer 1
  6
AI-Linetype-5
 62
     1
370
    70
100
AcDbLine
 10
167.2527841206944
 20
424.9194253007961
 30
0.0
 11
124.9406174646056
 21
400.4895641957924
 31
0.0
  0
LWPOLYLINE
  5
A7
330
70
100
AcDbEntity
  8
Layer 1
 62
     7
370
    70
100
AcDbPolyline
 90
        4
 70
     0
 43
0.0
 10
124.5984230202469
 20
399.8122308626284
 10
126.4011174642409
 20
396.7148419745139
 10
130.973117463097
 20
388.9043419764665
 10
217.3895618859376
 20
244.018508679354
  0
LINE
  5
A8
330
70
100
AcDbEntity
  8
Layer 1
  6
AI-Linetype-6
 62
     1
370
    70
100
AcDbLine
 10
59.39097859210401
 20
400.1897030847561
 30
0.0
 11
59.39097859210401
 21
449.6138697390668
 31
0.0
  0
LINE
  5
AA
330
70
100
AcDbEntity
  8
Layer 1
  6
AI-Linetype-7
 62
     1
370
    70
100
AcDbLine
 10
26.58264526697276
 20
449.5080364057599
 30
0.0
 11
26.58264526697276
 21
400.295536418063
 31
0.0
  0
LINE
  5
AC
330
70
100
AcDbEntity
  8
Layer 1
 62
     7
370
    70
100
AcDbLine
 10
59.02761748108383
 20
450.0372030722943
 30
0.0
 11
27.25997860013678
 21
450.0372030722943
 31
0.0
  0
LINE
  5
AD
330
70
100
AcDbEntity
  8
Layer 1
 62
     7
370
    70
100
AcDbLine
 10
63.62431192437901
 20
450.0372030722943
 30
0.0
 11
60.01539525861472
 21
450.0372030722943
 31
0.0
  0
LINE
  5
AE
330
70
100
AcDbEntity
  8
Layer 1
 62
     7
370
    70
100
AcDbLine
 10
63.62431192437901
 20
400.1191475292182
 30
0.0
 11
59.89192303642324
 21
400.1191475292182
 31
0.0
  0
LINE
  5
AF
330
70
100
AcDbEntity
  8
Layer 1
 62
     7
370
    70
100
AcDbLine
 10
58.89003414778477
 20
400.1191475292182
 30
0.0
 11
27.43636748898158
 21
400.1191475292182
 31
0.0
  0
LWPOLYLINE
  5
B0
330
70
100
AcDbEntity
  8
Layer 1
 62
     7
370
    70
100
AcDbPolyline
 90
       39
 70
     0
 43
0.0
 10
26.43447860034311
 20
400.1191475292182
 10
-33.37832100690348
 20
400.1191475292182
 10
-34.44791027332517
 20
400.1191475292182
 10
-36.56810471723964
 20
400.302591973617
 10
-38.74121582780741
 20
400.7682586401672
 10
-40.87552138282946
 20
401.4526475288851
 10
-42.9322158267597
 20
402.2781475286785
 10
-44.87249360405241
 20
403.2835641950939
 10
-46.73516027025332
 20
404.4688975281308
 10
-48.44260471427095
 20
405.7600641944747
 10
-50.03363249165105
 20
407.2346753052172
 10
-51.4306324913015
 20
408.8151197492664
 10
-52.71121582431504
 20
410.5402030821686
 10
-53.7977713795983
 20
412.3358419706086
 10
-54.69029915715349
 20
414.2373141923555
 10
-55.42760471252478
 20
416.212869747417
 10
-55.93207693462066
 20
418.2237030802475
 10
-56.24252137898754
 20
420.2733419686242
 10
-56.32013249007933
 20
422.3194530792238
 10
-56.32013249007933
 20
428.3307864110543
 10
-56.30748596373422
 20
428.6595960960194
 10
-56.24252137898754
 20
430.3486752994388
 10
-55.93913249017461
 20
432.3312864100542
 10
-55.44524360140932
 20
434.2786197429005
 10
-54.72557693492226
 20
436.1906752979781
 10
-53.85068804625224
 20
438.0004252975258
 10
-52.78529915762955
 20
439.7748975193043
 10
-51.53293804683179
 20
441.4082586300071
 10
-50.16416026939616
 20
442.9393141851799
 10
-48.60488249200818
 20
444.3680641848228
 10
-46.9327158257593
 20
445.6557030733897
 10
-45.10885471510445
 20
446.8022308508808
 10
-43.20738249335749
 20
447.7758975173042
 10
-41.19302138274995
 20
448.5767030726597
 10
-39.10457693882792
 20
449.20111973917
 10
-36.97379916158285
 20
449.6562030723896
 10
-34.80774360656805
 20
449.9313697389874
 10
-33.38957694025641
 20
450.0372030722943
 10
26.25808971149832
 20
450.0372030722943
  0
SPLINE
  5
B1
330
70
100
AcDbEntity
  8
Layer 1
 62
     7
370
    70
100
AcDbSpline
210
0.0
220
0.0
230
1.0
 70
     8
 71
     3
 72
    20
 73
    16
 74
     0
 42
0.0000000001
 43
0.0000000001
 40
0.0
 40
0.0
 40
0.0
 40
0.0
 40
1.0
 40
1.0
 40
1.0
 40
2.0
 40
2.0
 40
2.0
 40
3.0
 40
3.0
 40
3.0
 40
4.0
 40
4.0
 40
4.0
 40
5.0
 40
5.0
 40
5.0
 40
5.0
 10
123.9951730203981
 20
400.1720641958716
 30
0.0
 10
123.9845896870672
 20
400.2108697514176
 30
0.0
 10
123.9775341315126
 20
400.2532030847404
 30
0.0
 10
123.9775341315126
 20
400.295536418063
 30
0.0
 10
123.9775341315126
 20
400.5707030846612
 30
0.0
 10
124.2033119092337
 20
400.7964808623823
 30
0.0
 10
124.4784785758324
 20
400.7964808623823
 30
0.0
 10
124.6830896868917
 20
400.7964808623823
 30
0.0
 10
124.8630063535141
 20
400.6694808624142
 30
0.0
 10
124.9406174646056
 20
400.4895641957924
 30
0.0
 10
124.9653119090444
 20
400.4295919735851
 30
0.0
 10
124.979423020151
 20
400.3660919736009
 30
0.0
 10
124.979423020151
 20
400.295536418063
 30
0.0
 10
124.979423020151
 20
400.062703084788
 30
0.0
 10
124.8171452424141
 20
399.8651475292821
 30
0.0
 10
124.5984230202469
 20
399.8122308626284
 30
0.0
  0
SPLINE
  5
B2
330
70
100
AcDbEntity
  8
Layer 1
 62
     7
370
    70
100
AcDbSpline
210
0.0
220
0.0
230
1.0
 70
     8
 71
     3
 72
    20
 73
    16
 74
     0
 42
0.0000000001
 43
0.0000000001
 40
0.0
 40
0.0
 40
0.0
 40
0.0
 40
1.0
 40
1.0
 40
1.0
 40
2.0
 40
2.0
 40
2.0
 40
3.0
 40
3.0
 40
3.0
 40
4.0
 40
4.0
 40
4.0
 40
5.0
 40
5.0
 40
5.0
 40
5.0
 10
167.7113952316906
 20
425.8048975227969
 30
0.0
 10
167.6514230094834
 20
425.8295919672351
 30
0.0
 10
167.5879230094998
 20
425.8437030783427
 30
0.0
 10
167.5173674539616
 20
425.8437030783427
 30
0.0
 10
167.2422007873629
 20
425.8437030783427
 30
0.0
 10
167.0164230096417
 20
425.6179253006216
 30
0.0
 10
167.0164230096417
 20
425.3427586340235
 30
0.0
 10
167.0164230096417
 20
425.1663697451787
 30
0.0
 10
167.1116730096181
 20
425.0076197452185
 30
0.0
 10
167.2527841206944
 20
424.9194253007961
 30
0.0
 10
167.3303952317859
 20
424.8700364119194
 30
0.0
 10
167.4185896762076
 20
424.8418141897042
 30
0.0
 10
167.5173674539616
 20
424.8418141897042
 30
0.0
 10
167.6408396761524
 20
424.8418141897042
 30
0.0
 10
167.750200787236
 20
424.8876753008039
 30
0.0
 10
167.8383952316591
 20
424.9652864118957
 30
0.0
  0
SPLINE
  5
B3
330
70
100
AcDbEntity
  8
Layer 1
 62
     7
370
    70
100
AcDbSpline
210
0.0
220
0.0
230
1.0
 70
     8
 71
     3
 72
    11
 73
     7
 74
     0
 42
0.0000000001
 43
0.0000000001
 40
0.0
 40
0.0
 40
0.0
 40
0.0
 40
1.0
 40
1.0
 40
1.0
 40
2.0
 40
2.0
 40
2.0
 40
2.0
 10
58.89003414778477
 20
400.1191475292182
 30
0.0
 10
58.89003414778477
 20
400.3943141958164
 30
0.0
 10
59.11581192550622
 20
400.6200919735375
 30
0.0
 10
59.39097859210401
 20
400.6200919735375
 30
0.0
 10
59.6661452587018
 20
400.6200919735375
 30
0.0
 10
59.89192303642324
 20
400.3943141958164
 30
0.0
 10
59.89192303642324
 20
400.1191475292182
 30
0.0
  0
SPLINE
  5
B4
330
70
100
AcDbEntity
  8
Layer 1
 62
     7
370
    70
100
AcDbSpline
210
0.0
220
0.0
230
1.0
 70
     8
 71
     3
 72
    14
 73
    10
 74
     0
 42
0.0000000001
 43
0.0000000001
 40
0.0
 40
0.0
 40
0.0
 40
0.0
 40
1.0
 40
1.0
 40
1.0
 40
2.0
 40
2.0
 40
2.0
 40
3.0
 40
3.0
 40
3.0
 40
3.0
 10
60.01539525861472
 20
450.0372030722943
 30
0.0
 10
59.99070081417624
 20
449.7867308501347
 30
0.0
 10
59.77550636978539
 20
449.5927030724054
 30
0.0
 10
59.52150636984912
 20
449.5927030724054
 30
0.0
 10
59.47564525874943
 20
449.5927030724054
 30
0.0
 10
59.43331192542672
 20
449.5997586279593
 30
0.0
 10
59.39097859210401
 20
449.6138697390668
 30
0.0
 10
59.19695081437467
 20
449.6632586279436
 30
0.0
 10
59.04878414774502
 20
449.8325919612343
 30
0.0
 10
59.02761748108383
 20
450.0372030722943
 30
0.0
  0
SPLINE
  5
B5
330
70
100
AcDbEntity
  8
Layer 1
  6
AI-Linetype-8
 62
     7
370
    70
100
AcDbSpline
210
0.0
220
0.0
230
1.0
 70
     8
 71
     3
 72
    11
 73
     7
 74
     0
 42
0.0000000001
 43
0.0000000001
 40
0.0
 40
0.0
 40
0.0
 40
0.0
 40
1.0
 40
1.0
 40
1.0
 40
2.0
 40
2.0
 40
2.0
 40
2.0
 10
26.25808971149832
 20
450.0372030722943
 30
0.0
 10
26.25808971149832
 20
449.7620364056965
 30
0.0
 10
26.48386748921977
 20
449.5362586279751
 30
0.0
 10
26.75903415581755
 20
449.5362586279751
 30
0.0
 10
27.03420082241534
 20
449.5362586279751
 30
0.0
 10
27.25997860013678
 20
449.7620364056965
 30
0.0
 10
27.25997860013678
 20
450.0372030722943
 30
0.0
  0
SPLINE
  5
B7
330
70
100
AcDbEntity
  8
Layer 1
  6
AI-Linetype-9
 62
     7
370
    70
100
AcDbSpline
210
0.0
220
0.0
230
1.0
 70
     8
 71
     3
 72
    14
 73
    10
 74
     0
 42
0.0000000001
 43
0.0000000001
 40
0.0
 40
0.0
 40
0.0
 40
0.0
 40
1.0
 40
1.0
 40
1.0
 40
2.0
 40
2.0
 40
2.0
 40
3.0
 40
3.0
 40
3.0
 40
3.0
 10
27.43636748898158
 20
400.1191475292182
 30
0.0
 10
27.43636748898158
 20
400.3943141958164
 30
0.0
 10
27.21058971126013
 20
400.6200919735375
 30
0.0
 10
26.93542304466234
 20
400.6200919735375
 30
0.0
 10
26.79783971136361
 20
400.6200919735375
 30
0.0
 10
26.67436748917213
 20
400.5636475291072
 30
0.0
 10
26.58264526697276
 20
400.4719253069079
 30
0.0
 10
26.49092304477339
 20
400.3802030847085
 30
0.0
 10
26.43447860034311
 20
400.2567308625173
 30
0.0
 10
26.43447860034311
 20
400.1191475292182
 30
0.0
  0
CIRCLE
  5
B9
330
70
100
AcDbEntity
  8
Layer 1
 62
     7
370
    70
100
AcDbCircle
 10
240.8209879979768
 20
253.010814232662
 30
0.0
 40
3.17499999920625
  0
CIRCLE
  5
BA
330
70
100
AcDbEntity
  8
Layer 1
 62
     7
370
    70
100
AcDbCircle
 10
98.25827132564628
 20
425.087377122712
 30
0.0
 40
4.099999998975431
  0
LINE
  5
BB
330
70
100
AcDbEntity
  8
Layer 1
 62
     7
370
    70
100
AcDbLine
 10
207.8712469186036
 20
164.3335760691216
 30
0.0
 11
202.7206515787384
 21
161.2614364222835
 31
0.0
  0
LWPOLYLINE
  5
BC
330
70
100
AcDbEntity
  8
Layer 1
 62
     7
370
    70
100
AcDbPolyline
 90
       18
 70
     0
 43
0.0
 10
207.8712469186036
 20
164.3335760691216
 10
209.5742931365709
 20
165.4726047854996
 10
211.1747590810571
 20
166.7147643796208
 10
212.6184142367789
 20
168.1509329820718
 10
213.9595001489379
 20
169.6902139700642
 10
215.119339852159
 20
171.3267710332098
 10
216.1585184150265
 20
173.0967409244296
 10
216.9861402701811
 20
174.9459328703234
 10
217.6506003509001
 20
176.8620709267248
 10
218.1699482181248
 20
178.8149046127461
 10
218.4777457845029
 20
180.8469391037624
 10
218.5979102272873
 20
182.8492154840747
 10
218.5245959899955
 20
184.9004052040943
 10
218.3120371555261
 20
186.9095821189214
 10
217.8634630779203
 20
188.9012343678553
 10
217.245327497493
 20
190.8328410407976
 10
216.4576478510315
 20
192.7043623958687
 10
215.5184690764229
 20
194.4855451947051
  0
LWPOLYLINE
  5
BD
330
70
100
AcDbEntity
  8
Layer 1
 62
     7
370
    70
100
AcDbPolyline
 90
       18
 70
     0
 43
0.0
 10
172.5867429622549
 20
168.8783582193285
 10
173.6774144581462
 20
167.187535226408
 10
174.9498532451188
 20
165.6051547718444
 10
176.3557334086168
 20
164.1434086112421
 10
177.9253138654755
 20
162.8203952117624
 10
179.5618598987085
 20
161.6605740007412
 10
181.3318473084649
 20
160.6213870836787
 10
183.1507240507707
 20
159.7756770628827
 10
185.0849531120488
 20
159.0809285432112
 10
187.050013754259
 20
158.6099526575302
 10
189.0517405039734
 20
158.2840964476277
 10
191.1023878921634
 20
158.1516856645473
 10
193.1232661397394
 20
158.2069264972547
 10
195.1446857454776
 20
158.4678729662292
 10
197.1060385255459
 20
158.8983745311583
 10
199.0860014453096
 20
159.5042675024313
 10
200.9394715373829
 20
160.3222530246261
 10
202.7206515787384
 20
161.2614364222835
  0
LWPOLYLINE
  5
BE
330
70
100
AcDbEntity
  8
Layer 1
 62
     7
370
    70
100
AcDbPolyline
 90
       12
 70
     0
 43
0.0
 10
27.90557269923209
 20
374.8955364244131
 10
26.63557054636491
 20
374.8955364244131
 10
25.36556839349773
 20
374.8955364244131
 10
24.16612610253783
 20
374.8955364244131
 10
23.0372329075618
 20
374.8955364244131
 10
22.01417950544669
 20
374.8955364244131
 10
21.0969551302691
 20
374.8955364244131
 10
20.32085047890605
 20
374.8955364244131
 10
19.7211239504644
 20
374.8955364244131
 10
19.26251714583729
 20
374.8955364244131
 10
18.98028846413159
 20
374.8955364244131
 10
18.90973936814771
 20
374.8955364244131
  0
LWPOLYLINE
  5
BF
330
70
100
AcDbEntity
  8
Layer 1
 62
     7
370
    70
100
AcDbPolyline
 90
       22
 70
     0
 43
0.0
 10
122.2030683692887
 20
358.8625619493741
 10
121.9561196185366
 20
359.9453913414619
 10
121.6386110058772
 20
360.9583772783777
 10
121.285833228187
 20
361.9713418955534
 10
119.945281979336
 20
364.695897559313
 10
118.1813930908887
 20
367.0711719879719
 10
117.1583289228502
 20
368.1540013800633
 10
116.0647264247506
 20
369.1320442696528
 10
114.8300042028376
 20
370.0402437040605
 10
113.489452953986
 20
370.8436353162332
 10
111.9019529543835
 20
371.6470269284028
 10
110.2086239278428
 20
372.3456320380706
 10
108.33888448061
 20
372.9743723728266
 10
106.3633375382877
 20
373.4983262050775
 10
104.2466708721498
 20
373.9524152624129
 10
101.9888844821978
 20
374.3017178172465
 10
100.0838974017821
 20
374.5113121419899
 10
98.07305976258215
 20
374.685963419407
 10
95.95639309644464
 20
374.7907499219116
 10
94.36889309684152
 20
374.8256716494974
 10
92.32278629261129
 20
374.8606146968238
 10
89.88861101381415
 20
374.8955364244131
  0
LWPOLYLINE
  5
C0
330
70
100
AcDbEntity
  8
Layer 1
 62
     7
370
    70
100
AcDbPolyline
 90
        5
 70
     0
 43
0.0
 10
63.60666657594017
 20
325.031164456203
 10
27.99375637773109
 20
324.977480881337
 10
27.64097860004151
 20
324.977480881337
 10
18.82153415780192
 20
324.977480881337
 10
18.82153415780192
 20
324.977480881337
  0
LINE
  5
C1
330
70
100
AcDbEntity
  8
Layer 1
 62
     7
370
    70
100
AcDbLine
 10
89.88861101381415
 20
374.8955364244131
 30
0.0
 11
27.90557269923209
 21
374.8955364244131
 31
0.0
  0
LWPOLYLINE
  5
C2
330
70
100
AcDbEntity
  8
Layer 1
 62
     7
370
    70
100
AcDbPolyline
 90
        8
 70
     0
 43
0.0
 10
122.2030619097344
 20
358.8617864284216
 10
122.4852841318858
 20
357.4506753176633
 10
122.6616730207312
 20
356.0395642069049
 10
122.8027841318069
 20
354.6637308739157
 10
122.8733396873451
 20
353.4290086520022
 10
122.9086174651135
 20
352.2295642078574
 10
122.9086174651135
 20
351.2417864303261
 10
122.9086174651135
 20
350.6632308749148
  0
LWPOLYLINE
  5
C3
330
70
100
AcDbEntity
  8
Layer 1
 62
     7
370
    70
100
AcDbPolyline
 90
       13
 70
     0
 43
0.0
 10
79.02305976734464
 20
325.031164456203
 10
78.45862393578002
 20
325.031164456203
 10
77.75306838040086
 20
325.031164456203
 10
76.8711239361769
 20
325.031164456203
 10
75.81279060310816
 20
325.031164456203
 10
74.61333754622486
 20
325.031164456203
 10
73.30805546240371
 20
325.031164456203
 10
71.86167518661545
 20
325.031164456203
 10
70.3447350489196
 20
325.031164456203
 10
68.72194435243914
 20
325.031164456203
 10
67.06388449092905
 20
325.031164456203
 10
65.33528629935817
 20
325.031164456203
 10
63.60666657594017
 20
325.031164456203
  0
LINE
  5
C4
330
70
100
AcDbEntity
  8
Layer 1
 62
     7
370
    70
100
AcDbLine
 10
79.19239525382067
 20
325.0303975479897
 30
0.0
 11
79.0230619205292
 21
325.0303975479897
 31
0.0
  0
LWPOLYLINE
  5
C5
330
70
100
AcDbEntity
  8
Layer 1
 62
     7
370
    70
100
AcDbPolyline
 90
        4
 70
     0
 43
0.0
 10
123.0356174650814
 20
349.8236197640139
 10
124.9194507979444
 20
346.585119764824
 10
125.0076452423668
 20
346.4969253204017
 10
215.5198396641831
 20
194.4849809139596
  0
LINE
  5
C6
330
70
100
AcDbEntity
  8
Layer 1
  6
AI-Linetype-10
 62
     1
370
    70
100
AcDbLine
 10
122.4500063541173
 20
349.7777586529145
 30
0.0
 11
80.13783969802823
 21
325.3478975479108
 31
0.0
  0
LWPOLYLINE
  5
C8
330
70
100
AcDbEntity
  8
Layer 1
 62
     7
370
    70
100
AcDbPolyline
 90
        4
 70
     0
 43
0.0
 10
79.79564525366924
 20
324.6705642147468
 10
81.59833969766353
 20
321.5731753266321
 10
86.17033969652023
 20
313.7626753285849
 10
172.5867841193605
 20
168.8768420314727
  0
LINE
  5
C9
330
70
100
AcDbEntity
  8
Layer 1
  6
AI-Linetype-11
 62
     1
370
    70
100
AcDbLine
 10
14.58820082552692
 20
325.0480364368746
 30
0.0
 11
14.58820082552692
 21
374.4722030911857
 31
0.0
  0
LINE
  5
CB
330
70
100
AcDbEntity
  8
Layer 1
  6
AI-Linetype-12
 62
     1
370
    70
100
AcDbLine
 10
-18.22013249960432
 20
374.3663697578787
 30
0.0
 11
-18.22013249960432
 21
325.1538697701819
 31
0.0
  0
LINE
  5
CD
330
70
100
AcDbEntity
  8
Layer 1
 62
     7
370
    70
100
AcDbLine
 10
14.22483971450674
 20
374.8955364244131
 30
0.0
 11
-17.5427991664403
 21
374.8955364244131
 31
0.0
  0
LINE
  5
CE
330
70
100
AcDbEntity
  8
Layer 1
 62
     7
370
    70
100
AcDbLine
 10
18.82153415780192
 20
374.8955364244131
 30
0.0
 11
15.21261749203764
 21
374.8955364244131
 31
0.0
  0
LINE
  5
CF
330
70
100
AcDbEntity
  8
Layer 1
 62
     7
370
    70
100
AcDbLine
 10
18.82153415780192
 20
324.977480881337
 30
0.0
 11
15.08914526984615
 21
324.977480881337
 31
0.0
  0
LINE
  5
D0
330
70
100
AcDbEntity
  8
Layer 1
 62
     7
370
    70
100
AcDbLine
 10
14.08725638120769
 20
324.977480881337
 30
0.0
 11
-17.36641027759551
 21
324.977480881337
 31
0.0
  0
LWPOLYLINE
  5
D1
330
70
100
AcDbEntity
  8
Layer 1
 62
     7
370
    70
100
AcDbPolyline
 90
       39
 70
     0
 43
0.0
 10
-18.36829916623398
 20
324.977480881337
 10
-78.18109877348056
 20
324.977480881337
 10
-79.25068803990225
 20
324.977480881337
 10
-81.37088248381671
 20
325.1609253257358
 10
-83.54399359438451
 20
325.626591992286
 10
-85.67829914940654
 20
326.3109808810033
 10
-87.7349935933368
 20
327.136480880797
 10
-89.67527137062949
 20
328.1418975472124
 10
-91.53793803683042
 20
329.327230880249
 10
-93.24538248084804
 20
330.6183975465928
 10
-94.83641025822814
 20
332.0930086573353
 10
-96.23341025787858
 20
333.6734531013845
 10
-97.51399359089212
 20
335.398536434287
 10
-98.60054914617538
 20
337.1941753227271
 10
-99.49307692373059
 20
339.0956475444743
 10
-100.2303824791018
 20
341.0712030995355
 10
-100.7348547011977
 20
343.0820364323663
 10
-101.0452991455646
 20
345.1316753207426
 10
-101.1229102566564
 20
347.177786431342
 10
-101.1229102566564
 20
353.1891197631732
 10
-101.1102637303113
 20
353.5179294481381
 10
-101.0452991455646
 20
355.2070086515576
 10
-100.7419102567517
 20
357.189619762173
 10
-100.2480213679864
 20
359.1369530950194
 10
-99.52835470149935
 20
361.0490086500969
 10
-98.65346581282933
 20
362.8587586496446
 10
-97.58807692420663
 20
364.6332308714231
 10
-96.33571581340888
 20
366.2665919821259
 10
-94.96693803597324
 20
367.7976475372987
 10
-93.40766025858526
 20
369.2263975369416
 10
-91.73549359233639
 20
370.5140364255084
 10
-89.91163248168154
 20
371.6605642029996
 10
-88.01016025993458
 20
372.6342308694229
 10
-85.99579914932704
 20
373.4350364247784
 10
-83.907354705405
 20
374.0594530912888
 10
-81.77657692815992
 20
374.5145364245084
 10
-79.61052137314513
 20
374.7897030911062
 10
-78.1923547068335
 20
374.8955364244131
 10
-18.54468805507877
 20
374.8955364244131
  0
SPLINE
  5
D2
330
70
100
AcDbEntity
  8
Layer 1
 62
     7
370
    70
100
AcDbSpline
210
0.0
220
0.0
230
1.0
 70
     8
 71
     3
 72
    20
 73
    16
 74
     0
 42
0.0000000001
 43
0.0000000001
 40
0.0
 40
0.0
 40
0.0
 40
0.0
 40
1.0
 40
1.0
 40
1.0
 40
2.0
 40
2.0
 40
2.0
 40
3.0
 40
3.0
 40
3.0
 40
4.0
 40
4.0
 40
4.0
 40
5.0
 40
5.0
 40
5.0
 40
5.0
 10
79.19239525382067
 20
325.0303975479897
 30
0.0
 10
79.18181192048976
 20
325.0692031035358
 30
0.0
 10
79.17475636493581
 20
325.1115364368589
 30
0.0
 10
79.17475636493581
 20
325.1538697701819
 30
0.0
 10
79.17475636493581
 20
325.4290364367793
 30
0.0
 10
79.40053414265695
 20
325.6548142145005
 30
0.0
 10
79.67570080925504
 20
325.6548142145005
 30
0.0
 10
79.88031192031498
 20
325.6548142145005
 30
0.0
 10
80.06022858693643
 20
325.527814214532
 30
0.0
 10
80.13783969802823
 20
325.3478975479108
 30
0.0
 10
80.16253414246703
 20
325.2879253257036
 30
0.0
 10
80.1766452535743
 20
325.2244253257194
 30
0.0
 10
80.1766452535743
 20
325.1538697701819
 30
0.0
 10
80.1766452535743
 20
324.9210364369068
 30
0.0
 10
80.01436747583738
 20
324.7234808814002
 30
0.0
 10
79.79564525366924
 20
324.6705642147468
 30
0.0
  0
SPLINE
  5
D3
330
70
100
AcDbEntity
  8
Layer 1
 62
     7
370
    70
100
AcDbSpline
210
0.0
220
0.0
230
1.0
 70
     8
 71
     3
 72
    20
 73
    16
 74
     0
 42
0.0000000001
 43
0.0000000001
 40
0.0
 40
0.0
 40
0.0
 40
0.0
 40
1.0
 40
1.0
 40
1.0
 40
2.0
 40
2.0
 40
2.0
 40
3.0
 40
3.0
 40
3.0
 40
4.0
 40
4.0
 40
4.0
 40
5.0
 40
5.0
 40
5.0
 40
5.0
 10
122.9086174651135
 20
350.6632308749148
 30
0.0
 10
122.8486452429069
 20
350.6879253193536
 30
0.0
 10
122.7851452429221
 20
350.7020364304608
 30
0.0
 10
122.7145896873839
 20
350.7020364304608
 30
0.0
 10
122.4394230207858
 20
350.7020364304608
 30
0.0
 10
122.2136452430646
 20
350.4762586527397
 30
0.0
 10
122.2136452430646
 20
350.2010919861423
 30
0.0
 10
122.2136452430646
 20
350.0247030972975
 30
0.0
 10
122.3088952430416
 20
349.8659530973369
 30
0.0
 10
122.4500063541173
 20
349.7777586529145
 30
0.0
 10
122.5276174652082
 20
349.7283697640382
 30
0.0
 10
122.6158119096306
 20
349.7001475418224
 30
0.0
 10
122.7145896873839
 20
349.7001475418224
 30
0.0
 10
122.8380619095754
 20
349.7001475418224
 30
0.0
 10
122.9474230206596
 20
349.7460086529224
 30
0.0
 10
123.0356174650814
 20
349.8236197640139
 30
0.0
  0
SPLINE
  5
D4
330
70
100
AcDbEntity
  8
Layer 1
 62
     7
370
    70
100
AcDbSpline
210
0.0
220
0.0
230
1.0
 70
     8
 71
     3
 72
    11
 73
     7
 74
     0
 42
0.0000000001
 43
0.0000000001
 40
0.0
 40
0.0
 40
0.0
 40
0.0
 40
1.0
 40
1.0
 40
1.0
 40
2.0
 40
2.0
 40
2.0
 40
2.0
 10
14.08725638120769
 20
324.977480881337
 30
0.0
 10
14.08725638120769
 20
325.2526475479346
 30
0.0
 10
14.31303415892914
 20
325.4784253256557
 30
0.0
 10
14.58820082552692
 20
325.4784253256557
 30
0.0
 10
14.86336749212471
 20
325.4784253256557
 30
0.0
 10
15.08914526984615
 20
325.2526475479346
 30
0.0
 10
15.08914526984615
 20
324.977480881337
 30
0.0
  0
SPLINE
  5
D5
330
70
100
AcDbEntity
  8
Layer 1
 62
     7
370
    70
100
AcDbSpline
210
0.0
220
0.0
230
1.0
 70
     8
 71
     3
 72
    14
 73
    10
 74
     0
 42
0.0000000001
 43
0.0000000001
 40
0.0
 40
0.0
 40
0.0
 40
0.0
 40
1.0
 40
1.0
 40
1.0
 40
2.0
 40
2.0
 40
2.0
 40
3.0
 40
3.0
 40
3.0
 40
3.0
 10
15.21261749203764
 20
374.8955364244131
 30
0.0
 10
15.18792304759915
 20
374.6450642022535
 30
0.0
 10
14.97272860320862
 20
374.4510364245241
 30
0.0
 10
14.71872860327203
 20
374.4510364245241
 30
0.0
 10
14.67286749217235
 20
374.4510364245241
 30
0.0
 10
14.63053415884964
 20
374.4580919800781
 30
0.0
 10
14.58820082552692
 20
374.4722030911857
 30
0.0
 10
14.39417304779759
 20
374.5215919800624
 30
0.0
 10
14.24600638116794
 20
374.6909253133531
 30
0.0
 10
14.22483971450674
 20
374.8955364244131
 30
0.0
  0
SPLINE
  5
D6
330
70
100
AcDbEntity
  8
Layer 1
  6
AI-Linetype-13
 62
     7
370
    70
100
AcDbSpline
210
0.0
220
0.0
230
1.0
 70
     8
 71
     3
 72
    11
 73
     7
 74
     0
 42
0.0000000001
 43
0.0000000001
 40
0.0
 40
0.0
 40
0.0
 40
0.0
 40
1.0
 40
1.0
 40
1.0
 40
2.0
 40
2.0
 40
2.0
 40
2.0
 10
-18.54468805507877
 20
374.8955364244131
 30
0.0
 10
-18.54468805507877
 20
374.6203697578153
 30
0.0
 10
-18.31891027735732
 20
374.3945919800939
 30
0.0
 10
-18.04374361075953
 20
374.3945919800939
 30
0.0
 10
-17.76857694416175
 20
374.3945919800939
 30
0.0
 10
-17.5427991664403
 20
374.6203697578153
 30
0.0
 10
-17.5427991664403
 20
374.8955364244131
 30
0.0
  0
SPLINE
  5
D8
330
70
100
AcDbEntity
  8
Layer 1
  6
AI-Linetype-14
 62
     7
370
    70
100
AcDbSpline
210
0.0
220
0.0
230
1.0
 70
     8
 71
     3
 72
    14
 73
    10
 74
     0
 42
0.0000000001
 43
0.0000000001
 40
0.0
 40
0.0
 40
0.0
 40
0.0
 40
1.0
 40
1.0
 40
1.0
 40
2.0
 40
2.0
 40
2.0
 40
3.0
 40
3.0
 40
3.0
 40
3.0
 10
-17.36641027759551
 20
324.977480881337
 30
0.0
 10
-17.36641027759551
 20
325.2526475479346
 30
0.0
 10
-17.59218805531696
 20
325.4784253256557
 30
0.0
 10
-17.86735472191474
 20
325.4784253256557
 30
0.0
 10
-18.00493805521347
 20
325.4784253256557
 30
0.0
 10
-18.12841027740496
 20
325.4219808812254
 30
0.0
 10
-18.22013249960432
 20
325.3302586590266
 30
0.0
 10
-18.31185472180369
 20
325.2385364368266
 30
0.0
 10
-18.36829916623398
 20
325.1150642146358
 30
0.0
 10
-18.36829916623398
 20
324.977480881337
 30
0.0
  0
CIRCLE
  5
DA
330
70
100
AcDbEntity
  8
Layer 1
 62
     7
370
    70
100
AcDbCircle
 10
196.0182102313997
 20
177.8691475847808
 30
0.0
 40
3.17499999920625
  0
CIRCLE
  5
DB
330
70
100
AcDbEntity
  8
Layer 1
 62
     7
370
    70
100
AcDbCircle
 10
53.45549355906919
 20
349.945710474831
 30
0.0
 40
4.099999998975391
  0
LINE
  5
DC
330
70
100
AcDbEntity
  8
Layer 1
 62
     7
370
    70
100
AcDbLine
 10
300.6518024509634
 20
-68.85253498369298
 30
0.0
 11
295.5012071110989
 21
-71.92467463053102
 31
0.0
  0
LWPOLYLINE
  5
DD
330
70
100
AcDbEntity
  8
Layer 1
 62
     7
370
    70
100
AcDbPolyline
 90
       18
 70
     0
 43
0.0
 10
300.6518024509634
 20
-68.85253498369298
 10
302.3548486689314
 20
-67.71350626731498
 10
303.9553146134169
 20
-66.47134667319381
 10
305.3989697691387
 20
-65.03517807074276
 10
306.7400556812983
 20
-63.49589708275038
 10
307.8998953845194
 20
-61.85934001960479
 10
308.9390739473869
 20
-60.08937012838493
 10
309.7666958025409
 20
-58.24017818249121
 10
310.4311558832606
 20
-56.32404012608977
 10
310.9505037504846
 20
-54.37120644006843
 10
311.2583013168633
 20
-52.33917194905213
 10
311.3784657596478
 20
-50.33689556873984
 10
311.3051515223559
 20
-48.28570584872028
 10
311.0925926878865
 20
-46.27652893389321
 10
310.6440186102801
 20
-44.28487668495924
 10
310.0258830298528
 20
-42.35327001201697
 10
309.2382033833918
 20
-40.48174865694584
 10
308.2990246087833
 20
-38.70056585810947
  0
LWPOLYLINE
  5
DE
330
70
100
AcDbEntity
  8
Layer 1
 62
     7
370
    70
100
AcDbPolyline
 90
       18
 70
     0
 43
0.0
 10
265.3672984946154
 20
-64.30775283348642
 10
266.4579699905066
 20
-65.99857582640661
 10
267.7304087774793
 20
-67.58095628097016
 10
269.1362889409779
 20
-69.04270244157245
 10
270.705869397836
 20
-70.36571584105212
 10
272.342415431069
 20
-71.52553705207335
 10
274.1124028408247
 20
-72.5647239691359
 10
275.9312795831311
 20
-73.4104339899319
 10
277.8655086444086
 20
-74.10518250960336
 10
279.8305692866195
 20
-74.57615839528435
 10
281.8322960363339
 20
-74.90201460518682
 10
283.8829434245232
 20
-75.03442538826725
 10
285.9038216721004
 20
-74.97918455555988
 10
287.9252412778381
 20
-74.71823808658534
 10
289.8865940579064
 20
-74.28773652165627
 10
291.8665569776701
 20
-73.68184355038323
 10
293.7200270697427
 20
-72.86385802818845
 10
295.5012071110989
 20
-71.92467463053102
  0
LWPOLYLINE
  5
DF
330
70
100
AcDbEntity
  8
Layer 1
 62
     7
370
    70
100
AcDbPolyline
 90
       12
 70
     0
 43
0.0
 10
120.6861282315928
 20
141.7094253715985
 10
119.4161260787256
 20
141.7094253715985
 10
118.1461239258585
 20
141.7094253715985
 10
116.9466816348985
 20
141.7094253715985
 10
115.8177884399225
 20
141.7094253715985
 10
114.7947350378074
 20
141.7094253715985
 10
113.8775106626298
 20
141.7094253715985
 10
113.1014060112668
 20
141.7094253715985
 10
112.5016794828251
 20
141.7094253715985
 10
112.0430726781974
 20
141.7094253715985
 10
111.7608439964923
 20
141.7094253715985
 10
111.6902949005084
 20
141.7094253715985
  0
LWPOLYLINE
  5
E0
330
70
100
AcDbEntity
  8
Layer 1
 62
     7
370
    70
100
AcDbPolyline
 90
       22
 70
     0
 43
0.0
 10
214.9836239016491
 20
125.6764508965582
 10
214.736675150897
 20
126.7592802886488
 10
214.4191665382371
 20
127.7722662255621
 10
214.0663887605481
 20
128.7852308427391
 10
212.7258375116964
 20
131.5097865064978
 10
210.9619486232485
 20
133.8850609351579
 10
209.9388844552106
 20
134.9678903272486
 10
208.8452819571116
 20
135.9459332168369
 10
207.6105597351981
 20
136.8541326512465
 10
206.270008486347
 20
137.657524263418
 10
204.6825084867439
 20
138.4609158755895
 10
202.9891794602033
 20
139.1595209852573
 10
201.119440012971
 20
139.7882613200113
 10
199.1438930706481
 20
140.3122151522623
 10
197.0272264045106
 20
140.7663042095996
 10
194.7694400145585
 20
141.1156067644331
 10
192.8644529341428
 20
141.3252010891756
 10
190.8536152949429
 20
141.4998523665924
 10
188.7369486288054
 20
141.6046388690954
 10
187.1494486292022
 20
141.6395605966841
 10
185.103341824972
 20
141.6745036440098
 10
182.6691665461752
 20
141.7094253715985
  0
LWPOLYLINE
  5
E1
330
70
100
AcDbEntity
  8
Layer 1
 62
     7
370
    70
100
AcDbPolyline
 90
        5
 70
     0
 43
0.0
 10
156.3872221083012
 20
91.84505340338843
 10
120.7743119100912
 20
91.79136982852247
 10
120.4215341324022
 20
91.79136982852247
 10
111.6020896901626
 20
91.79136982852247
 10
111.6020896901626
 20
91.79136982852247
  0
LINE
  5
E2
330
70
100
AcDbEntity
  8
Layer 1
 62
     7
370
    70
100
AcDbLine
 10
182.6691665461752
 20
141.7094253715985
 30
0.0
 11
120.6861282315928
 21
141.7094253715985
 31
0.0
  0
LWPOLYLINE
  5
E3
330
70
100
AcDbEntity
  8
Layer 1
 62
     7
370
    70
100
AcDbPolyline
 90
        8
 70
     0
 43
0.0
 10
214.9836174420948
 20
125.6756753756067
 10
215.2658396642469
 20
124.2645642648483
 10
215.442228553091
 20
122.85345315409
 10
215.5833396641674
 20
121.4776198211001
 10
215.6538952197055
 20
120.2428975991866
 10
215.6891729974733
 20
119.0434531550428
 10
215.6891729974733
 20
118.0556753775115
 10
215.6891729974733
 20
117.4771198221002
  0
LWPOLYLINE
  5
E4
330
70
100
AcDbEntity
  8
Layer 1
 62
     7
370
    70
100
AcDbPolyline
 90
       13
 70
     0
 43
0.0
 10
171.8036152997054
 20
91.84505340338843
 10
171.2391794681408
 20
91.84505340338843
 10
170.5336239127616
 20
91.84505340338843
 10
169.6516794685376
 20
91.84505340338843
 10
168.5933461354689
 20
91.84505340338843
 10
167.3938930785856
 20
91.84505340338843
 10
166.0886109947648
 20
91.84505340338843
 10
164.6422307189755
 20
91.84505340338843
 10
163.1252905812803
 20
91.84505340338843
 10
161.5024998847995
 20
91.84505340338843
 10
159.8444400232891
 20
91.84505340338843
 10
158.1158418317182
 20
91.84505340338843
 10
156.3872221083012
 20
91.84505340338843
  0
LINE
  5
E5
330
70
100
AcDbEntity
  8
Layer 1
 62
     7
370
    70
100
AcDbLine
 10
171.9729507861814
 20
91.84428649517514
 30
0.0
 11
171.8036174528893
 21
91.84428649517514
 31
0.0
  0
LWPOLYLINE
  5
E6
330
70
100
AcDbEntity
  8
Layer 1
 62
     7
370
    70
100
AcDbPolyline
 90
        4
 70
     0
 43
0.0
 10
215.8161729974418
 20
116.6375087111993
 10
217.7000063303049
 20
113.3990087120094
 10
217.7882007747266
 20
113.310814267587
 10
308.3003951965429
 20
-38.70113013885493
  0
LINE
  5
E7
330
70
100
AcDbEntity
  8
Layer 1
  6
AI-Linetype-15
 62
     1
370
    70
100
AcDbLine
 10
215.2305618864778
 20
116.5916476000999
 30
0.0
 11
172.9183952303889
 21
92.16178649509627
 31
0.0
  0
LWPOLYLINE
  5
E9
330
70
100
AcDbEntity
  8
Layer 1
 62
     7
370
    70
100
AcDbPolyline
 90
        4
 70
     0
 43
0.0
 10
172.5762007860296
 20
91.48445316193225
 10
174.3788952300243
 20
88.38706427381747
 10
178.9508952288803
 20
80.57656427577031
 10
265.367339651721
 20
-64.30926902134183
  0
LINE
  5
EA
330
70
100
AcDbEntity
  8
Layer 1
  6
AI-Linetype-16
 62
     1
370
    70
100
AcDbLine
 10
107.3687563578876
 20
91.86192538406
 30
0.0
 11
107.3687563578876
 21
141.2860920383707
 31
0.0
  0
LINE
  5
EC
330
70
100
AcDbEntity
  8
Layer 1
  6
AI-Linetype-17
 62
     1
370
    70
100
AcDbLine
 10
74.56042303275609
 20
141.1802587050641
 30
0.0
 11
74.56042303275609
 21
91.96775871736726
 31
0.0
  0
LINE
  5
EE
330
70
100
AcDbEntity
  8
Layer 1
 62
     7
370
    70
100
AcDbLine
 10
107.0053952468671
 20
141.7094253715985
 30
0.0
 11
75.23775636592012
 21
141.7094253715985
 31
0.0
  0
LINE
  5
EF
330
70
100
AcDbEntity
  8
Layer 1
 62
     7
370
    70
100
AcDbLine
 10
111.6020896901626
 20
141.7094253715985
 30
0.0
 11
107.9931730243984
 21
141.7094253715985
 31
0.0
  0
LINE
  5
F0
330
70
100
AcDbEntity
  8
Layer 1
 62
     7
370
    70
100
AcDbLine
 10
111.6020896901626
 20
91.79136982852247
 30
0.0
 11
107.8697008022062
 21
91.79136982852247
 31
0.0
  0
LINE
  5
F1
330
70
100
AcDbEntity
  8
Layer 1
 62
     7
370
    70
100
AcDbLine
 10
106.8678119135678
 20
91.79136982852247
 30
0.0
 11
75.41414525476492
 21
91.79136982852247
 31
0.0
  0
LWPOLYLINE
  5
F2
330
70
100
AcDbEntity
  8
Layer 1
 62
     7
370
    70
100
AcDbPolyline
 90
       39
 70
     0
 43
0.0
 10
74.41225636612644
 20
91.79136982852247
 10
14.59945675887986
 20
91.79136982852247
 10
13.52986749245817
 20
91.79136982852247
 10
11.4096730485437
 20
91.97481427292121
 10
9.236561937975919
 20
92.44048093947135
 10
7.102256382953876
 20
93.12486982818867
 10
5.04556193902363
 20
93.95036982798236
 10
3.105284161730922
 20
94.9557864943978
 10
1.242617495530012
 20
96.14111982743438
 10
-0.4648269484876224
 20
97.43228649377819
 10
-2.05585472586772
 20
98.90689760452076
 10
-3.452854725518162
 20
100.4873420485699
 10
-4.733438058531708
 20
102.2124253814724
 10
-5.819993613814958
 20
104.0080642699124
 10
-6.712521391370156
 20
105.9095364916597
 10
-7.449826946741437
 20
107.8850920467209
 10
-7.954299168837322
 20
109.8959253795518
 10
-8.264743613204194
 20
111.945564267928
 10
-8.342354724295992
 20
113.9916753785274
 10
-8.342354724295992
 20
120.0030087103582
 10
-8.329708197950887
 20
120.3318183953226
 10
-8.264743613204194
 20
122.0208975987424
 10
-7.961354724391268
 20
124.0035087093575
 10
-7.46746583562598
 20
125.9508420422041
 10
-6.747799169138922
 20
127.8628975972823
 10
-5.872910280468909
 20
129.6726475968296
 10
-4.807521391846213
 20
131.4471198186085
 10
-3.555160281048449
 20
133.0804809293109
 10
-2.186382503612827
 20
134.6115364844838
 10
-0.6271047262248436
 20
136.0402864841264
 10
1.045061940024025
 20
137.3279253726932
 10
2.868923050678876
 20
138.4744531501843
 10
4.770395272425846
 20
139.4481198166083
 10
6.784756383033379
 20
140.2489253719632
 10
8.873200826955738
 20
140.8733420384739
 10
11.00397860420081
 20
141.3284253716931
 10
13.17003415921529
 20
141.6035920382912
 10
14.58820082552692
 20
141.7094253715985
 10
74.23586747728165
 20
141.7094253715985
  0
SPLINE
  5
F3
330
70
100
AcDbEntity
  8
Layer 1
 62
     7
370
    70
100
AcDbSpline
210
0.0
220
0.0
230
1.0
 70
     8
 71
     3
 72
    20
 73
    16
 74
     0
 42
0.0000000001
 43
0.0000000001
 40
0.0
 40
0.0
 40
0.0
 40
0.0
 40
1.0
 40
1.0
 40
1.0
 40
2.0
 40
2.0
 40
2.0
 40
3.0
 40
3.0
 40
3.0
 40
4.0
 40
4.0
 40
4.0
 40
5.0
 40
5.0
 40
5.0
 40
5.0
 10
171.9729507861814
 20
91.84428649517514
 30
0.0
 10
171.9623674528505
 20
91.88309205072119
 30
0.0
 10
171.9553118972965
 20
91.92542538404422
 30
0.0
 10
171.9553118972965
 20
91.96775871736726
 30
0.0
 10
171.9553118972965
 20
92.24292538396472
 30
0.0
 10
172.1810896750177
 20
92.46870316168585
 30
0.0
 10
172.4562563416158
 20
92.46870316168585
 30
0.0
 10
172.6608674526751
 20
92.46870316168585
 30
0.0
 10
172.8407841192968
 20
92.3417031617174
 30
0.0
 10
172.9183952303889
 20
92.16178649509627
 30
0.0
 10
172.9430896748278
 20
92.10181427288901
 30
0.0
 10
172.9572007859344
 20
92.03831427290479
 30
0.0
 10
172.9572007859344
 20
91.96775871736726
 30
0.0
 10
172.9572007859344
 20
91.73492538409218
 30
0.0
 10
172.7949230081975
 20
91.53736982858555
 30
0.0
 10
172.5762007860296
 20
91.48445316193225
 30
0.0
  0
SPLINE
  5
F4
330
70
100
AcDbEntity
  8
Layer 1
 62
     7
370
    70
100
AcDbSpline
210
0.0
220
0.0
230
1.0
 70
     8
 71
     3
 72
    20
 73
    16
 74
     0
 42
0.0000000001
 43
0.0000000001
 40
0.0
 40
0.0
 40
0.0
 40
0.0
 40
1.0
 40
1.0
 40
1.0
 40
2.0
 40
2.0
 40
2.0
 40
3.0
 40
3.0
 40
3.0
 40
4.0
 40
4.0
 40
4.0
 40
5.0
 40
5.0
 40
5.0
 40
5.0
 10
215.6891729974733
 20
117.4771198221002
 30
0.0
 10
215.6292007752674
 20
117.501814266539
 30
0.0
 10
215.5657007752831
 20
117.5159253776463
 30
0.0
 10
215.495145219745
 20
117.5159253776463
 30
0.0
 10
215.2199785531469
 20
117.5159253776463
 30
0.0
 10
214.9942007754257
 20
117.2901475999251
 30
0.0
 10
214.9942007754257
 20
117.0149809333276
 30
0.0
 10
214.9942007754257
 20
116.8385920444829
 30
0.0
 10
215.0894507754014
 20
116.6798420445223
 30
0.0
 10
215.2305618864778
 20
116.5916476000999
 30
0.0
 10
215.3081729975686
 20
116.5422587112236
 30
0.0
 10
215.396367441991
 20
116.5140364890078
 30
0.0
 10
215.495145219745
 20
116.5140364890078
 30
0.0
 10
215.6186174419358
 20
116.5140364890078
 30
0.0
 10
215.72797855302
 20
116.5598976001078
 30
0.0
 10
215.8161729974418
 20
116.6375087111993
 30
0.0
  0
SPLINE
  5
F5
330
70
100
AcDbEntity
  8
Layer 1
 62
     7
370
    70
100
AcDbSpline
210
0.0
220
0.0
230
1.0
 70
     8
 71
     3
 72
    11
 73
     7
 74
     0
 42
0.0000000001
 43
0.0000000001
 40
0.0
 40
0.0
 40
0.0
 40
0.0
 40
1.0
 40
1.0
 40
1.0
 40
2.0
 40
2.0
 40
2.0
 40
2.0
 10
106.8678119135678
 20
91.79136982852247
 30
0.0
 10
106.8678119135678
 20
92.06653649511993
 30
0.0
 10
107.0935896912895
 20
92.29231427284105
 30
0.0
 10
107.3687563578876
 20
92.29231427284105
 30
0.0
 10
107.6439230244851
 20
92.29231427284105
 30
0.0
 10
107.8697008022062
 20
92.06653649511993
 30
0.0
 10
107.8697008022062
 20
91.79136982852247
 30
0.0
  0
SPLINE
  5
F6
330
70
100
AcDbEntity
  8
Layer 1
 62
     7
370
    70
100
AcDbSpline
210
0.0
220
0.0
230
1.0
 70
     8
 71
     3
 72
    14
 73
    10
 74
     0
 42
0.0000000001
 43
0.0000000001
 40
0.0
 40
0.0
 40
0.0
 40
0.0
 40
1.0
 40
1.0
 40
1.0
 40
2.0
 40
2.0
 40
2.0
 40
3.0
 40
3.0
 40
3.0
 40
3.0
 10
107.9931730243984
 20
141.7094253715985
 30
0.0
 10
107.9684785799596
 20
141.4589531494385
 30
0.0
 10
107.7532841355693
 20
141.2649253717089
 30
0.0
 10
107.4992841356324
 20
141.2649253717089
 30
0.0
 10
107.4534230245324
 20
141.2649253717089
 30
0.0
 10
107.41108969121
 20
141.2719809272628
 30
0.0
 10
107.3687563578876
 20
141.2860920383707
 30
0.0
 10
107.174728580158
 20
141.3354809272471
 30
0.0
 10
107.0265619135283
 20
141.5048142605379
 30
0.0
 10
107.0053952468671
 20
141.7094253715985
 30
0.0
  0
SPLINE
  5
F7
330
70
100
AcDbEntity
  8
Layer 1
  6
AI-Linetype-18
 62
     7
370
    70
100
AcDbSpline
210
0.0
220
0.0
230
1.0
 70
     8
 71
     3
 72
    11
 73
     7
 74
     0
 42
0.0000000001
 43
0.0000000001
 40
0.0
 40
0.0
 40
0.0
 40
0.0
 40
1.0
 40
1.0
 40
1.0
 40
2.0
 40
2.0
 40
2.0
 40
2.0
 10
74.23586747728165
 20
141.7094253715985
 30
0.0
 10
74.23586747728165
 20
141.4342587050004
 30
0.0
 10
74.46164525500311
 20
141.2084809272786
 30
0.0
 10
74.73681192160089
 20
141.2084809272786
 30
0.0
 10
75.01197858819868
 20
141.2084809272786
 30
0.0
 10
75.23775636592012
 20
141.4342587050004
 30
0.0
 10
75.23775636592012
 20
141.7094253715985
 30
0.0
  0
SPLINE
  5
F9
330
70
100
AcDbEntity
  8
Layer 1
  6
AI-Linetype-19
 62
     7
370
    70
100
AcDbSpline
210
0.0
220
0.0
230
1.0
 70
     8
 71
     3
 72
    14
 73
    10
 74
     0
 42
0.0000000001
 43
0.0000000001
 40
0.0
 40
0.0
 40
0.0
 40
0.0
 40
1.0
 40
1.0
 40
1.0
 40
2.0
 40
2.0
 40
2.0
 40
3.0
 40
3.0
 40
3.0
 40
3.0
 10
75.41414525476492
 20
91.79136982852247
 30
0.0
 10
75.41414525476492
 20
92.06653649511993
 30
0.0
 10
75.18836747704345
 20
92.29231427284105
 30
0.0
 10
74.91320081044567
 20
92.29231427284105
 30
0.0
 10
74.77561747714695
 20
92.29231427284105
 30
0.0
 10
74.65214525495579
 20
92.23586982841077
 30
0.0
 10
74.56042303275609
 20
92.14414760621204
 30
0.0
 10
74.46870081055672
 20
92.05242538401204
 30
0.0
 10
74.41225636612644
 20
91.9289531618212
 30
0.0
 10
74.41225636612644
 20
91.79136982852247
 30
0.0
  0
CIRCLE
  5
FB
330
70
100
AcDbEntity
  8
Layer 1
 62
     7
370
    70
100
AcDbCircle
 10
288.7987657637602
 20
-55.31696346803379
 30
0.0
 40
3.17499999920625
  0
CIRCLE
  5
FC
330
70
100
AcDbEntity
  8
Layer 1
 62
     7
370
    70
100
AcDbCircle
 10
35.81660467458994
 20
117.4651549773952
 30
0.0
 40
4.09999999897503
  0
LINE
  5
FD
330
70
100
AcDbEntity
  8
Layer 1
 62
     7
370
    70
100
AcDbLine
 10
256.2018024620759
 20
-137.9969794108513
 30
0.0
 11
251.0512071222113
 21
-141.0691190576893
 31
0.0
  0
LWPOLYLINE
  5
FE
330
70
100
AcDbEntity
  8
Layer 1
 62
     7
370
    70
100
AcDbPolyline
 90
       18
 70
     0
 43
0.0
 10
256.2018024620759
 20
-137.9969794108513
 10
257.9048486800439
 20
-136.8579506944733
 10
259.5053146245301
 20
-135.6157911003521
 10
260.9489697802518
 20
-134.1796224979011
 10
262.2900556924101
 20
-132.6403415099087
 10
263.4498953956319
 20
-131.0037844467631
 10
264.4890739585
 20
-129.2338145555432
 10
265.3166958136534
 20
-127.3846226096495
 10
265.981155894373
 20
-125.4684845532481
 10
266.5005037615977
 20
-123.5156508672268
 10
266.8083013279758
 20
-121.4836163762105
 10
266.9284657707609
 20
-119.4813399958981
 10
266.855151533469
 20
-117.4301502758786
 10
266.642592698999
 20
-115.4209733610515
 10
266.1940186213926
 20
-113.4293211121176
 10
265.5758830409659
 20
-111.4977144391753
 10
264.7882033945044
 20
-109.6261930841042
 10
263.8490246198951
 20
-107.8450102852678
  0
LWPOLYLINE
  5
FF
330
70
100
AcDbEntity
  8
Layer 1
 62
     7
370
    70
100
AcDbPolyline
 90
       18
 70
     0
 43
0.0
 10
220.9172985057279
 20
-133.4521972606447
 10
222.0079700016191
 20
-135.1430202535649
 10
223.2804087885918
 20
-136.7254007081285
 10
224.6862889520904
 20
-138.1871468687308
 10
226.2558694089484
 20
-139.5101602682104
 10
227.8924154421815
 20
-140.6699814792317
 10
229.6624028519372
 20
-141.7091683962942
 10
231.4812795942436
 20
-142.5548784170902
 10
233.415508655521
 20
-143.2496269367617
 10
235.380569297732
 20
-143.7206028224427
 10
237.3822960474464
 20
-144.0464590323451
 10
239.4329434356357
 20
-144.1788698154256
 10
241.4538216832123
 20
-144.1236289827182
 10
243.4752412889512
 20
-143.8626825137437
 10
245.4365940690189
 20
-143.4321809488146
 10
247.4165569887825
 20
-142.8262879775416
 10
249.2700270808558
 20
-142.0083024553468
 10
251.0512071222113
 20
-141.0691190576893
  0
LWPOLYLINE
  5
100
330
70
100
AcDbEntity
  8
Layer 1
 62
     7
370
    70
100
AcDbPolyline
 90
       12
 70
     0
 43
0.0
 10
76.23612824270468
 20
72.56498094444018
 10
74.96612608983783
 20
72.56498094444018
 10
73.69612393697065
 20
72.56498094444018
 10
72.49668164601074
 20
72.56498094444018
 10
71.36778845103473
 20
72.56498094444018
 10
70.3447350489196
 20
72.56498094444018
 10
69.427510673742
 20
72.56498094444018
 10
68.65140602237864
 20
72.56498094444018
 10
68.05167949393731
 20
72.56498094444018
 10
67.59307268930989
 20
72.56498094444018
 10
67.31084400760451
 20
72.56498094444018
 10
67.24029491162031
 20
72.56498094444018
  0
LWPOLYLINE
  5
101
330
70
100
AcDbEntity
  8
Layer 1
 62
     7
370
    70
100
AcDbPolyline
 90
       22
 70
     0
 43
0.0
 10
170.5336239127616
 20
56.53200646939986
 10
170.2866751620095
 20
57.61483586149053
 10
169.9691665493495
 20
58.62782179840384
 10
169.6163887716606
 20
59.64078641558078
 10
168.2758375228095
 20
62.36534207933946
 10
166.5119486343616
 20
64.74061650799964
 10
165.4888844663225
 20
65.82344590009032
 10
164.3952819682235
 20
66.80148878967859
 10
163.1605597463106
 20
67.7096882240882
 10
161.8200084974589
 20
68.51307983625968
 10
160.2325084978557
 20
69.31647144843115
 10
158.5391794713157
 20
70.01507655809892
 10
156.6694400240835
 20
70.64381689285298
 10
154.6938930817606
 20
71.16777072510398
 10
152.5772264156231
 20
71.62185978244123
 10
150.319440025671
 20
71.97116233727481
 10
148.4144529452553
 20
72.18075666201729
 10
146.4036153060554
 20
72.35540793943407
 10
144.2869486399172
 20
72.46019444193712
 10
142.6994486403147
 20
72.4951161695258
 10
140.6533418360839
 20
72.5300592168515
 10
138.2191665572877
 20
72.56498094444018
  0
LWPOLYLINE
  5
102
330
70
100
AcDbEntity
  8
Layer 1
 62
     7
370
    70
100
AcDbPolyline
 90
        5
 70
     0
 43
0.0
 10
111.9372221194131
 20
22.7006089762301
 10
76.32431192120401
 20
22.64692540136413
 10
75.97153414351443
 20
22.64692540136413
 10
67.15208970127484
 20
22.64692540136413
 10
67.15208970127484
 20
22.64692540136413
  0
LINE
  5
103
330
70
100
AcDbEntity
  8
Layer 1
 62
     7
370
    70
100
AcDbLine
 10
138.2191665572877
 20
72.56498094444018
 30
0.0
 11
76.23612824270468
 21
72.56498094444018
 31
0.0
  0
LWPOLYLINE
  5
104
330
70
100
AcDbEntity
  8
Layer 1
 62
     7
370
    70
100
AcDbPolyline
 90
        8
 70
     0
 43
0.0
 10
170.5336174532073
 20
56.53123094844835
 10
170.8158396753594
 20
55.12011983769002
 10
170.9922285642041
 20
53.70900872693169
 10
171.1333396752799
 20
52.3331753939418
 10
171.203895230818
 20
51.09845317202825
 10
171.2391730085865
 20
49.89900872788444
 10
171.2391730085865
 20
48.91123095035323
 10
171.2391730085865
 20
48.33267539494187
  0
LWPOLYLINE
  5
105
330
70
100
AcDbEntity
  8
Layer 1
 62
     7
370
    70
100
AcDbPolyline
 90
       13
 70
     0
 43
0.0
 10
127.3536153108179
 20
22.7006089762301
 10
126.7891794792532
 20
22.7006089762301
 10
126.0836239238741
 20
22.7006089762301
 10
125.2016794796501
 20
22.7006089762301
 10
124.1433461465814
 20
22.7006089762301
 10
122.9438930896981
 20
22.7006089762301
 10
121.6386110058772
 20
22.7006089762301
 10
120.1922307300887
 20
22.7006089762301
 10
118.6752905923922
 20
22.7006089762301
 10
117.0524998959127
 20
22.7006089762301
 10
115.3944400344023
 20
22.7006089762301
 10
113.6658418428314
 20
22.7006089762301
 10
111.9372221194131
 20
22.7006089762301
  0
LINE
  5
106
330
70
100
AcDbEntity
  8
Layer 1
 62
     7
370
    70
100
AcDbLine
 10
127.5229507972932
 20
22.6998420680168
 30
0.0
 11
127.3536174640018
 21
22.6998420680168
 31
0.0
  0
LWPOLYLINE
  5
107
330
70
100
AcDbEntity
  8
Layer 1
 62
     7
370
    70
100
AcDbPolyline
 90
        4
 70
     0
 43
0.0
 10
171.3661730085549
 20
47.49306428404095
 10
173.2500063414173
 20
44.25456428485111
 10
173.3382007858391
 20
44.16636984042871
 10
263.8503952076561
 20
-107.8455745660132
  0
LINE
  5
108
330
70
100
AcDbEntity
  8
Layer 1
  6
AI-Linetype-20
 62
     1
370
    70
100
AcDbLine
 10
170.7805618975902
 20
47.44720317294158
 30
0.0
 11
128.4683952415014
 21
23.01734206793794
 31
0.0
  0
LWPOLYLINE
  5
10A
330
70
100
AcDbEntity
  8
Layer 1
 62
     7
370
    70
100
AcDbPolyline
 90
        4
 70
     0
 43
0.0
 10
128.1262007971428
 20
22.34000873477391
 10
129.9288952411368
 20
19.24261984665914
 10
134.5008952399934
 20
11.43211984861197
 10
220.9173396628342
 20
-133.4537134485001
  0
LINE
  5
10B
330
70
100
AcDbEntity
  8
Layer 1
  6
AI-Linetype-21
 62
     1
370
    70
100
AcDbLine
 10
62.91875636899984
 20
22.71748095690167
 30
0.0
 11
62.91875636899984
 21
72.14164761121242
 31
0.0
  0
LINE
  5
10D
330
70
100
AcDbEntity
  8
Layer 1
  6
AI-Linetype-22
 62
     1
370
    70
100
AcDbLine
 10
30.11042304386859
 20
72.0358142779058
 30
0.0
 11
30.11042304386859
 21
22.82331429020892
 31
0.0
  0
LINE
  5
10F
330
70
100
AcDbEntity
  8
Layer 1
 62
     7
370
    70
100
AcDbLine
 10
62.55539525797966
 20
72.56498094444018
 30
0.0
 11
30.78775637703262
 21
72.56498094444018
 31
0.0
  0
LINE
  5
110
330
70
100
AcDbEntity
  8
Layer 1
 62
     7
370
    70
100
AcDbLine
 10
67.15208970127484
 20
72.56498094444018
 30
0.0
 11
63.54317303551056
 21
72.56498094444018
 31
0.0
  0
LINE
  5
111
330
70
100
AcDbEntity
  8
Layer 1
 62
     7
370
    70
100
AcDbLine
 10
67.15208970127484
 20
22.64692540136413
 30
0.0
 11
63.41970081331908
 21
22.64692540136413
 31
0.0
  0
LINE
  5
112
330
70
100
AcDbEntity
  8
Layer 1
 62
     7
370
    70
100
AcDbLine
 10
62.4178119246806
 20
22.64692540136413
 30
0.0
 11
30.96414526587741
 21
22.64692540136413
 31
0.0
  0
LWPOLYLINE
  5
113
330
70
100
AcDbEntity
  8
Layer 1
 62
     7
370
    70
100
AcDbPolyline
 90
       39
 70
     0
 43
0.0
 10
29.96225637723894
 20
22.64692540136413
 10
-29.85054323000764
 20
22.64692540136413
 10
-30.92013249642933
 20
22.64692540136413
 10
-33.0403269403438
 20
22.83036984576287
 10
-35.21343805091158
 20
23.29603651231302
 10
-37.34774360593362
 20
23.98042540103034
 10
-39.40443804986387
 20
24.80592540082402
 10
-41.34471582715657
 20
25.81134206723946
 10
-43.20738249335749
 20
26.99667540027603
 10
-44.91482693737512
 20
28.28784206661985
 10
-46.50585471475522
 20
29.76245317736241
 10
-47.90285471440566
 20
31.34289762141159
 10
-49.18343804741921
 20
33.06798095431409
 10
-50.26999360270246
 20
34.86361984275412
 10
-51.16252138025766
 20
36.76509206450141
 10
-51.89982693562893
 20
38.74064761956257
 10
-52.40429915772482
 20
40.75148095239344
 10
-52.71474360209169
 20
42.80111984076974
 10
-52.79235471318349
 20
44.84723095136907
 10
-52.79235471318349
 20
50.85856428319988
 10
-52.77970818683839
 20
51.18737396816426
 10
-52.71474360209169
 20
52.87645317158407
 10
-52.41135471327877
 20
54.85906428219916
 10
-51.91746582451348
 20
56.80639761504582
 10
-51.19779915802642
 20
58.71845317012403
 10
-50.32291026935642
 20
60.52820316967131
 10
-49.25752138073371
 20
62.30267539145014
 10
-48.00516026993594
 20
63.93603650215263
 10
-46.63638249250033
 20
65.46709205732547
 10
-45.07710471511234
 20
66.89584205696803
 10
-43.40493804886348
 20
68.18348094553488
 10
-41.58107693820862
 20
69.33000872302603
 10
-39.67960471646165
 20
70.30367538944999
 10
-37.66524360585413
 20
71.10448094480486
 10
-35.57679916193209
 20
71.72889761131557
 10
-33.44602138468669
 20
72.18398094453481
 10
-31.27996582967222
 20
72.45914761113292
 10
-29.86179916336057
 20
72.56498094444018
 10
29.78586748839415
 20
72.56498094444018
  0
SPLINE
  5
114
330
70
100
AcDbEntity
  8
Layer 1
 62
     7
370
    70
100
AcDbSpline
210
0.0
220
0.0
230
1.0
 70
     8
 71
     3
 72
    20
 73
    16
 74
     0
 42
0.0000000001
 43
0.0000000001
 40
0.0
 40
0.0
 40
0.0
 40
0.0
 40
1.0
 40
1.0
 40
1.0
 40
2.0
 40
2.0
 40
2.0
 40
3.0
 40
3.0
 40
3.0
 40
4.0
 40
4.0
 40
4.0
 40
5.0
 40
5.0
 40
5.0
 40
5.0
 10
127.5229507972932
 20
22.6998420680168
 30
0.0
 10
127.5123674639623
 20
22.73864762356286
 30
0.0
 10
127.505311908409
 20
22.78098095688589
 30
0.0
 10
127.505311908409
 20
22.82331429020892
 30
0.0
 10
127.505311908409
 20
23.09848095680639
 30
0.0
 10
127.7310896861302
 20
23.32425873452752
 30
0.0
 10
128.0062563527283
 20
23.32425873452752
 30
0.0
 10
128.2108674637882
 20
23.32425873452752
 30
0.0
 10
128.39078413041
 20
23.19725873455906
 30
0.0
 10
128.4683952415014
 20
23.01734206793794
 30
0.0
 10
128.4930896859403
 20
22.95736984573068
 30
0.0
 10
128.5072007970475
 20
22.89386984574646
 30
0.0
 10
128.5072007970475
 20
22.82331429020892
 30
0.0
 10
128.5072007970475
 20
22.59048095693385
 30
0.0
 10
128.3449230193106
 20
22.39292540142722
 30
0.0
 10
128.1262007971428
 20
22.34000873477391
 30
0.0
  0
SPLINE
  5
115
330
70
100
AcDbEntity
  8
Layer 1
 62
     7
370
    70
100
AcDbSpline
210
0.0
220
0.0
230
1.0
 70
     8
 71
     3
 72
    20
 73
    16
 74
     0
 42
0.0000000001
 43
0.0000000001
 40
0.0
 40
0.0
 40
0.0
 40
0.0
 40
1.0
 40
1.0
 40
1.0
 40
2.0
 40
2.0
 40
2.0
 40
3.0
 40
3.0
 40
3.0
 40
4.0
 40
4.0
 40
4.0
 40
5.0
 40
5.0
 40
5.0
 40
5.0
 10
171.2391730085865
 20
48.33267539494187
 30
0.0
 10
171.1792007863798
 20
48.35736983938068
 30
0.0
 10
171.1157007863956
 20
48.37148095048793
 30
0.0
 10
171.0451452308574
 20
48.37148095048793
 30
0.0
 10
170.7699785642593
 20
48.37148095048793
 30
0.0
 10
170.5442007865382
 20
48.1457031727668
 30
0.0
 10
170.5442007865382
 20
47.87053650616933
 30
0.0
 10
170.5442007865382
 20
47.69414761732455
 30
0.0
 10
170.6394507865145
 20
47.53539761736397
 30
0.0
 10
170.7805618975902
 20
47.44720317294158
 30
0.0
 10
170.8581730086817
 20
47.39781428406525
 30
0.0
 10
170.9463674531035
 20
47.36959206184947
 30
0.0
 10
171.0451452308574
 20
47.36959206184947
 30
0.0
 10
171.1686174530483
 20
47.36959206184947
 30
0.0
 10
171.2779785641319
 20
47.41545317294947
 30
0.0
 10
171.3661730085549
 20
47.49306428404095
 30
0.0
  0
SPLINE
  5
116
330
70
100
AcDbEntity
  8
Layer 1
 62
     7
370
    70
100
AcDbSpline
210
0.0
220
0.0
230
1.0
 70
     8
 71
     3
 72
    11
 73
     7
 74
     0
 42
0.0000000001
 43
0.0000000001
 40
0.0
 40
0.0
 40
0.0
 40
0.0
 40
1.0
 40
1.0
 40
1.0
 40
2.0
 40
2.0
 40
2.0
 40
2.0
 10
62.4178119246806
 20
22.64692540136413
 30
0.0
 10
62.4178119246806
 20
22.9220920679616
 30
0.0
 10
62.64358970240206
 20
23.14786984568272
 30
0.0
 10
62.91875636899984
 20
23.14786984568272
 30
0.0
 10
63.19392303559762
 20
23.14786984568272
 30
0.0
 10
63.41970081331908
 20
22.9220920679616
 30
0.0
 10
63.41970081331908
 20
22.64692540136413
 30
0.0
  0
SPLINE
  5
117
330
70
100
AcDbEntity
  8
Layer 1
 62
     7
370
    70
100
AcDbSpline
210
0.0
220
0.0
230
1.0
 70
     8
 71
     3
 72
    14
 73
    10
 74
     0
 42
0.0000000001
 43
0.0000000001
 40
0.0
 40
0.0
 40
0.0
 40
0.0
 40
1.0
 40
1.0
 40
1.0
 40
2.0
 40
2.0
 40
2.0
 40
3.0
 40
3.0
 40
3.0
 40
3.0
 10
63.54317303551056
 20
72.56498094444018
 30
0.0
 10
63.51847859107206
 20
72.31450872228023
 30
0.0
 10
63.30328414668122
 20
72.12048094455058
 30
0.0
 10
63.04928414674495
 20
72.12048094455058
 30
0.0
 10
63.00342303564526
 20
72.12048094455058
 30
0.0
 10
62.96108970232255
 20
72.12753650010452
 30
0.0
 10
62.91875636899984
 20
72.14164761121242
 30
0.0
 10
62.7247285912705
 20
72.19103650008875
 30
0.0
 10
62.57656192464086
 20
72.36036983337959
 30
0.0
 10
62.55539525797966
 20
72.56498094444018
 30
0.0
  0
SPLINE
  5
118
330
70
100
AcDbEntity
  8
Layer 1
  6
AI-Linetype-23
 62
     7
370
    70
100
AcDbSpline
210
0.0
220
0.0
230
1.0
 70
     8
 71
     3
 72
    11
 73
     7
 74
     0
 42
0.0000000001
 43
0.0000000001
 40
0.0
 40
0.0
 40
0.0
 40
0.0
 40
1.0
 40
1.0
 40
1.0
 40
2.0
 40
2.0
 40
2.0
 40
2.0
 10
29.78586748839415
 20
72.56498094444018
 30
0.0
 10
29.78586748839415
 20
72.28981427784207
 30
0.0
 10
30.0116452661156
 20
72.06403650012029
 30
0.0
 10
30.28681193271339
 20
72.06403650012029
 30
0.0
 10
30.56197859931117
 20
72.06403650012029
 30
0.0
 10
30.78775637703262
 20
72.28981427784207
 30
0.0
 10
30.78775637703262
 20
72.56498094444018
 30
0.0
  0
SPLINE
  5
11A
330
70
100
AcDbEntity
  8
Layer 1
  6
AI-Linetype-24
 62
     7
370
    70
100
AcDbSpline
210
0.0
220
0.0
230
1.0
 70
     8
 71
     3
 72
    14
 73
    10
 74
     0
 42
0.0000000001
 43
0.0000000001
 40
0.0
 40
0.0
 40
0.0
 40
0.0
 40
1.0
 40
1.0
 40
1.0
 40
2.0
 40
2.0
 40
2.0
 40
3.0
 40
3.0
 40
3.0
 40
3.0
 10
30.96414526587741
 20
22.64692540136413
 30
0.0
 10
30.96414526587741
 20
22.9220920679616
 30
0.0
 10
30.73836748815596
 20
23.14786984568272
 30
0.0
 10
30.46320082155818
 20
23.14786984568272
 30
0.0
 10
30.32561748825945
 20
23.14786984568272
 30
0.0
 10
30.20214526606797
 20
23.09142540125244
 30
0.0
 10
30.11042304386859
 20
22.99970317905371
 30
0.0
 10
30.01870082166922
 20
22.9079809568537
 30
0.0
 10
29.96225637723894
 20
22.78450873466286
 30
0.0
 10
29.96225637723894
 20
22.64692540136413
 30
0.0
  0
CIRCLE
  5
11C
330
70
100
AcDbEntity
  8
Layer 1
 62
     7
370
    70
100
AcDbCircle
 10
244.3487657748727
 20
-124.4614078951921
 30
0.0
 40
3.17499999920625
  0
CIRCLE
  5
11D
330
70
100
AcDbEntity
  8
Layer 1
 62
     7
370
    70
100
AcDbCircle
 10
-8.63339531429756
 20
48.32071055023685
 30
0.0
 40
4.09999999897503
  0
LINE
  5
11E
330
70
100
AcDbEntity
  8
Layer 1
 62
     7
370
    70
100
AcDbLine
 10
215.2795802500849
 20
-215.2553127248701
 30
0.0
 11
210.1289849102197
 21
-218.3274523717081
 31
0.0
  0
LWPOLYLINE
  5
11F
330
70
100
AcDbEntity
  8
Layer 1
 62
     7
370
    70
100
AcDbPolyline
 90
       18
 70
     0
 43
0.0
 10
215.2795802500849
 20
-215.2553127248701
 10
216.9826264680522
 20
-214.1162840084921
 10
218.5830924125384
 20
-212.8741244143709
 10
220.0267475682602
 20
-211.4379558119199
 10
221.3678334804191
 20
-209.8986748239275
 10
222.5276731836403
 20
-208.2621177607819
 10
223.5668517465084
 20
-206.492147869562
 10
224.3944736016624
 20
-204.6429559236683
 10
225.0589336823814
 20
-202.7268178672668
 10
225.5782815496054
 20
-200.7739841812455
 10
225.8860791159841
 20
-198.7419496902292
 10
226.0062435587686
 20
-196.7396733099169
 10
225.9329293214774
 20
-194.6884835898974
 10
225.7203704870067
 20
-192.6793066750703
 10
225.2717964094015
 20
-190.6876544261363
 10
224.6536608289742
 20
-188.756047753194
 10
223.8659811825127
 20
-186.8845263981229
 10
222.9268024079035
 20
-185.1033435992865
  0
LWPOLYLINE
  5
120
330
70
100
AcDbEntity
  8
Layer 1
 62
     7
370
    70
100
AcDbPolyline
 90
       18
 70
     0
 43
0.0
 10
179.9950762937369
 20
-210.7105305746635
 10
181.0857477896274
 20
-212.4013535675837
 10
182.3581865766001
 20
-213.9837340221472
 10
183.7640667400987
 20
-215.4454801827495
 10
185.3336471969568
 20
-216.7684935822292
 10
186.9701932301897
 20
-217.9283147932505
 10
188.7401806399455
 20
-218.967501710313
 10
190.5590573822519
 20
-219.813211731109
 10
192.4932864435294
 20
-220.5079602507804
 10
194.4583470857403
 20
-220.9789361364614
 10
196.460073835454
 20
-221.3047923463639
 10
198.510721223644
 20
-221.4372031294443
 10
200.5315994712213
 20
-221.381962296737
 10
202.5530190769589
 20
-221.1210158277625
 10
204.5143718570265
 20
-220.6905142628334
 10
206.4943347767909
 20
-220.0846212915603
 10
208.3478048688642
 20
-219.2666357693656
 10
210.1289849102197
 20
-218.3274523717081
  0
LWPOLYLINE
  5
121
330
70
100
AcDbEntity
  8
Layer 1
 62
     7
370
    70
100
AcDbPolyline
 90
       12
 70
     0
 43
0.0
 10
35.31390603071334
 20
-4.693352369578579
 10
34.04390387784616
 20
-4.693352369578579
 10
32.77390172497899
 20
-4.693352369578579
 10
31.57445943401908
 20
-4.693352369578579
 10
30.44556623904306
 20
-4.693352369578579
 10
29.42251283692794
 20
-4.693352369578579
 10
28.50528846175035
 20
-4.693352369578579
 10
27.7291838103873
 20
-4.693352369578579
 10
27.12945728194565
 20
-4.693352369578579
 10
26.67085047731855
 20
-4.693352369578579
 10
26.38862179561284
 20
-4.693352369578579
 10
26.31807269962897
 20
-4.693352369578579
  0
LWPOLYLINE
  5
122
330
70
100
AcDbEntity
  8
Layer 1
 62
     7
370
    70
100
AcDbPolyline
 90
       22
 70
     0
 43
0.0
 10
129.6114017007699
 20
-20.72632684461889
 10
129.3644529500178
 20
-19.64349745252822
 10
129.0469443373585
 20
-18.63051151561491
 10
128.6941665596689
 20
-17.61754689843797
 10
127.3536153108179
 20
-14.8929912346793
 10
125.5897264223699
 20
-12.5177168060191
 10
124.5666622543314
 20
-11.43488741392843
 10
123.4730597562325
 20
-10.45684452434017
 10
122.2383375343183
 20
-9.548645089930555
 10
120.8977862854679
 20
-8.745253477759082
 10
119.3102862858647
 20
-7.941861865587606
 10
117.6169572593241
 20
-7.243256755919825
 10
115.7472178120918
 20
-6.614516421165776
 10
113.7716708697683
 20
-6.090562588914782
 10
111.6550042036308
 20
-5.636473531577517
 10
109.3972178136793
 20
-5.287170976743948
 10
107.492230733263
 20
-5.077576652001469
 10
105.4813930940631
 20
-4.902925374584684
 10
103.3647264279259
 20
-4.798138872081631
 10
101.7772264283228
 20
-4.763217144492952
 10
99.73111962409255
 20
-4.728274097167258
 10
97.29694434529539
 20
-4.693352369578579
  0
LWPOLYLINE
  5
123
330
70
100
AcDbEntity
  8
Layer 1
 62
     7
370
    70
100
AcDbPolyline
 90
        5
 70
     0
 43
0.0
 10
71.01499990742142
 20
-54.55772433778864
 10
35.40208970921234
 20
-54.61140791265462
 10
35.04931193152276
 20
-54.61140791265462
 10
26.22986748928318
 20
-54.61140791265462
 10
26.22986748928318
 20
-54.61140791265462
  0
LINE
  5
124
330
70
100
AcDbEntity
  8
Layer 1
 62
     7
370
    70
100
AcDbLine
 10
97.29694434529539
 20
-4.693352369578579
 30
0.0
 11
35.31390603071334
 21
-4.693352369578579
 31
0.0
  0
LWPOLYLINE
  5
125
330
70
100
AcDbEntity
  8
Layer 1
 62
     7
370
    70
100
AcDbPolyline
 90
        8
 70
     0
 43
0.0
 10
129.6113952412156
 20
-20.7271023655704
 10
129.8936174633677
 20
-22.13821347632873
 10
130.0700063522125
 20
-23.54932458708707
 10
130.2111174632882
 20
-24.92515792007696
 10
130.2816730188263
 20
-26.1598801419905
 10
130.3169507965941
 20
-27.35932458613431
 10
130.3169507965948
 20
-28.34710236366553
 10
130.3169507965948
 20
-28.92565791907688
  0
LWPOLYLINE
  5
126
330
70
100
AcDbEntity
  8
Layer 1
 62
     7
370
    70
100
AcDbPolyline
 90
       13
 70
     0
 43
0.0
 10
86.4313930988259
 20
-54.55772433778864
 10
85.86695726726127
 20
-54.55772433778864
 10
85.1614017118821
 20
-54.55772433778864
 10
84.27945726765814
 20
-54.55772433778864
 10
83.2211239345894
 20
-54.55772433778864
 10
82.02167087770609
 20
-54.55772433778864
 10
80.71638879388498
 20
-54.55772433778864
 10
79.27000851809672
 20
-54.55772433778864
 10
77.75306838040086
 20
-54.55772433778864
 10
76.13027768392038
 20
-54.55772433778864
 10
74.4722178224103
 20
-54.55772433778864
 10
72.74361963083942
 20
-54.55772433778864
 10
71.01499990742142
 20
-54.55772433778864
  0
LINE
  5
127
330
70
100
AcDbEntity
  8
Layer 1
 62
     7
370
    70
100
AcDbLine
 10
86.60072858530194
 20
-54.55849124600195
 30
0.0
 11
86.43139525201045
 21
-54.55849124600195
 31
0.0
  0
LWPOLYLINE
  5
128
330
70
100
AcDbEntity
  8
Layer 1
 62
     7
370
    70
100
AcDbPolyline
 90
        4
 70
     0
 43
0.0
 10
130.4439507965632
 20
-29.76526902997781
 10
132.3277841294256
 20
-33.00376902916764
 10
132.4159785738481
 20
-33.09196347359004
 10
222.9281729956644
 20
-185.103907880032
  0
LINE
  5
129
330
70
100
AcDbEntity
  8
Layer 1
  6
AI-Linetype-25
 62
     1
370
    70
100
AcDbLine
 10
129.8583396855986
 20
-29.81113014107717
 30
0.0
 11
87.54617302950947
 21
-54.24099124608082
 31
0.0
  0
LWPOLYLINE
  5
12B
330
70
100
AcDbEntity
  8
Layer 1
 62
     7
370
    70
100
AcDbPolyline
 90
        4
 70
     0
 43
0.0
 10
87.20397858515049
 20
-54.91832457924484
 10
89.00667302914479
 20
-58.01571346735961
 10
93.57867302800148
 20
-65.82621346540678
 10
179.9951174508425
 20
-210.7120467625189
  0
LINE
  5
12C
330
70
100
AcDbEntity
  8
Layer 1
  6
AI-Linetype-26
 62
     1
370
    70
100
AcDbLine
 10
21.99653415700817
 20
-54.54085235711708
 30
0.0
 11
21.99653415700817
 21
-5.116685702806336
 31
0.0
  0
LINE
  5
12E
330
70
100
AcDbEntity
  8
Layer 1
  6
AI-Linetype-27
 62
     1
370
    70
100
AcDbLine
 10
-10.81179916812307
 20
-5.222519036112954
 30
0.0
 11
-10.81179916812307
 21
-54.43501902380983
 31
0.0
  0
LINE
  5
130
330
70
100
AcDbEntity
  8
Layer 1
 62
     7
370
    70
100
AcDbLine
 10
21.633173045988
 20
-4.693352369578579
 30
0.0
 11
-10.13446583495905
 21
-4.693352369578579
 31
0.0
  0
LINE
  5
131
330
70
100
AcDbEntity
  8
Layer 1
 62
     7
370
    70
100
AcDbLine
 10
26.22986748928318
 20
-4.693352369578579
 30
0.0
 11
22.62095082351889
 21
-4.693352369578579
 31
0.0
  0
LINE
  5
132
330
70
100
AcDbEntity
  8
Layer 1
 62
     7
370
    70
100
AcDbLine
 10
26.22986748928318
 20
-54.61140791265462
 30
0.0
 11
22.49747860132741
 21
-54.61140791265462
 31
0.0
  0
LINE
  5
133
330
70
100
AcDbEntity
  8
Layer 1
 62
     7
370
    70
100
AcDbLine
 10
21.49558971268894
 20
-54.61140791265462
 30
0.0
 11
-9.958076946114259
 21
-54.61140791265462
 31
0.0
  0
LWPOLYLINE
  5
134
330
70
100
AcDbEntity
  8
Layer 1
 62
     7
370
    70
100
AcDbPolyline
 90
       39
 70
     0
 43
0.0
 10
-10.95996583475272
 20
-54.61140791265462
 10
-70.77276544199931
 20
-54.61140791265462
 10
-71.842354708421
 20
-54.61140791265462
 10
-73.96254915233547
 20
-54.42796346825588
 10
-76.13566026290325
 20
-53.96229680170574
 10
-78.26996581792529
 20
-53.27790791298841
 10
-80.32666026185554
 20
-52.45240791319473
 10
-82.26693803914825
 20
-51.44699124677929
 10
-84.12960470534915
 20
-50.26165791374273
 10
-85.8370491493668
 20
-48.9704912473989
 10
-87.4280769267469
 20
-47.49588013665634
 10
-88.82507692639732
 20
-45.91543569260716
 10
-90.10566025941088
 20
-44.19035235970466
 10
-91.19221581469412
 20
-42.39471347126463
 10
-92.08474359224933
 20
-40.49324124951734
 10
-92.82204914762059
 20
-38.51768569445619
 10
-93.32652136971649
 20
-36.50685236162531
 10
-93.63696581408337
 20
-34.45721347324901
 10
-93.71457692517516
 20
-32.41110236264968
 10
-93.71457692517516
 20
-26.39976903081887
 10
-93.70193039883005
 20
-26.0709593458545
 10
-93.63696581408337
 20
-24.38188014243469
 10
-93.33357692527043
 20
-22.39926903181959
 10
-92.83968803650514
 20
-20.45193569897294
 10
-92.12002137001809
 20
-18.53988014389472
 10
-91.24513248134809
 20
-16.73013014434744
 10
-90.17974359272539
 20
-14.95565792256861
 10
-88.92738248192761
 20
-13.32229681186612
 10
-87.55860470449199
 20
-11.79124125669328
 10
-85.99932692710401
 20
-10.36249125705072
 10
-84.32716026085515
 20
-9.07485236848387
 10
-82.5032991502003
 20
-7.928324590992725
 10
-80.60182692845332
 20
-6.954657924568756
 10
-78.58746581784579
 20
-6.15385236921389
 10
-76.49902137392375
 20
-5.529435702703174
 10
-74.36824359667868
 20
-5.074352369483944
 10
-72.20218804166389
 20
-4.799185702885838
 10
-70.78402137535224
 20
-4.693352369578579
 10
-11.13635472359752
 20
-4.693352369578579
  0
SPLINE
  5
135
330
70
100
AcDbEntity
  8
Layer 1
 62
     7
370
    70
100
AcDbSpline
210
0.0
220
0.0
230
1.0
 70
     8
 71
     3
 72
    20
 73
    16
 74
     0
 42
0.0000000001
 43
0.0000000001
 40
0.0
 40
0.0
 40
0.0
 40
0.0
 40
1.0
 40
1.0
 40
1.0
 40
2.0
 40
2.0
 40
2.0
 40
3.0
 40
3.0
 40
3.0
 40
4.0
 40
4.0
 40
4.0
 40
5.0
 40
5.0
 40
5.0
 40
5.0
 10
86.60072858530194
 20
-54.55849124600195
 30
0.0
 10
86.590145251971
 20
-54.5196856904559
 30
0.0
 10
86.58308969641707
 20
-54.47735235713286
 30
0.0
 10
86.58308969641707
 20
-54.43501902380983
 30
0.0
 10
86.58308969641707
 20
-54.15985235721237
 30
0.0
 10
86.8088674741382
 20
-53.93407457949123
 30
0.0
 10
87.08403414073631
 20
-53.93407457949123
 30
0.0
 10
87.28864525179623
 20
-53.93407457949123
 30
0.0
 10
87.46856191841768
 20
-54.06107457945969
 30
0.0
 10
87.54617302950947
 20
-54.24099124608082
 30
0.0
 10
87.57086747394827
 20
-54.30096346828808
 30
0.0
 10
87.58497858505554
 20
-54.3644634682723
 30
0.0
 10
87.58497858505554
 20
-54.43501902380983
 30
0.0
 10
87.58497858505554
 20
-54.6678523570849
 30
0.0
 10
87.42270080731863
 20
-54.86540791259153
 30
0.0
 10
87.20397858515049
 20
-54.91832457924484
 30
0.0
  0
SPLINE
  5
136
330
70
100
AcDbEntity
  8
Layer 1
 62
     7
370
    70
100
AcDbSpline
210
0.0
220
0.0
230
1.0
 70
     8
 71
     3
 72
    20
 73
    16
 74
     0
 42
0.0000000001
 43
0.0000000001
 40
0.0
 40
0.0
 40
0.0
 40
0.0
 40
1.0
 40
1.0
 40
1.0
 40
2.0
 40
2.0
 40
2.0
 40
3.0
 40
3.0
 40
3.0
 40
4.0
 40
4.0
 40
4.0
 40
5.0
 40
5.0
 40
5.0
 40
5.0
 10
130.3169507965948
 20
-28.92565791907688
 30
0.0
 10
130.2569785743882
 20
-28.90096347463807
 30
0.0
 10
130.1934785744039
 20
-28.88685236353082
 30
0.0
 10
130.1229230188658
 20
-28.88685236353082
 30
0.0
 10
129.847756352267
 20
-28.88685236353082
 30
0.0
 10
129.6219785745465
 20
-29.11263014125195
 30
0.0
 10
129.6219785745465
 20
-29.38779680784941
 30
0.0
 10
129.6219785745465
 20
-29.56418569669421
 30
0.0
 10
129.7172285745222
 20
-29.72293569665478
 30
0.0
 10
129.8583396855986
 20
-29.81113014107717
 30
0.0
 10
129.9359507966894
 20
-29.86051902995351
 30
0.0
 10
130.0241452411118
 20
-29.88874125216929
 30
0.0
 10
130.1229230188658
 20
-29.88874125216929
 30
0.0
 10
130.2463952410573
 20
-29.88874125216929
 30
0.0
 10
130.3557563521408
 20
-29.84288014106928
 30
0.0
 10
130.4439507965632
 20
-29.76526902997781
 30
0.0
  0
SPLINE
  5
137
330
70
100
AcDbEntity
  8
Layer 1
 62
     7
370
    70
100
AcDbSpline
210
0.0
220
0.0
230
1.0
 70
     8
 71
     3
 72
    11
 73
     7
 74
     0
 42
0.0000000001
 43
0.0000000001
 40
0.0
 40
0.0
 40
0.0
 40
0.0
 40
1.0
 40
1.0
 40
1.0
 40
2.0
 40
2.0
 40
2.0
 40
2.0
 10
21.49558971268894
 20
-54.61140791265462
 30
0.0
 10
21.49558971268894
 20
-54.33624124605715
 30
0.0
 10
21.72136749041039
 20
-54.11046346833603
 30
0.0
 10
21.99653415700817
 20
-54.11046346833603
 30
0.0
 10
22.27170082360596
 20
-54.11046346833603
 30
0.0
 10
22.49747860132741
 20
-54.33624124605715
 30
0.0
 10
22.49747860132741
 20
-54.61140791265462
 30
0.0
  0
SPLINE
  5
138
330
70
100
AcDbEntity
  8
Layer 1
 62
     7
370
    70
100
AcDbSpline
210
0.0
220
0.0
230
1.0
 70
     8
 71
     3
 72
    14
 73
    10
 74
     0
 42
0.0000000001
 43
0.0000000001
 40
0.0
 40
0.0
 40
0.0
 40
0.0
 40
1.0
 40
1.0
 40
1.0
 40
2.0
 40
2.0
 40
2.0
 40
3.0
 40
3.0
 40
3.0
 40
3.0
 10
22.62095082351889
 20
-4.693352369578579
 30
0.0
 10
22.5962563790804
 20
-4.943824591738517
 30
0.0
 10
22.38106193468987
 20
-5.137852369468173
 30
0.0
 10
22.12706193475328
 20
-5.137852369468173
 30
0.0
 10
22.0812008236536
 20
-5.137852369468173
 30
0.0
 10
22.03886749033089
 20
-5.130796813914226
 30
0.0
 10
21.99653415700817
 20
-5.116685702806336
 30
0.0
 10
21.80250637927884
 20
-5.067296813929999
 30
0.0
 10
21.65433971264919
 20
-4.897963480639153
 30
0.0
 10
21.633173045988
 20
-4.693352369578579
 30
0.0
  0
SPLINE
  5
139
330
70
100
AcDbEntity
  8
Layer 1
  6
AI-Linetype-28
 62
     7
370
    70
100
AcDbSpline
210
0.0
220
0.0
230
1.0
 70
     8
 71
     3
 72
    11
 73
     7
 74
     0
 42
0.0000000001
 43
0.0000000001
 40
0.0
 40
0.0
 40
0.0
 40
0.0
 40
1.0
 40
1.0
 40
1.0
 40
2.0
 40
2.0
 40
2.0
 40
2.0
 10
-11.13635472359752
 20
-4.693352369578579
 30
0.0
 10
-11.13635472359752
 20
-4.968519036176685
 30
0.0
 10
-10.91057694587607
 20
-5.194296813898454
 30
0.0
 10
-10.63541027927828
 20
-5.194296813898454
 30
0.0
 10
-10.3602436126805
 20
-5.194296813898454
 30
0.0
 10
-10.13446583495905
 20
-4.968519036176685
 30
0.0
 10
-10.13446583495905
 20
-4.693352369578579
 30
0.0
  0
SPLINE
  5
13B
330
70
100
AcDbEntity
  8
Layer 1
  6
AI-Linetype-29
 62
     7
370
    70
100
AcDbSpline
210
0.0
220
0.0
230
1.0
 70
     8
 71
     3
 72
    14
 73
    10
 74
     0
 42
0.0000000001
 43
0.0000000001
 40
0.0
 40
0.0
 40
0.0
 40
0.0
 40
1.0
 40
1.0
 40
1.0
 40
2.0
 40
2.0
 40
2.0
 40
3.0
 40
3.0
 40
3.0
 40
3.0
 10
-9.958076946114259
 20
-54.61140791265462
 30
0.0
 10
-9.958076946114259
 20
-54.33624124605715
 30
0.0
 10
-10.18385472383571
 20
-54.11046346833603
 30
0.0
 10
-10.45902139043349
 20
-54.11046346833603
 30
0.0
 10
-10.59660472373222
 20
-54.11046346833603
 30
0.0
 10
-10.72007694592371
 20
-54.16690791276631
 30
0.0
 10
-10.81179916812307
 20
-54.25863013496504
 30
0.0
 10
-10.90352139032244
 20
-54.35035235716505
 30
0.0
 10
-10.95996583475272
 20
-54.47382457935589
 30
0.0
 10
-10.95996583475272
 20
-54.61140791265462
 30
0.0
  0
CIRCLE
  5
13D
330
70
100
AcDbEntity
  8
Layer 1
 62
     7
370
    70
100
AcDbCircle
 10
203.426543562881
 20
-201.7197412092109
 30
0.0
 40
3.17499999920625
  0
CIRCLE
  5
13E
330
70
100
AcDbEntity
  8
Layer 1
 62
     7
370
    70
100
AcDbCircle
 10
-49.55561752628915
 20
-28.93762276378191
 30
0.0
 40
4.099999998974909
  0
LWPOLYLINE
  5
13F
330
70
100
AcDbEntity
  8
Layer 1
 62
     5
370
    35
100
AcDbPolyline
 90
        4
 70
     1
 43
0.0
 10
475.296618238667
 20
142.309903346064
 10
375.2966182636667
 20
142.309903346064
 10
375.2966182636667
 20
242.3099033210644
 10
475.296618238667
 20
242.3099033210644
  0
INSERT
  5
141
330
70
100
AcDbEntity
  8
Layer 1
100
AcDbBlockReference
  2
Block_0
 10
0.0
 20
0.0
 30
0.0
  0
ENDSEC
  0
SECTION
  2
OBJECTS
  0
DICTIONARY
  5
C
330
0
100
AcDbDictionary
281
     1
  3
ACAD_COLOR
350
63
  3
ACAD_DETAILVIEWSTYLE
350
6A
  3
ACAD_GROUP
350
D
  3
ACAD_LAYOUT
350
62
  3
ACAD_MATERIAL
350
10
  3
ACAD_MLEADERSTYLE
350
66
  3
ACAD_MLINESTYLE
350
5F
  3
ACAD_PLOTSETTINGS
350
61
  3
ACAD_PLOTSTYLENAME
350
E
  3
ACAD_SCALELIST
350
42
  3
ACAD_SECTIONVIEWSTYLE
350
68
  3
ACAD_TABLESTYLE
350
64
  3
ACAD_VISUALSTYLE
350
29
  3
ACDB_RECOMPOSE_DATA
350
183
  3
AcDbVariableDictionary
350
172
  0
DICTIONARY
  5
63
102
{ACAD_REACTORS
330
C
102
}
330
C
100
AcDbDictionary
281
     1
  0
DICTIONARY
  5
6A
102
{ACAD_REACTORS
330
C
102
}
330
C
100
AcDbDictionary
281
     1
  3
Imperial24
350
6B
  0
DICTIONARY
  5
D
102
{ACAD_REACTORS
330
C
102
}
330
C
100
AcDbDictionary
281
     1
  0
DICTIONARY
  5
62
102
{ACAD_REACTORS
330
C
102
}
330
C
100
AcDbDictionary
281
     1
  3
Layout1
350
6F
  3
Layout2
350
77
  3
Model
350
73
  0
DICTIONARY
  5
10
102
{ACAD_REACTORS
330
C
102
}
330
C
100
AcDbDictionary
281
     1
  3
ByBlock
350
19
  3
ByLayer
350
11
  3
Global
350
21
  0
DICTIONARY
  5
66
102
{ACAD_REACTORS
330
C
102
}
330
C
100
AcDbDictionary
281
     1
  3
Standard
350
67
  0
DICTIONARY
  5
5F
102
{ACAD_REACTORS
330
C
102
}
330
C
100
AcDbDictionary
281
     1
  3
Standard
350
60
  0
DICTIONARY
  5
61
102
{ACAD_REACTORS
330
C
102
}
330
C
100
AcDbDictionary
281
     1
  0
ACDBDICTIONARYWDFLT
  5
E
102
{ACAD_REACTORS
330
C
102
}
330
C
100
AcDbDictionary
281
     1
  3
Normal
350
F
100
AcDbDictionaryWithDefault
340
F
  0
DICTIONARY
  5
42
102
{ACAD_REACTORS
330
C
102
}
330
C
100
AcDbDictionary
281
     1
  3
A0
350
43
  3
A1
350
44
  3
A2
350
45
  3
A3
350
46
  3
A4
350
47
  3
A5
350
48
  3
A6
350
49
  3
A7
350
4A
  3
A8
350
4B
  3
A9
350
4C
  3
B0
350
4D
  3
B1
350
4E
  3
B2
350
4F
  3
B3
350
50
  3
B4
350
51
  3
B5
350
52
  3
B6
350
53
  0
DICTIONARY
  5
68
102
{ACAD_REACTORS
330
C
102
}
330
C
100
AcDbDictionary
281
     1
  3
Imperial24
350
69
  0
DICTIONARY
  5
64
102
{ACAD_REACTORS
330
C
102
}
330
C
100
AcDbDictionary
281
     1
  3
Standard
350
65
  0
DICTIONARY
  5
29
102
{ACAD_REACTORS
330
C
102
}
330
C
100
AcDbDictionary
281
     1
  3
2dWireframe
350
2F
  3
Basic
350
2E
  3
Brighten
350
35
  3
ColorChange
350
39
  3
Conceptual
350
32
  3
Dim
350
34
  3
EdgeColorOff
350
41
  3
Facepattern
350
38
  3
Flat
350
2A
  3
FlatWithEdges
350
2B
  3
Gouraud
350
2C
  3
GouraudWithEdges
350
2D
  3
Hidden
350
31
  3
JitterOff
350
3F
  3
Linepattern
350
37
  3
OverhangOff
350
40
  3
Realistic
350
33
  3
Shaded
350
3E
  3
Shaded with edges
350
3D
  3
Shades of Gray
350
3A
  3
Sketchy
350
3B
  3
Thicken
350
36
  3
Wireframe
350
30
  3
X-Ray
350
3C
  0
XRECORD
  5
183
102
{ACAD_REACTORS
330
C
102
}
330
C
100
AcDbXrecord
280
     1
 90
        1
330
65
  0
DICTIONARY
  5
172
102
{ACAD_REACTORS
330
C
102
}
330
C
100
AcDbDictionary
281
     1
  3
CANNOSCALE
350
178
  3
CMLEADERSTYLE
350
174
  3
CTABLESTYLE
350
173
  3
CVIEWDETAILSTYLE
350
175
  3
CVIEWSECTIONSTYLE
350
176
  3
DIMASSOC
350
17F
  3
HIDETEXT
350
17E
  3
INDEXCTL
350
17D
  3
LAYEREVAL
350
17A
  3
LAYERNOTIFY
350
17B
  3
LIGHTINGUNITS
350
179
  3
MSLTSCALE
350
177
  3
SORTENTS
350
17C
  3
XCLIPFRAME
350
180
  0
ACDBDETAILVIEWSTYLE
  5
6B
102
{ACAD_XDICTIONARY
360
1BD
102
}
102
{ACAD_REACTORS
330
6A
102
}
330
6A
100
AcDbModelDocViewStyle
 70
     0
  3
Imperial24
290
     0
100
AcDbDetailViewStyle
 70
     0
 71
     0
 90
        3
 71
     1
340
55
 40
0.24
340
0
 40
0.24
300

 40
0.36
280
     3
 71
     2
340
5D
 90
       25
 71
     3
340
55
 40
0.24
 90
        1
 40
0.75
 90
        1
300
%<\AcVar ViewType \f "%tc1">% %<\AcVar ViewDetailId>%\PSCALE %<\AcVar ViewScale \f "%sn">%
 71
     4
340
5D
 90
       25
340
5D
 90
       25
280
     0
  0
LAYOUT
  5
6F
102
{ACAD_XDICTIONARY
360
1BF
102
}
102
{ACAD_REACTORS
330
62
102
}
330
62
100
AcDbPlotSettings
  1

  2

  4

  6

 40
0.0
 41
0.0
 42
0.0
 43
0.0
 44
0.0
 45
0.0
 46
0.0
 47
0.0
 48
0.0
 49
0.0
140
0.0
141
0.0
142
1.0
143
1.0
 70
   688
 72
     0
 73
     0
 74
     5
  7

 75
    16
147
1.0
148
0.0
149
0.0
100
AcDbLayout
  1
Layout1
 70
     1
 71
     1
 10
0.0
 20
0.0
 11
12.0
 21
9.0
 12
0.0
 22
0.0
 32
0.0
 14
0.0
 24
0.0
 34
0.0
 15
0.0
 25
0.0
 35
0.0
146
0.0
 13
0.0
 23
0.0
 33
0.0
 16
1.0
 26
0.0
 36
0.0
 17
0.0
 27
1.0
 37
0.0
 76
     0
330
6C
  0
LAYOUT
  5
77
102
{ACAD_XDICTIONARY
360
1C3
102
}
102
{ACAD_REACTORS
330
62
102
}
330
62
100
AcDbPlotSettings
  1

  2

  4

  6

 40
0.0
 41
0.0
 42
0.0
 43
0.0
 44
0.0
 45
0.0
 46
0.0
 47
0.0
 48
0.0
 49
0.0
140
0.0
141
0.0
142
1.0
143
1.0
 70
   688
 72
     0
 73
     0
 74
     5
  7

 75
    16
147
1.0
148
0.0
149
0.0
100
AcDbLayout
  1
Layout2
 70
     1
 71
     2
 10
0.0
 20
0.0
 11
12.0
 21
9.0
 12
0.0
 22
0.0
 32
0.0
 14
0.0
 24
0.0
 34
0.0
 15
0.0
 25
0.0
 35
0.0
146
0.0
 13
0.0
 23
0.0
 33
0.0
 16
1.0
 26
0.0
 36
0.0
 17
0.0
 27
1.0
 37
0.0
 76
     0
330
74
  0
LAYOUT
  5
73
102
{ACAD_XDICTIONARY
360
1C1
102
}
102
{ACAD_REACTORS
330
62
102
}
330
62
100
AcDbPlotSettings
  1

  2

  4

  6

 40
0.0
 41
0.0
 42
0.0
 43
0.0
 44
0.0
 45
0.0
 46
0.0
 47
0.0
 48
0.0
 49
0.0
140
0.0
141
0.0
142
1.0
143
1.0
 70
  1712
 72
     0
 73
     0
 74
     0
  7

 75
     0
147
1.0
148
0.0
149
0.0
100
AcDbLayout
  1
Model
 70
     1
 71
     0
 10
0.0
 20
0.0
 11
12.0
 21
9.0
 12
0.0
 22
0.0
 32
0.0
 14
0.0
 24
0.0
 34
0.0
 15
0.0
 25
0.0
 35
0.0
146
0.0
 13
0.0
 23
0.0
 33
0.0
 16
1.0
 26
0.0
 36
0.0
 17
0.0
 27
1.0
 37
0.0
 76
     0
330
70
  0
MATERIAL
  5
19
102
{ACAD_XDICTIONARY
360
1A
102
}
102
{ACAD_REACTORS
330
10
102
}
330
10
100
AcDbMaterial
  1
ByBlock
 72
     0
 43
0.0208333333333333
 43
0.0
 43
0.0
 43
0.0
 43
0.0
 43
0.0208333333333333
 43
0.0
 43
0.0
 43
0.0
 43
0.0
 43
1.0
 43
0.0
 43
0.0
 43
0.0
 43
0.0
 43
1.0
 77
     0
 47
0.0208333333333333
 47
0.0
 47
0.0
 47
0.0
 47
0.0
 47
0.0208333333333333
 47
0.0
 47
0.0
 47
0.0
 47
0.0
 47
1.0
 47
0.0
 47
0.0
 47
0.0
 47
0.0
 47
1.0
171
     0
 49
0.0208333333333333
 49
0.0
 49
0.0
 49
0.0
 49
0.0
 49
0.0208333333333333
 49
0.0
 49
0.0
 49
0.0
 49
0.0
 49
1.0
 49
0.0
 49
0.0
 49
0.0
 49
0.0
 49
1.0
175
     0
142
0.0208333333333333
142
0.0
142
0.0
142
0.0
142
0.0
142
0.0208333333333333
142
0.0
142
0.0
142
0.0
142
0.0
142
1.0
142
0.0
142
0.0
142
0.0
142
0.0
142
1.0
179
     0
144
0.0208333333333333
144
0.0
144
0.0
144
0.0
144
0.0
144
0.0208333333333333
144
0.0
144
0.0
144
0.0
144
0.0
144
1.0
144
0.0
144
0.0
144
0.0
144
0.0
144
1.0
147
0.0208333333333333
147
0.0
147
0.0
147
0.0
147
0.0
147
0.0208333333333333
147
0.0
147
0.0
147
0.0
147
0.0
147
1.0
147
0.0
147
0.0
147
0.0
147
0.0
147
1.0
  0
MATERIAL
  5
11
102
{ACAD_XDICTIONARY
360
12
102
}
102
{ACAD_REACTORS
330
10
102
}
330
10
100
AcDbMaterial
  1
ByLayer
 72
     0
 43
0.0208333333333333
 43
0.0
 43
0.0
 43
0.0
 43
0.0
 43
0.0208333333333333
 43
0.0
 43
0.0
 43
0.0
 43
0.0
 43
1.0
 43
0.0
 43
0.0
 43
0.0
 43
0.0
 43
1.0
 77
     0
 47
0.0208333333333333
 47
0.0
 47
0.0
 47
0.0
 47
0.0
 47
0.0208333333333333
 47
0.0
 47
0.0
 47
0.0
 47
0.0
 47
1.0
 47
0.0
 47
0.0
 47
0.0
 47
0.0
 47
1.0
171
     0
 49
0.0208333333333333
 49
0.0
 49
0.0
 49
0.0
 49
0.0
 49
0.0208333333333333
 49
0.0
 49
0.0
 49
0.0
 49
0.0
 49
1.0
 49
0.0
 49
0.0
 49
0.0
 49
0.0
 49
1.0
175
     0
142
0.0208333333333333
142
0.0
142
0.0
142
0.0
142
0.0
142
0.0208333333333333
142
0.0
142
0.0
142
0.0
142
0.0
142
1.0
142
0.0
142
0.0
142
0.0
142
0.0
142
1.0
179
     0
144
0.0208333333333333
144
0.0
144
0.0
144
0.0
144
0.0
144
0.0208333333333333
144
0.0
144
0.0
144
0.0
144
0.0
144
1.0
144
0.0
144
0.0
144
0.0
144
0.0
144
1.0
147
0.0208333333333333
147
0.0
147
0.0
147
0.0
147
0.0
147
0.0208333333333333
147
0.0
147
0.0
147
0.0
147
0.0
147
1.0
147
0.0
147
0.0
147
0.0
147
0.0
147
1.0
  0
MATERIAL
  5
21
102
{ACAD_XDICTIONARY
360
22
102
}
102
{ACAD_REACTORS
330
10
102
}
330
10
100
AcDbMaterial
  1
Global
 72
     0
 43
0.0208333333333333
 43
0.0
 43
0.0
 43
0.0
 43
0.0
 43
0.0208333333333333
 43
0.0
 43
0.0
 43
0.0
 43
0.0
 43
1.0
 43
0.0
 43
0.0
 43
0.0
 43
0.0
 43
1.0
 77
     0
 47
0.0208333333333333
 47
0.0
 47
0.0
 47
0.0
 47
0.0
 47
0.0208333333333333
 47
0.0
 47
0.0
 47
0.0
 47
0.0
 47
1.0
 47
0.0
 47
0.0
 47
0.0
 47
0.0
 47
1.0
171
     0
 49
0.0208333333333333
 49
0.0
 49
0.0
 49
0.0
 49
0.0
 49
0.0208333333333333
 49
0.0
 49
0.0
 49
0.0
 49
0.0
 49
1.0
 49
0.0
 49
0.0
 49
0.0
 49
0.0
 49
1.0
175
     0
142
0.0208333333333333
142
0.0
142
0.0
142
0.0
142
0.0
142
0.0208333333333333
142
0.0
142
0.0
142
0.0
142
0.0
142
1.0
142
0.0
142
0.0
142
0.0
142
0.0
142
1.0
179
     0
144
0.0208333333333333
144
0.0
144
0.0
144
0.0
144
0.0
144
0.0208333333333333
144
0.0
144
0.0
144
0.0
144
0.0
144
1.0
144
0.0
144
0.0
144
0.0
144
0.0
144
1.0
147
0.0208333333333333
147
0.0
147
0.0
147
0.0
147
0.0
147
0.0208333333333333
147
0.0
147
0.0
147
0.0
147
0.0
147
1.0
147
0.0
147
0.0
147
0.0
147
0.0
147
1.0
  0
MLEADERSTYLE
  5
67
102
{ACAD_XDICTIONARY
360
1B9
102
}
102
{ACAD_REACTORS
330
66
102
}
330
66
100
AcDbMLeaderStyle
170
     2
171
     1
172
     0
 90
        2
 40
0.0
 41
0.0
173
     1
 91
-1056964608
340
5B
 92
       -2
290
     1
 42
0.09
291
     1
 43
0.36
  3
Standard
 44
0.18
300

342
55
174
     1
178
     6
175
     1
176
     0
 93
-1056964608
 45
0.18
292
     0
297
     0
 46
0.18
 94
-1056964608
 47
1.0
 49
1.0
140
1.0
293
     1
141
0.0
294
     1
177
     0
142
1.0
295
     0
296
     0
143
0.125
1001
ACAD_MLEADERVER
1070
     2
  0
MLINESTYLE
  5
60
102
{ACAD_REACTORS
330
5F
102
}
330
5F
100
AcDbMlineStyle
  2
STANDARD
 70
     0
  3

 62
   256
 51
90.0
 52
90.0
 71
     2
 49
0.5
 62
   256
  6
BYLAYER
 49
-0.5
 62
   256
  6
BYLAYER
  0
ACDBPLACEHOLDER
  5
F
102
{ACAD_REACTORS
330
E
102
}
330
E
  0
SCALE
  5
43
102
{ACAD_REACTORS
330
42
102
}
330
42
100
AcDbScale
 70
     0
300
1:1
140
1.0
141
1.0
290
     1
  0
SCALE
  5
44
102
{ACAD_REACTORS
330
42
102
}
330
42
100
AcDbScale
 70
     0
300
1/128" = 1'-0"
140
0.0078125
141
12.0
290
     0
  0
SCALE
  5
45
102
{ACAD_REACTORS
330
42
102
}
330
42
100
AcDbScale
 70
     0
300
1/64" = 1'-0"
140
0.015625
141
12.0
290
     0
  0
SCALE
  5
46
102
{ACAD_REACTORS
330
42
102
}
330
42
100
AcDbScale
 70
     0
300
1/32" = 1'-0"
140
0.03125
141
12.0
290
     0
  0
SCALE
  5
47
102
{ACAD_REACTORS
330
42
102
}
330
42
100
AcDbScale
 70
     0
300
1/16" = 1'-0"
140
0.0625
141
12.0
290
     0
  0
SCALE
  5
48
102
{ACAD_REACTORS
330
42
102
}
330
42
100
AcDbScale
 70
     0
300
3/32" = 1'-0"
140
0.09375
141
12.0
290
     0
  0
SCALE
  5
49
102
{ACAD_REACTORS
330
42
102
}
330
42
100
AcDbScale
 70
     0
300
1/8" = 1'-0"
140
0.125
141
12.0
290
     0
  0
SCALE
  5
4A
102
{ACAD_REACTORS
330
42
102
}
330
42
100
AcDbScale
 70
     0
300
3/16" = 1'-0"
140
0.1875
141
12.0
290
     0
  0
SCALE
  5
4B
102
{ACAD_REACTORS
330
42
102
}
330
42
100
AcDbScale
 70
     0
300
1/4" = 1'-0"
140
0.25
141
12.0
290
     0
  0
SCALE
  5
4C
102
{ACAD_REACTORS
330
42
102
}
330
42
100
AcDbScale
 70
     0
300
3/8" = 1'-0"
140
0.375
141
12.0
290
     0
  0
SCALE
  5
4D
102
{ACAD_REACTORS
330
42
102
}
330
42
100
AcDbScale
 70
     0
300
1/2" = 1'-0"
140
0.5
141
12.0
290
     0
  0
SCALE
  5
4E
102
{ACAD_REACTORS
330
42
102
}
330
42
100
AcDbScale
 70
     0
300
3/4" = 1'-0"
140
0.75
141
12.0
290
     0
  0
SCALE
  5
4F
102
{ACAD_REACTORS
330
42
102
}
330
42
100
AcDbScale
 70
     0
300
1" = 1'-0"
140
1.0
141
12.0
290
     0
  0
SCALE
  5
50
102
{ACAD_REACTORS
330
42
102
}
330
42
100
AcDbScale
 70
     0
300
1-1/2" = 1'-0"
140
1.5
141
12.0
290
     0
  0
SCALE
  5
51
102
{ACAD_REACTORS
330
42
102
}
330
42
100
AcDbScale
 70
     0
300
3" = 1'-0"
140
3.0
141
12.0
290
     0
  0
SCALE
  5
52
102
{ACAD_REACTORS
330
42
102
}
330
42
100
AcDbScale
 70
     0
300
6" = 1'-0"
140
6.0
141
12.0
290
     0
  0
SCALE
  5
53
102
{ACAD_REACTORS
330
42
102
}
330
42
100
AcDbScale
 70
     0
300
1'-0" = 1'-0"
140
12.0
141
12.0
290
     0
  0
ACDBSECTIONVIEWSTYLE
  5
69
102
{ACAD_XDICTIONARY
360
1BB
102
}
102
{ACAD_REACTORS
330
68
102
}
330
68
100
AcDbModelDocViewStyle
 70
     0
  3
Imperial24
290
     0
100
AcDbSectionViewStyle
 70
     0
 71
     0
 90
       78
 71
     1
340
55
 40
0.24
340
0
340
0
 40
0.24
300
I, O, Q, S, X, Z
 40
0.48
 90
        3
 40
0.18
 90
        1
 71
     2
340
5D
 90
       25
340
5D
 90
       50
 40
0.24
 40
0.0
 40
0.24
 71
     3
340
55
 40
0.24
 90
        1
 40
0.75
 90
        1
300
%<\AcVar ViewType \f "%tc1">% %<\AcVar ViewSectionStartId>%-%<\AcVar ViewSectionEndId>%\PSCALE %<\AcVar ViewScale \f "%sn">%
 71
     4
300
ANSI31
 40
1.0
 90
        0
290
     0
290
     0
 90
        6
 40
0.0
 40
1.570796326794896
 40
0.2617993877991494
 40
1.308996938995747
 40
-0.2617993877991494
 40
1.832595714594046
  0
TABLESTYLE
  5
65
102
{ACAD_XDICTIONARY
360
181
102
}
102
{ACAD_REACTORS
330
64
102
}
330
64
100
AcDbTableStyle
  3
Standard
 70
     0
 71
     0
 40
0.06
 41
0.06
280
     0
281
     0
  7
Standard
140
0.18
170
     2
 62
     0
 63
     7
283
     0
274
    -2
284
     1
 64
     0
275
    -2
285
     1
 65
     0
276
    -2
286
     1
 66
     0
277
    -2
287
     1
 67
     0
278
    -2
288
     1
 68
     0
279
    -2
289
     1
 69
     0
  7
Standard
140
0.25
170
     5
 62
     0
 63
     7
283
     0
274
    -2
284
     1
 64
     0
275
    -2
285
     1
 65
     0
276
    -2
286
     1
 66
     0
277
    -2
287
     1
 67
     0
278
    -2
288
     1
 68
     0
279
    -2
289
     1
 69
     0
  7
Standard
140
0.18
170
     5
 62
     0
 63
     7
283
     0
274
    -2
284
     1
 64
     0
275
    -2
285
     1
 65
     0
276
    -2
286
     1
 66
     0
277
    -2
287
     1
 67
     0
278
    -2
288
     1
 68
     0
279
    -2
289
     1
 69
     0
  0
VISUALSTYLE
  5
2F
102
{ACAD_XDICTIONARY
360
191
102
}
102
{ACAD_REACTORS
330
29
102
}
330
29
100
AcDbVisualStyle
  2
2dWireframe
 70
     4
 71
     0
 72
     2
 73
     0
 90
        0
 40
-0.6
 41
-30.0
 62
     5
 63
     7
 74
     1
 91
        4
 64
     7
 65
   257
 75
     1
175
     1
 42
1.0
 92
        0
 66
   257
 43
1.0
 76
     1
 77
     6
 78
     2
 67
     7
 79
     5
170
     0
171
     0
290
     0
174
     0
 93
        1
 44
0.0
173
     0
291
     0
 45
0.0
1001
ACAD
1000
AcDbSavedByObjectVersion
1070
     0
  0
VISUALSTYLE
  5
2E
102
{ACAD_XDICTIONARY
360
18F
102
}
102
{ACAD_REACTORS
330
29
102
}
330
29
100
AcDbVisualStyle
  2
Basic
 70
     7
 71
     1
 72
     0
 73
     1
 90
        0
 40
-0.6
 41
-30.0
 62
     5
 63
     7
 74
     0
 91
        4
 64
     7
 65
   257
 75
     1
175
     1
 42
1.0
 92
        8
 66
     7
 43
1.0
 76
     1
 77
     6
 78
     2
 67
     7
 79
     5
170
     0
171
     0
290
     0
174
     0
 93
        1
 44
0.0
173
     0
291
     1
 45
0.0
1001
ACAD
1000
AcDbSavedByObjectVersion
1070
     0
  0
VISUALSTYLE
  5
35
102
{ACAD_XDICTIONARY
360
19D
102
}
102
{ACAD_REACTORS
330
29
102
}
330
29
100
AcDbVisualStyle
  2
Brighten
 70
    12
 71
     2
 72
     2
 73
     0
 90
        0
 40
-0.6
 41
-30.0
 62
     5
 63
     7
 74
     1
 91
        4
 64
     7
 65
   257
 75
     1
175
     1
 42
1.0
 92
        8
 66
     7
 43
1.0
 76
     1
 77
     6
 78
     2
 67
     7
 79
     5
170
     0
171
     0
290
     0
174
     0
 93
        1
 44
50.0
173
     0
291
     1
 45
0.0
1001
ACAD
1000
AcDbSavedByObjectVersion
1070
     0
  0
VISUALSTYLE
  5
39
102
{ACAD_XDICTIONARY
360
1A5
102
}
102
{ACAD_REACTORS
330
29
102
}
330
29
100
AcDbVisualStyle
  2
ColorChange
 70
    16
 71
     2
 72
     2
 73
     3
 90
        0
 40
-0.6
 41
-30.0
 62
     5
 63
     8
 74
     1
 91
        4
 64
     7
 65
   257
 75
     1
175
     1
 42
1.0
 92
        8
 66
     8
 43
1.0
 76
     1
 77
     6
 78
     2
 67
     7
 79
     5
170
     0
171
     0
290
     0
174
     0
 93
        1
 44
0.0
173
     0
291
     1
 45
0.0
1001
ACAD
1000
AcDbSavedByObjectVersion
1070
     0
  0
VISUALSTYLE
  5
32
102
{ACAD_XDICTIONARY
360
197
102
}
102
{ACAD_REACTORS
330
29
102
}
330
29
100
AcDbVisualStyle
  2
Conceptual
 70
     9
 71
     3
 72
     2
 73
     0
 90
        0
 40
-0.6
 41
-30.0
 62
     5
 63
     7
 74
     2
 91
        2
 64
     7
 65
   257
 75
     1
175
     1
 42
179.0
 92
        8
 66
     7
 43
1.0
 76
     1
 77
     6
 78
     2
 67
     7
 79
     3
170
     0
171
     0
290
     0
174
     0
 93
        1
 44
0.0
173
     0
291
     0
 45
0.0
1001
ACAD
1000
AcDbSavedByObjectVersion
1070
     0
  0
VISUALSTYLE
  5
34
102
{ACAD_XDICTIONARY
360
19B
102
}
102
{ACAD_REACTORS
330
29
102
}
330
29
100
AcDbVisualStyle
  2
Dim
 70
    11
 71
     2
 72
     2
 73
     0
 90
        0
 40
-0.6
 41
-30.0
 62
     5
 63
     7
 74
     1
 91
        4
 64
     7
 65
   257
 75
     1
175
     1
 42
1.0
 92
        8
 66
     7
 43
1.0
 76
     1
 77
     6
 78
     2
 67
     7
 79
     5
170
     0
171
     0
290
     0
174
     0
 93
        1
 44
-50.0
173
     0
291
     1
 45
0.0
1001
ACAD
1000
AcDbSavedByObjectVersion
1070
     0
  0
VISUALSTYLE
  5
41
102
{ACAD_XDICTIONARY
360
1B5
102
}
102
{ACAD_REACTORS
330
29
102
}
330
29
100
AcDbVisualStyle
  2
EdgeColorOff
 70
    22
 71
     2
 72
     2
 73
     0
 90
        0
 40
-0.6
 41
-30.0
 62
     5
 63
     7
 74
     1
 91
        4
 64
     7
 65
   257
 75
     1
175
     1
 42
1.0
 92
        8
 66
     7
 43
1.0
 76
     1
 77
     6
 78
     2
 67
     7
 79
     5
170
     0
171
     0
290
     0
174
     0
 93
        1
 44
0.0
173
     0
291
     1
 45
0.0
1001
ACAD
1000
AcDbSavedByObjectVersion
1070
     0
  0
VISUALSTYLE
  5
38
102
{ACAD_XDICTIONARY
360
1A3
102
}
102
{ACAD_REACTORS
330
29
102
}
330
29
100
AcDbVisualStyle
  2
Facepattern
 70
    15
 71
     2
 72
     2
 73
     0
 90
        0
 40
-0.6
 41
-30.0
 62
     5
 63
     7
 74
     1
 91
        4
 64
     7
 65
   257
 75
     1
175
     1
 42
1.0
 92
        8
 66
     7
 43
1.0
 76
     1
 77
     6
 78
     2
 67
     7
 79
     5
170
     0
171
     0
290
     0
174
     0
 93
        1
 44
0.0
173
     0
291
     1
 45
0.0
1001
ACAD
1000
AcDbSavedByObjectVersion
1070
     0
  0
VISUALSTYLE
  5
2A
102
{ACAD_XDICTIONARY
360
187
102
}
102
{ACAD_REACTORS
330
29
102
}
330
29
100
AcDbVisualStyle
  2
Flat
 70
     0
 71
     2
 72
     1
 73
     1
 90
        2
 40
-0.6
 41
30.0
 62
     5
 63
     7
 74
     0
 91
        0
 64
     7
 65
   257
 75
     1
175
     1
 42
1.0
 92
        8
 66
     7
 43
1.0
 76
     1
 77
     6
 78
     2
 67
     7
 79
     5
170
     0
171
     0
290
     0
174
     0
 93
       13
 44
0.0
173
     0
291
     1
 45
0.0
1001
ACAD
1000
AcDbSavedByObjectVersion
1070
     0
  0
VISUALSTYLE
  5
2B
102
{ACAD_XDICTIONARY
360
189
102
}
102
{ACAD_REACTORS
330
29
102
}
330
29
100
AcDbVisualStyle
  2
FlatWithEdges
 70
     1
 71
     2
 72
     1
 73
     1
 90
        2
 40
-0.6
 41
30.0
 62
     5
 63
     7
 74
     1
 91
        0
 64
     7
 65
   257
 75
     1
175
     1
 42
1.0
 92
        0
 66
   257
 43
1.0
 76
     1
 77
     6
 78
     2
 67
     7
 79
     5
170
     0
171
     0
290
     0
174
     0
 93
       13
 44
0.0
173
     0
291
     1
 45
0.0
1001
ACAD
1000
AcDbSavedByObjectVersion
1070
     0
  0
VISUALSTYLE
  5
2C
102
{ACAD_XDICTIONARY
360
18B
102
}
102
{ACAD_REACTORS
330
29
102
}
330
29
100
AcDbVisualStyle
  2
Gouraud
 70
     2
 71
     2
 72
     2
 73
     1
 90
        2
 40
-0.6
 41
30.0
 62
     5
 63
     7
 74
     0
 91
        0
 64
     7
 65
   257
 75
     1
175
     1
 42
1.0
 92
        0
 66
     7
 43
1.0
 76
     1
 77
     6
 78
     2
 67
     7
 79
     5
170
     0
171
     0
290
     0
174
     0
 93
       13
 44
0.0
173
     0
291
     1
 45
0.0
1001
ACAD
1000
AcDbSavedByObjectVersion
1070
     0
  0
VISUALSTYLE
  5
2D
102
{ACAD_XDICTIONARY
360
18D
102
}
102
{ACAD_REACTORS
330
29
102
}
330
29
100
AcDbVisualStyle
  2
GouraudWithEdges
 70
     3
 71
     2
 72
     2
 73
     1
 90
        2
 40
-0.6
 41
30.0
 62
     5
 63
     7
 74
     1
 91
        0
 64
     7
 65
   257
 75
     1
175
     1
 42
1.0
 92
        0
 66
   257
 43
1.0
 76
     1
 77
     6
 78
     2
 67
     7
 79
     5
170
     0
171
     0
290
     0
174
     0
 93
       13
 44
0.0
173
     0
291
     1
 45
0.0
1001
ACAD
1000
AcDbSavedByObjectVersion
1070
     0
  0
VISUALSTYLE
  5
31
102
{ACAD_XDICTIONARY
360
195
102
}
102
{ACAD_REACTORS
330
29
102
}
330
29
100
AcDbVisualStyle
  2
Hidden
 70
     6
 71
     1
 72
     2
 73
     2
 90
        0
 40
-0.6
 41
-30.0
 62
     5
 63
     7
 74
     2
 91
        2
 64
     7
 65
   257
 75
     2
175
     1
 42
40.0
 92
        0
 66
   257
 43
1.0
 76
     1
 77
     6
 78
     2
 67
     7
 79
     3
170
     0
171
     0
290
     0
174
     0
 93
        1
 44
0.0
173
     0
291
     0
 45
0.0
1001
ACAD
1000
AcDbSavedByObjectVersion
1070
     0
  0
VISUALSTYLE
  5
3F
102
{ACAD_XDICTIONARY
360
1B1
102
}
102
{ACAD_REACTORS
330
29
102
}
330
29
100
AcDbVisualStyle
  2
JitterOff
 70
    20
 71
     2
 72
     2
 73
     0
 90
        0
 40
-0.6
 41
-30.0
 62
     5
 63
     7
 74
     1
 91
        4
 64
     7
 65
   257
 75
     1
175
     1
 42
1.0
 92
       10
 66
     7
 43
1.0
 76
     1
 77
     6
 78
     2
 67
     7
 79
     5
170
     0
171
     0
290
     0
174
     0
 93
        1
 44
0.0
173
     0
291
     1
 45
0.0
1001
ACAD
1000
AcDbSavedByObjectVersion
1070
     0
  0
VISUALSTYLE
  5
37
102
{ACAD_XDICTIONARY
360
1A1
102
}
102
{ACAD_REACTORS
330
29
102
}
330
29
100
AcDbVisualStyle
  2
Linepattern
 70
    14
 71
     2
 72
     2
 73
     0
 90
        0
 40
-0.6
 41
-30.0
 62
     5
 63
     7
 74
     1
 91
        4
 64
     7
 65
   257
 75
     7
175
     7
 42
1.0
 92
        8
 66
     7
 43
1.0
 76
     1
 77
     6
 78
     2
 67
     7
 79
     5
170
     0
171
     0
290
     0
174
     0
 93
        1
 44
0.0
173
     0
291
     1
 45
0.0
1001
ACAD
1000
AcDbSavedByObjectVersion
1070
     0
  0
VISUALSTYLE
  5
40
102
{ACAD_XDICTIONARY
360
1B3
102
}
102
{ACAD_REACTORS
330
29
102
}
330
29
100
AcDbVisualStyle
  2
OverhangOff
 70
    21
 71
     2
 72
     2
 73
     0
 90
        0
 40
-0.6
 41
-30.0
 62
     5
 63
     7
 74
     1
 91
        4
 64
     7
 65
   257
 75
     1
175
     1
 42
1.0
 92
        9
 66
     7
 43
1.0
 76
     1
 77
     6
 78
     2
 67
     7
 79
     5
170
     0
171
     0
290
     0
174
     0
 93
        1
 44
0.0
173
     0
291
     1
 45
0.0
1001
ACAD
1000
AcDbSavedByObjectVersion
1070
     0
  0
VISUALSTYLE
  5
33
102
{ACAD_XDICTIONARY
360
199
102
}
102
{ACAD_REACTORS
330
29
102
}
330
29
100
AcDbVisualStyle
  2
Realistic
 70
     8
 71
     2
 72
     3
 73
     0
 90
        2
 40
-0.6
 41
30.0
 62
     5
 63
     7
 74
     0
 91
        0
 64
     7
 65
   257
 75
     1
175
     1
 42
1.0
 92
        8
 66
   257
 43
1.0
 76
     1
 77
     6
 78
     2
 67
     7
 79
     3
170
     0
171
     0
290
     0
174
     0
 93
       13
 44
0.0
173
     0
291
     0
 45
0.0
1001
ACAD
1000
AcDbSavedByObjectVersion
1070
     0
  0
VISUALSTYLE
  5
3E
102
{ACAD_XDICTIONARY
360
1AF
102
}
102
{ACAD_REACTORS
330
29
102
}
330
29
100
AcDbVisualStyle
  2
Shaded
 70
    27
 71
     2
 72
     2
 73
     1
 90
        2
 40
-0.6
 41
30.0
 62
     5
 63
     7
 74
     0
 91
        4
 64
     7
 65
   257
 75
     1
175
     1
 42
1.0
 92
        8
 66
   257
 43
1.0
 76
     1
 77
     6
 78
     2
 67
     8
 79
     3
170
     0
171
     0
290
     0
174
     0
 93
        5
 44
0.0
173
     0
291
     0
 45
0.0
1001
ACAD
1000
AcDbSavedByObjectVersion
1070
     0
  0
VISUALSTYLE
  5
3D
102
{ACAD_XDICTIONARY
360
1AD
102
}
102
{ACAD_REACTORS
330
29
102
}
330
29
100
AcDbVisualStyle
  2
Shaded with edges
 70
    26
 71
     2
 72
     2
 73
     1
 90
        2
 40
-0.6
 41
30.0
 62
     5
 63
     7
 74
     1
 91
        2
 64
     7
 65
   257
 75
     2
175
     1
 42
1.0
 92
        8
 66
   257
 43
1.0
 76
     1
 77
     6
 78
     2
 67
     7
 79
     3
170
     0
171
     0
290
     0
174
     0
 93
        5
 44
0.0
173
     0
291
     0
 45
0.0
1001
ACAD
1000
AcDbSavedByObjectVersion
1070
     0
  0
VISUALSTYLE
  5
3A
102
{ACAD_XDICTIONARY
360
1A7
102
}
102
{ACAD_REACTORS
330
29
102
}
330
29
100
AcDbVisualStyle
  2
Shades of Gray
 70
    23
 71
     2
 72
     2
 73
     3
 90
        0
 40
-0.6
 41
-30.0
 62
     5
 63
     7
 74
     2
 91
        2
 64
     7
 65
     7
 75
     1
175
     1
 42
40.0
 92
        8
 66
     7
 43
1.0
 76
     1
 77
     6
 78
     2
 67
     7
 79
     3
170
     0
171
     0
290
     0
174
     0
 93
        1
 44
0.0
173
     0
291
     0
 45
0.0
1001
ACAD
1000
AcDbSavedByObjectVersion
1070
     0
  0
VISUALSTYLE
  5
3B
102
{ACAD_XDICTIONARY
360
1A9
102
}
102
{ACAD_REACTORS
330
29
102
}
330
29
100
AcDbVisualStyle
  2
Sketchy
 70
    24
 71
     1
 72
     2
 73
     2
 90
        0
 40
-0.6
 41
-30.0
 62
     5
 63
     7
 74
     2
 91
        2
 64
     7
 65
     7
 75
     1
175
     1
 42
40.0
 92
       11
 66
     7
 43
1.0
 76
     1
 77
     6
 78
     2
 67
     7
 79
     6
170
     0
171
     0
290
     0
174
     0
 93
        1
 44
0.0
173
     0
291
     0
 45
0.0
1001
ACAD
1000
AcDbSavedByObjectVersion
1070
     0
  0
VISUALSTYLE
  5
36
102
{ACAD_XDICTIONARY
360
19F
102
}
102
{ACAD_REACTORS
330
29
102
}
330
29
100
AcDbVisualStyle
  2
Thicken
 70
    13
 71
     2
 72
     2
 73
     0
 90
        0
 40
-0.6
 41
-30.0
 62
     5
 63
     7
 74
     1
 91
        4
 64
     7
 65
   257
 75
     1
175
     1
 42
1.0
 92
       12
 66
     7
 43
1.0
 76
     1
 77
     6
 78
     2
 67
     7
 79
     5
170
     0
171
     0
290
     0
174
     0
 93
        1
 44
0.0
173
     0
291
     1
 45
0.0
1001
ACAD
1000
AcDbSavedByObjectVersion
1070
     0
  0
VISUALSTYLE
  5
30
102
{ACAD_XDICTIONARY
360
193
102
}
102
{ACAD_REACTORS
330
29
102
}
330
29
100
AcDbVisualStyle
  2
Wireframe
 70
     5
 71
     0
 72
     2
 73
     0
 90
        0
 40
-0.6
 41
-30.0
 62
     5
 63
     7
 74
     1
 91
        4
 64
     7
 65
   257
 75
     1
175
     1
 42
1.0
 92
        0
 66
   257
 43
1.0
 76
     1
 77
     6
 78
     2
 67
     7
 79
     3
170
     0
171
     0
290
     0
174
     0
 93
        1
 44
0.0
173
     0
291
     0
 45
0.0
1001
ACAD
1000
AcDbSavedByObjectVersion
1070
     0
  0
VISUALSTYLE
  5
3C
102
{ACAD_XDICTIONARY
360
1AB
102
}
102
{ACAD_REACTORS
330
29
102
}
330
29
100
AcDbVisualStyle
  2
X-Ray
 70
    25
 71
     2
 72
     2
 73
     1
 90
        1
 40
0.5
 41
-30.0
 62
     5
 63
     7
 74
     1
 91
        0
 64
     7
 65
   257
 75
     1
175
     1
 42
1.0
 92
        8
 66
     7
 43
1.0
 76
     1
 77
     6
 78
     2
 67
     7
 79
     3
170
     0
171
     0
290
     0
174
     0
 93
       13
 44
0.0
173
     0
291
     0
 45
0.0
1001
ACAD
1000
AcDbSavedByObjectVersion
1070
     0
  0
DICTIONARYVAR
  5
178
102
{ACAD_REACTORS
330
172
102
}
330
172
100
DictionaryVariables
280
     0
  1
1:1
  0
DICTIONARYVAR
  5
174
102
{ACAD_REACTORS
330
172
102
}
330
172
100
DictionaryVariables
280
     0
  1
STANDARD
  0
DICTIONARYVAR
  5
173
102
{ACAD_REACTORS
330
172
102
}
330
172
100
DictionaryVariables
280
     0
  1
STANDARD
  0
DICTIONARYVAR
  5
175
102
{ACAD_REACTORS
330
172
102
}
330
172
100
DictionaryVariables
280
     0
  1
Imperial24
  0
DICTIONARYVAR
  5
176
102
{ACAD_REACTORS
330
172
102
}
330
172
100
DictionaryVariables
280
     0
  1
Imperial24
  0
DICTIONARYVAR
  5
17F
102
{ACAD_REACTORS
330
172
102
}
330
172
100
DictionaryVariables
280
     0
  1
2
  0
DICTIONARYVAR
  5
17E
102
{ACAD_REACTORS
330
172
102
}
330
172
100
DictionaryVariables
280
     0
  1
1
  0
DICTIONARYVAR
  5
17D
102
{ACAD_REACTORS
330
172
102
}
330
172
100
DictionaryVariables
280
     0
  1
0
  0
DICTIONARYVAR
  5
17A
102
{ACAD_REACTORS
330
172
102
}
330
172
100
DictionaryVariables
280
     0
  1
0
  0
DICTIONARYVAR
  5
17B
102
{ACAD_REACTORS
330
172
102
}
330
172
100
DictionaryVariables
280
     0
  1
0
  0
DICTIONARYVAR
  5
179
102
{ACAD_REACTORS
330
172
102
}
330
172
100
DictionaryVariables
280
     0
  1
2
  0
DICTIONARYVAR
  5
177
102
{ACAD_REACTORS
330
172
102
}
330
172
100
DictionaryVariables
280
     0
  1
1
  0
DICTIONARYVAR
  5
17C
102
{ACAD_REACTORS
330
172
102
}
330
172
100
DictionaryVariables
280
     0
  1
127
  0
DICTIONARYVAR
  5
180
102
{ACAD_REACTORS
330
172
102
}
330
172
100
DictionaryVariables
280
     0
  1
2
  0
DICTIONARY
  5
1BD
330
6B
100
AcDbDictionary
280
     1
281
     1
  3
ACAD_XREC_ROUNDTRIP
360
1BE
  0
DICTIONARY
  5
1BF
330
6F
100
AcDbDictionary
280
     1
281
     1
  3
ACAD_XREC_ROUNDTRIP
360
1C0
  0
DICTIONARY
  5
1C3
330
77
100
AcDbDictionary
280
     1
281
     1
  3
ACAD_XREC_ROUNDTRIP
360
1C4
  0
DICTIONARY
  5
1C1
330
73
100
AcDbDictionary
280
     1
281
     1
  3
ACAD_XREC_ROUNDTRIP
360
1C2
  0
DICTIONARY
  5
1A
330
19
100
AcDbDictionary
280
     1
281
     1
  3
ACAD_XREC_ROUNDTRIP
360
185
  3
BUMPTILE
360
1C
  3
DIFFUSETILE
360
1B
  3
OPACITYTILE
360
1F
  3
REFLECTIONTILE
360
1E
  3
REFRACTIONTILE
360
20
  3
SPECULARTILE
360
1D
  0
DICTIONARY
  5
12
330
11
100
AcDbDictionary
280
     1
281
     1
  3
ACAD_XREC_ROUNDTRIP
360
184
  3
BUMPTILE
360
14
  3
DIFFUSETILE
360
13
  3
OPACITYTILE
360
17
  3
REFLECTIONTILE
360
16
  3
REFRACTIONTILE
360
18
  3
SPECULARTILE
360
15
  0
DICTIONARY
  5
22
330
21
100
AcDbDictionary
280
     1
281
     1
  3
ACAD_XREC_ROUNDTRIP
360
186
  3
BUMPTILE
360
24
  3
DIFFUSETILE
360
23
  3
OPACITYTILE
360
27
  3
REFLECTIONTILE
360
26
  3
REFRACTIONTILE
360
28
  3
SPECULARTILE
360
25
  0
DICTIONARY
  5
1B9
330
67
100
AcDbDictionary
280
     1
281
     1
  3
ACAD_XREC_ROUNDTRIP
360
1BA
  0
DICTIONARY
  5
1BB
330
69
100
AcDbDictionary
280
     1
281
     1
  3
ACAD_XREC_ROUNDTRIP
360
1BC
  0
DICTIONARY
  5
181
330
65
100
AcDbDictionary
280
     1
281
     1
  3
ACAD_ROUNDTRIP_2008_TABLESTYLE_CELLSTYLEMAP
360
182
  3
ACAD_XREC_ROUNDTRIP
360
1B7
  0
DICTIONARY
  5
191
330
2F
100
AcDbDictionary
280
     1
281
     1
  3
ACAD_XREC_ROUNDTRIP
360
192
  0
DICTIONARY
  5
18F
330
2E
100
AcDbDictionary
280
     1
281
     1
  3
ACAD_XREC_ROUNDTRIP
360
190
  0
DICTIONARY
  5
19D
330
35
100
AcDbDictionary
280
     1
281
     1
  3
ACAD_XREC_ROUNDTRIP
360
19E
  0
DICTIONARY
  5
1A5
330
39
100
AcDbDictionary
280
     1
281
     1
  3
ACAD_XREC_ROUNDTRIP
360
1A6
  0
DICTIONARY
  5
197
330
32
100
AcDbDictionary
280
     1
281
     1
  3
ACAD_XREC_ROUNDTRIP
360
198
  0
DICTIONARY
  5
19B
330
34
100
AcDbDictionary
280
     1
281
     1
  3
ACAD_XREC_ROUNDTRIP
360
19C
  0
DICTIONARY
  5
1B5
330
41
100
AcDbDictionary
280
     1
281
     1
  3
ACAD_XREC_ROUNDTRIP
360
1B6
  0
DICTIONARY
  5
1A3
330
38
100
AcDbDictionary
280
     1
281
     1
  3
ACAD_XREC_ROUNDTRIP
360
1A4
  0
DICTIONARY
  5
187
330
2A
100
AcDbDictionary
280
     1
281
     1
  3
ACAD_XREC_ROUNDTRIP
360
188
  0
DICTIONARY
  5
189
330
2B
100
AcDbDictionary
280
     1
281
     1
  3
ACAD_XREC_ROUNDTRIP
360
18A
  0
DICTIONARY
  5
18B
330
2C
100
AcDbDictionary
280
     1
281
     1
  3
ACAD_XREC_ROUNDTRIP
360
18C
  0
DICTIONARY
  5
18D
330
2D
100
AcDbDictionary
280
     1
281
     1
  3
ACAD_XREC_ROUNDTRIP
360
18E
  0
DICTIONARY
  5
195
330
31
100
AcDbDictionary
280
     1
281
     1
  3
ACAD_XREC_ROUNDTRIP
360
196
  0
DICTIONARY
  5
1B1
330
3F
100
AcDbDictionary
280
     1
281
     1
  3
ACAD_XREC_ROUNDTRIP
360
1B2
  0
DICTIONARY
  5
1A1
330
37
100
AcDbDictionary
280
     1
281
     1
  3
ACAD_XREC_ROUNDTRIP
360
1A2
  0
DICTIONARY
  5
1B3
330
40
100
AcDbDictionary
280
     1
281
     1
  3
ACAD_XREC_ROUNDTRIP
360
1B4
  0
DICTIONARY
  5
199
330
33
100
AcDbDictionary
280
     1
281
     1
  3
ACAD_XREC_ROUNDTRIP
360
19A
  0
DICTIONARY
  5
1AF
330
3E
100
AcDbDictionary
280
     1
281
     1
  3
ACAD_XREC_ROUNDTRIP
360
1B0
  0
DICTIONARY
  5
1AD
330
3D
100
AcDbDictionary
280
     1
281
     1
  3
ACAD_XREC_ROUNDTRIP
360
1AE
  0
DICTIONARY
  5
1A7
330
3A
100
AcDbDictionary
280
     1
281
     1
  3
ACAD_XREC_ROUNDTRIP
360
1A8
  0
DICTIONARY
  5
1A9
330
3B
100
AcDbDictionary
280
     1
281
     1
  3
ACAD_XREC_ROUNDTRIP
360
1AA
  0
DICTIONARY
  5
19F
330
36
100
AcDbDictionary
280
     1
281
     1
  3
ACAD_XREC_ROUNDTRIP
360
1A0
  0
DICTIONARY
  5
193
330
30
100
AcDbDictionary
280
     1
281
     1
  3
ACAD_XREC_ROUNDTRIP
360
194
  0
DICTIONARY
  5
1AB
330
3C
100
AcDbDictionary
280
     1
281
     1
  3
ACAD_XREC_ROUNDTRIP
360
1AC
  0
XRECORD
  5
1BE
102
{ACAD_REACTORS
330
1BD
102
}
330
1BD
100
AcDbXrecord
280
     1
102
DISPLAYNAME
  1
Imperial24
102
FLAGS
 90
        0
  0
XRECORD
  5
1C0
102
{ACAD_REACTORS
330
1BF
102
}
330
1BF
100
AcDbXrecord
280
     1
102
SHADEPLOT
 70
     0
102
SHADEPLOTRESLEVEL
 70
     2
102
SHADEPLOTCUSTOMDPI
 70
   300
  0
XRECORD
  5
1C4
102
{ACAD_REACTORS
330
1C3
102
}
330
1C3
100
AcDbXrecord
280
     1
102
SHADEPLOT
 70
     0
102
SHADEPLOTRESLEVEL
 70
     2
102
SHADEPLOTCUSTOMDPI
 70
   300
  0
XRECORD
  5
1C2
102
{ACAD_REACTORS
330
1C1
102
}
330
1C1
100
AcDbXrecord
280
     1
102
SHADEPLOT
 70
     0
102
SHADEPLOTRESLEVEL
 70
     2
102
SHADEPLOTCUSTOMDPI
 70
   300
  0
XRECORD
  5
185
102
{ACAD_REACTORS
330
1A
102
}
330
1A
100
AcDbXrecord
280
     1
102
MATERIAL
148
0.0
149
0.0
149
0.0
 93
        0
 94
      127
282
     0
 72
     0
 77
     0
171
     0
175
     0
179
     0
273
     0
  0
XRECORD
  5
1C
102
{ACAD_REACTORS
330
1A
102
}
330
1A
100
AcDbXrecord
280
     1
270
     1
271
     1
  0
XRECORD
  5
1B
102
{ACAD_REACTORS
330
1A
102
}
330
1A
100
AcDbXrecord
280
     1
270
     1
271
     1
  0
XRECORD
  5
1F
102
{ACAD_REACTORS
330
1A
102
}
330
1A
100
AcDbXrecord
280
     1
270
     1
271
     1
  0
XRECORD
  5
1E
102
{ACAD_REACTORS
330
1A
102
}
330
1A
100
AcDbXrecord
280
     1
270
     1
271
     1
  0
XRECORD
  5
20
102
{ACAD_REACTORS
330
1A
102
}
330
1A
100
AcDbXrecord
280
     1
270
     1
271
     1
  0
XRECORD
  5
1D
102
{ACAD_REACTORS
330
1A
102
}
330
1A
100
AcDbXrecord
280
     1
270
     1
271
     1
  0
XRECORD
  5
184
102
{ACAD_REACTORS
330
12
102
}
330
12
100
AcDbXrecord
280
     1
102
MATERIAL
148
0.0
149
0.0
149
0.0
 93
        0
 94
      127
282
     0
 72
     0
 77
     0
171
     0
175
     0
179
     0
273
     0
  0
XRECORD
  5
14
102
{ACAD_REACTORS
330
12
102
}
330
12
100
AcDbXrecord
280
     1
270
     1
271
     1
  0
XRECORD
  5
13
102
{ACAD_REACTORS
330
12
102
}
330
12
100
AcDbXrecord
280
     1
270
     1
271
     1
  0
XRECORD
  5
17
102
{ACAD_REACTORS
330
12
102
}
330
12
100
AcDbXrecord
280
     1
270
     1
271
     1
  0
XRECORD
  5
16
102
{ACAD_REACTORS
330
12
102
}
330
12
100
AcDbXrecord
280
     1
270
     1
271
     1
  0
XRECORD
  5
18
102
{ACAD_REACTORS
330
12
102
}
330
12
100
AcDbXrecord
280
     1
270
     1
271
     1
  0
XRECORD
  5
15
102
{ACAD_REACTORS
330
12
102
}
330
12
100
AcDbXrecord
280
     1
270
     1
271
     1
  0
XRECORD
  5
186
102
{ACAD_REACTORS
330
22
102
}
330
22
100
AcDbXrecord
280
     1
102
MATERIAL
148
0.0
149
0.0
149
0.0
 93
        0
 94
      127
282
     0
 72
     0
 77
     0
171
     0
175
     0
179
     0
273
     0
  0
XRECORD
  5
24
102
{ACAD_REACTORS
330
22
102
}
330
22
100
AcDbXrecord
280
     1
270
     1
271
     1
  0
XRECORD
  5
23
102
{ACAD_REACTORS
330
22
102
}
330
22
100
AcDbXrecord
280
     1
270
     1
271
     1
  0
XRECORD
  5
27
102
{ACAD_REACTORS
330
22
102
}
330
22
100
AcDbXrecord
280
     1
270
     1
271
     1
  0
XRECORD
  5
26
102
{ACAD_REACTORS
330
22
102
}
330
22
100
AcDbXrecord
280
     1
270
     1
271
     1
  0
XRECORD
  5
28
102
{ACAD_REACTORS
330
22
102
}
330
22
100
AcDbXrecord
280
     1
270
     1
271
     1
  0
XRECORD
  5
25
102
{ACAD_REACTORS
330
22
102
}
330
22
100
AcDbXrecord
280
     1
270
     1
271
     1
  0
XRECORD
  5
1BA
102
{ACAD_REACTORS
330
1B9
102
}
330
1B9
100
AcDbXrecord
280
     1
102
ACAD_ROUNDTRIP_2012_MLEADER_STYLE
298
     1
  0
XRECORD
  5
1BC
102
{ACAD_REACTORS
330
1BB
102
}
330
1BB
100
AcDbXrecord
280
     1
102
DISPLAYNAME
  1
Imperial24
102
FLAGS
 90
        0
  0
CELLSTYLEMAP
  5
182
102
{ACAD_REACTORS
330
181
102
}
330
181
100
AcDbCellStyleMap
 90
        3
300
CELLSTYLE
  1
TABLEFORMAT_BEGIN
 90
        5
170
     1
 91
        0
 92
    32768
 62
   257
 93
        1
300
CONTENTFORMAT
  1
CONTENTFORMAT_BEGIN
 90
        0
 91
        0
 92
      512
 93
        0
300

 40
0.0
140
1.0
 94
        5
 62
     0
340
55
144
0.25
309
CONTENTFORMAT_END
171
     0
 94
        0
309
TABLEFORMAT_END
  1
CELLSTYLE_BEGIN
 90
        1
 91
        1
300
_TITLE
309
CELLSTYLE_END
300
CELLSTYLE
  1
TABLEFORMAT_BEGIN
 90
        5
170
     1
 91
        0
 92
        0
 62
   257
 93
        1
300
CONTENTFORMAT
  1
CONTENTFORMAT_BEGIN
 90
        0
 91
        0
 92
      512
 93
        0
300

 40
0.0
140
1.0
 94
        5
 62
     0
340
55
144
0.18
309
CONTENTFORMAT_END
171
     0
 94
        0
309
TABLEFORMAT_END
  1
CELLSTYLE_BEGIN
 90
        2
 91
        1
300
_HEADER
309
CELLSTYLE_END
300
CELLSTYLE
  1
TABLEFORMAT_BEGIN
 90
        5
170
     1
 91
        0
 92
        0
 62
   257
 93
        1
300
CONTENTFORMAT
  1
CONTENTFORMAT_BEGIN
 90
        0
 91
        0
 92
      512
 93
        0
300

 40
0.0
140
1.0
 94
        2
 62
     0
340
55
144
0.18
309
CONTENTFORMAT_END
171
     0
 94
        0
309
TABLEFORMAT_END
  1
CELLSTYLE_BEGIN
 90
        3
 91
        2
300
_DATA
309
CELLSTYLE_END
  0
XRECORD
  5
1B7
102
{ACAD_REACTORS
330
181
102
}
330
181
100
AcDbXrecord
280
     1
102
ACAD_ROUNDTRIP_PRE2007_TABLESTYLE
 90
      512
 91
        0
  1

 92
      512
 93
        0
  2

 94
      512
 95
        0
  3

  0
XRECORD
  5
192
102
{ACAD_REACTORS
330
191
102
}
330
191
100
AcDbXrecord
280
     1
102
RTVSPost2010Prop28
280
     1
102
RTVSPost2010PropOp28
 70
     1
102
RTVSPost2010Prop29
280
     1
102
RTVSPost2010PropOp29
 70
     1
102
RTVSPost2010Prop30
280
     0
102
RTVSPost2010PropOp30
 70
     1
102
RTVSPost2010Prop31
280
     0
102
RTVSPost2010PropOp31
 70
     1
102
RTVSPost2010Prop32
280
     0
102
RTVSPost2010PropOp32
 70
     1
102
RTVSPost2010Prop33
280
     0
102
RTVSPost2010PropOp33
 70
     1
102
RTVSPost2010Prop34
280
     0
102
RTVSPost2010PropOp34
 70
     1
102
RTVSPost2010Prop35
280
     0
102
RTVSPost2010PropOp35
 70
     1
102
RTVSPost2010Prop36
280
     0
102
RTVSPost2010PropOp36
 70
     1
102
RTVSPost2010Prop37
 90
       50
102
RTVSPost2010PropOp37
 70
     1
102
RTVSPost2010Prop38
140
0.0
102
RTVSPost2010PropOp38
 70
     1
102
RTVSPost2010Prop39
140
1.0
102
RTVSPost2010PropOp39
 70
     1
102
RTVSPost2010Prop40
 90
        0
102
RTVSPost2010PropOp40
 70
     1
102
RTVSPost2010Prop41ColorIndex
 90
       18
102
RTVSPost2010Prop41ColorRGB
 90
        0
102
RTVSPost2010PropOp41
 70
     1
102
RTVSPost2010Prop42
 90
       50
102
RTVSPost2010PropOp42
 70
     1
102
RTVSPost2010Prop43
 90
        3
102
RTVSPost2010PropOp43
 70
     1
102
RTVSPost2010Prop44ColorIndex
 90
        5
102
RTVSPost2010Prop44ColorRGB
 90
      255
102
RTVSPost2010PropOp44
 70
     1
102
RTVSPost2010Prop45
280
     0
102
RTVSPost2010PropOp45
 70
     1
102
RTVSPost2010Prop46
 90
       50
102
RTVSPost2010PropOp46
 70
     1
102
RTVSPost2010Prop47
 90
       50
102
RTVSPost2010PropOp47
 70
     1
102
RTVSPost2010Prop48
 90
       50
102
RTVSPost2010PropOp48
 70
     1
102
RTVSPost2010Prop49
280
     0
102
RTVSPost2010PropOp49
 70
     1
102
RTVSPost2010Prop50
 90
       50
102
RTVSPost2010PropOp50
 70
     1
102
RTVSPost2010Prop51ColorIndex
 90
      256
102
RTVSPost2010Prop51ColorRGB
 90
-16777216
102
RTVSPost2010PropOp51
 70
     0
102
RTVSPost2010Prop52
140
1.0
102
RTVSPost2010PropOp52
 70
     0
102
RTVSPost2010Prop53
 90
        2
102
RTVSPost2010PropOp53
 70
     1
102
RTVSPost2010Prop54
  1
strokes_ogs.tif
102
RTVSPost2010PropOp54
 70
     1
102
RTVSPost2010Prop55
280
     0
102
RTVSPost2010PropOp55
 70
     1
102
RTVSPost2010Prop56
140
1.0
102
RTVSPost2010PropOp56
 70
     1
102
RTVSPost2010Prop57
140
1.0
102
RTVSPost2010PropOp57
 70
     1
102
RTVSPropertyOp0
 70
     1
102
RTVSPropertyOp1
 70
     1
102
RTVSPropertyOp2
 70
     1
102
RTVSPropertyOp3
 70
     1
102
RTVSPropertyOp4
 70
     1
102
RTVSPropertyOp5
 70
     1
102
RTVSPropertyOp6
 70
     1
102
RTVSPropertyOp7
 70
     1
102
RTVSPropertyOp8
 70
     1
102
RTVSPropertyOp9
 70
     1
102
RTVSPropertyOp10
 70
     1
102
RTVSPropertyOp11
 70
     1
102
RTVSPropertyOp12
 70
     1
102
RTVSPropertyOp13
 70
     1
102
RTVSPropertyOp14
 70
     1
102
RTVSPropertyOp15
 70
     1
102
RTVSPropertyOp16
 70
     1
102
RTVSPropertyOp17
 70
     1
102
RTVSPropertyOp18
 70
     1
102
RTVSPropertyOp19
 70
     1
102
RTVSPropertyOp20
 70
     1
102
RTVSPropertyOp21
 70
     1
102
RTVSPropertyOp22
 70
     1
102
RTVSPropertyOp23
 70
     1
102
RTVSPropertyOp24
 70
     1
102
RTVSPropertyOp25
 70
     1
102
RTVSPropertyOp26
 70
     1
102
RTVSPropertyOp27
 70
     1
102
RTVSPropertyOp28
 70
     1
102
RTVSPropertyOp29
 70
     1
102
RTVSPropertyOp30
 70
     1
102
RTVSPropertyOp31
 70
     1
102
RTVSPropertyOp32
 70
     1
102
RTVSPropertyOp33
 70
     1
102
RTVSPropertyOp34
 70
     1
102
RTVSPropertyOp35
 70
     1
102
RTVSPropertyOp36
 70
     1
102
RTVSPropertyOp37
 70
     1
102
RTVSPropertyOp38
 70
     1
102
RTVSPropertyOp39
 70
     1
102
RTVSPropertyOp40
 70
     1
102
RTVSPropertyOp41
 70
     1
102
RTVSPropertyOp42
 70
     1
102
RTVSPropertyOp43
 70
     1
102
RTVSPropertyOp44
 70
     1
102
RTVSPropertyOp45
 70
     1
102
RTVSPropertyOp46
 70
     1
102
RTVSPropertyOp47
 70
     1
102
RTVSPropertyOp48
 70
     1
102
RTVSPropertyOp49
 70
     1
102
RTVSPropertyOp50
 70
     1
102
RTVSPropertyOp51
 70
     0
102
RTVSPropertyOp52
 70
     0
102
RTVSPropertyOp53
 70
     1
102
RTVSPropertyOp54
 70
     1
102
RTVSPropertyOp55
 70
     1
102
RTVSPropertyOp56
 70
     1
102
RTVSPropertyOp57
 70
     1
102
RTVSPropertyOp58
 70
     1
102
RTVSPropertyOp59
 70
     1
102
RTVSPropertyOp60
 70
     1
102
RTVSPropertyOp61
 70
     1
102
RTVSPropertyOp62
 70
     1
  0
XRECORD
  5
190
102
{ACAD_REACTORS
330
18F
102
}
330
18F
100
AcDbXrecord
280
     1
102
RTVSPost2010Prop28
280
     0
102
RTVSPost2010PropOp28
 70
     1
102
RTVSPost2010Prop29
280
     1
102
RTVSPost2010PropOp29
 70
     1
102
RTVSPost2010Prop30
280
     1
102
RTVSPost2010PropOp30
 70
     1
102
RTVSPost2010Prop31
280
     0
102
RTVSPost2010PropOp31
 70
     1
102
RTVSPost2010Prop32
280
     0
102
RTVSPost2010PropOp32
 70
     1
102
RTVSPost2010Prop33
280
     0
102
RTVSPost2010PropOp33
 70
     1
102
RTVSPost2010Prop34
280
     0
102
RTVSPost2010PropOp34
 70
     1
102
RTVSPost2010Prop35
280
     0
102
RTVSPost2010PropOp35
 70
     1
102
RTVSPost2010Prop36
280
     0
102
RTVSPost2010PropOp36
 70
     1
102
RTVSPost2010Prop37
 90
       50
102
RTVSPost2010PropOp37
 70
     1
102
RTVSPost2010Prop38
140
0.0
102
RTVSPost2010PropOp38
 70
     1
102
RTVSPost2010Prop39
140
1.0
102
RTVSPost2010PropOp39
 70
     1
102
RTVSPost2010Prop40
 90
        0
102
RTVSPost2010PropOp40
 70
     1
102
RTVSPost2010Prop41ColorIndex
 90
       18
102
RTVSPost2010Prop41ColorRGB
 90
        0
102
RTVSPost2010PropOp41
 70
     1
102
RTVSPost2010Prop42
 90
       50
102
RTVSPost2010PropOp42
 70
     1
102
RTVSPost2010Prop43
 90
        3
102
RTVSPost2010PropOp43
 70
     1
102
RTVSPost2010Prop44ColorIndex
 90
        5
102
RTVSPost2010Prop44ColorRGB
 90
      255
102
RTVSPost2010PropOp44
 70
     1
102
RTVSPost2010Prop45
280
     0
102
RTVSPost2010PropOp45
 70
     1
102
RTVSPost2010Prop46
 90
       50
102
RTVSPost2010PropOp46
 70
     1
102
RTVSPost2010Prop47
 90
       50
102
RTVSPost2010PropOp47
 70
     1
102
RTVSPost2010Prop48
 90
       50
102
RTVSPost2010PropOp48
 70
     1
102
RTVSPost2010Prop49
280
     0
102
RTVSPost2010PropOp49
 70
     1
102
RTVSPost2010Prop50
 90
       50
102
RTVSPost2010PropOp50
 70
     1
102
RTVSPost2010Prop51ColorIndex
 90
      256
102
RTVSPost2010Prop51ColorRGB
 90
-16777216
102
RTVSPost2010PropOp51
 70
     0
102
RTVSPost2010Prop52
140
1.0
102
RTVSPost2010PropOp52
 70
     0
102
RTVSPost2010Prop53
 90
        2
102
RTVSPost2010PropOp53
 70
     1
102
RTVSPost2010Prop54
  1
strokes_ogs.tif
102
RTVSPost2010PropOp54
 70
     1
102
RTVSPost2010Prop55
280
     0
102
RTVSPost2010PropOp55
 70
     1
102
RTVSPost2010Prop56
140
1.0
102
RTVSPost2010PropOp56
 70
     1
102
RTVSPost2010Prop57
140
1.0
102
RTVSPost2010PropOp57
 70
     1
102
RTVSPropertyOp0
 70
     1
102
RTVSPropertyOp1
 70
     1
102
RTVSPropertyOp2
 70
     1
102
RTVSPropertyOp3
 70
     1
102
RTVSPropertyOp4
 70
     1
102
RTVSPropertyOp5
 70
     1
102
RTVSPropertyOp6
 70
     1
102
RTVSPropertyOp7
 70
     1
102
RTVSPropertyOp8
 70
     1
102
RTVSPropertyOp9
 70
     1
102
RTVSPropertyOp10
 70
     1
102
RTVSPropertyOp11
 70
     1
102
RTVSPropertyOp12
 70
     1
102
RTVSPropertyOp13
 70
     1
102
RTVSPropertyOp14
 70
     1
102
RTVSPropertyOp15
 70
     1
102
RTVSPropertyOp16
 70
     1
102
RTVSPropertyOp17
 70
     1
102
RTVSPropertyOp18
 70
     1
102
RTVSPropertyOp19
 70
     1
102
RTVSPropertyOp20
 70
     1
102
RTVSPropertyOp21
 70
     1
102
RTVSPropertyOp22
 70
     1
102
RTVSPropertyOp23
 70
     1
102
RTVSPropertyOp24
 70
     1
102
RTVSPropertyOp25
 70
     1
102
RTVSPropertyOp26
 70
     1
102
RTVSPropertyOp27
 70
     1
102
RTVSPropertyOp28
 70
     1
102
RTVSPropertyOp29
 70
     1
102
RTVSPropertyOp30
 70
     1
102
RTVSPropertyOp31
 70
     1
102
RTVSPropertyOp32
 70
     1
102
RTVSPropertyOp33
 70
     1
102
RTVSPropertyOp34
 70
     1
102
RTVSPropertyOp35
 70
     1
102
RTVSPropertyOp36
 70
     1
102
RTVSPropertyOp37
 70
     1
102
RTVSPropertyOp38
 70
     1
102
RTVSPropertyOp39
 70
     1
102
RTVSPropertyOp40
 70
     1
102
RTVSPropertyOp41
 70
     1
102
RTVSPropertyOp42
 70
     1
102
RTVSPropertyOp43
 70
     1
102
RTVSPropertyOp44
 70
     1
102
RTVSPropertyOp45
 70
     1
102
RTVSPropertyOp46
 70
     1
102
RTVSPropertyOp47
 70
     1
102
RTVSPropertyOp48
 70
     1
102
RTVSPropertyOp49
 70
     1
102
RTVSPropertyOp50
 70
     1
102
RTVSPropertyOp51
 70
     0
102
RTVSPropertyOp52
 70
     0
102
RTVSPropertyOp53
 70
     1
102
RTVSPropertyOp54
 70
     1
102
RTVSPropertyOp55
 70
     1
102
RTVSPropertyOp56
 70
     1
102
RTVSPropertyOp57
 70
     1
102
RTVSPropertyOp58
 70
     1
102
RTVSPropertyOp59
 70
     1
102
RTVSPropertyOp60
 70
     1
102
RTVSPropertyOp61
 70
     1
102
RTVSPropertyOp62
 70
     1
  0
XRECORD
  5
19E
102
{ACAD_REACTORS
330
19D
102
}
330
19D
100
AcDbXrecord
280
     1
102
RTVSPost2010Prop28
280
     0
102
RTVSPost2010PropOp28
 70
     1
102
RTVSPost2010Prop29
280
     1
102
RTVSPost2010PropOp29
 70
     1
102
RTVSPost2010Prop30
280
     1
102
RTVSPost2010PropOp30
 70
     1
102
RTVSPost2010Prop31
280
     0
102
RTVSPost2010PropOp31
 70
     1
102
RTVSPost2010Prop32
280
     0
102
RTVSPost2010PropOp32
 70
     1
102
RTVSPost2010Prop33
280
     0
102
RTVSPost2010PropOp33
 70
     1
102
RTVSPost2010Prop34
280
     0
102
RTVSPost2010PropOp34
 70
     1
102
RTVSPost2010Prop35
280
     0
102
RTVSPost2010PropOp35
 70
     1
102
RTVSPost2010Prop36
280
     0
102
RTVSPost2010PropOp36
 70
     1
102
RTVSPost2010Prop37
 90
       50
102
RTVSPost2010PropOp37
 70
     1
102
RTVSPost2010Prop38
140
0.0
102
RTVSPost2010PropOp38
 70
     1
102
RTVSPost2010Prop39
140
1.0
102
RTVSPost2010PropOp39
 70
     1
102
RTVSPost2010Prop40
 90
        0
102
RTVSPost2010PropOp40
 70
     1
102
RTVSPost2010Prop41ColorIndex
 90
       18
102
RTVSPost2010Prop41ColorRGB
 90
        0
102
RTVSPost2010PropOp41
 70
     1
102
RTVSPost2010Prop42
 90
       50
102
RTVSPost2010PropOp42
 70
     1
102
RTVSPost2010Prop43
 90
        3
102
RTVSPost2010PropOp43
 70
     1
102
RTVSPost2010Prop44ColorIndex
 90
        5
102
RTVSPost2010Prop44ColorRGB
 90
      255
102
RTVSPost2010PropOp44
 70
     1
102
RTVSPost2010Prop45
280
     0
102
RTVSPost2010PropOp45
 70
     1
102
RTVSPost2010Prop46
 90
       50
102
RTVSPost2010PropOp46
 70
     1
102
RTVSPost2010Prop47
 90
       50
102
RTVSPost2010PropOp47
 70
     1
102
RTVSPost2010Prop48
 90
       50
102
RTVSPost2010PropOp48
 70
     1
102
RTVSPost2010Prop49
280
     0
102
RTVSPost2010PropOp49
 70
     1
102
RTVSPost2010Prop50
 90
       50
102
RTVSPost2010PropOp50
 70
     1
102
RTVSPost2010Prop51ColorIndex
 90
      256
102
RTVSPost2010Prop51ColorRGB
 90
-16777216
102
RTVSPost2010PropOp51
 70
     0
102
RTVSPost2010Prop52
140
1.0
102
RTVSPost2010PropOp52
 70
     0
102
RTVSPost2010Prop53
 90
        2
102
RTVSPost2010PropOp53
 70
     1
102
RTVSPost2010Prop54
  1
strokes_ogs.tif
102
RTVSPost2010PropOp54
 70
     1
102
RTVSPost2010Prop55
280
     0
102
RTVSPost2010PropOp55
 70
     1
102
RTVSPost2010Prop56
140
1.0
102
RTVSPost2010PropOp56
 70
     1
102
RTVSPost2010Prop57
140
1.0
102
RTVSPost2010PropOp57
 70
     1
102
RTVSPropertyOp0
 70
     1
102
RTVSPropertyOp1
 70
     1
102
RTVSPropertyOp2
 70
     1
102
RTVSPropertyOp3
 70
     1
102
RTVSPropertyOp4
 70
     1
102
RTVSPropertyOp5
 70
     1
102
RTVSPropertyOp6
 70
     1
102
RTVSPropertyOp7
 70
     1
102
RTVSPropertyOp8
 70
     1
102
RTVSPropertyOp9
 70
     1
102
RTVSPropertyOp10
 70
     1
102
RTVSPropertyOp11
 70
     1
102
RTVSPropertyOp12
 70
     1
102
RTVSPropertyOp13
 70
     1
102
RTVSPropertyOp14
 70
     1
102
RTVSPropertyOp15
 70
     1
102
RTVSPropertyOp16
 70
     1
102
RTVSPropertyOp17
 70
     1
102
RTVSPropertyOp18
 70
     1
102
RTVSPropertyOp19
 70
     1
102
RTVSPropertyOp20
 70
     1
102
RTVSPropertyOp21
 70
     1
102
RTVSPropertyOp22
 70
     1
102
RTVSPropertyOp23
 70
     1
102
RTVSPropertyOp24
 70
     1
102
RTVSPropertyOp25
 70
     1
102
RTVSPropertyOp26
 70
     1
102
RTVSPropertyOp27
 70
     1
102
RTVSPropertyOp28
 70
     1
102
RTVSPropertyOp29
 70
     1
102
RTVSPropertyOp30
 70
     1
102
RTVSPropertyOp31
 70
     1
102
RTVSPropertyOp32
 70
     1
102
RTVSPropertyOp33
 70
     1
102
RTVSPropertyOp34
 70
     1
102
RTVSPropertyOp35
 70
     1
102
RTVSPropertyOp36
 70
     1
102
RTVSPropertyOp37
 70
     1
102
RTVSPropertyOp38
 70
     1
102
RTVSPropertyOp39
 70
     1
102
RTVSPropertyOp40
 70
     1
102
RTVSPropertyOp41
 70
     1
102
RTVSPropertyOp42
 70
     1
102
RTVSPropertyOp43
 70
     1
102
RTVSPropertyOp44
 70
     1
102
RTVSPropertyOp45
 70
     1
102
RTVSPropertyOp46
 70
     1
102
RTVSPropertyOp47
 70
     1
102
RTVSPropertyOp48
 70
     1
102
RTVSPropertyOp49
 70
     1
102
RTVSPropertyOp50
 70
     1
102
RTVSPropertyOp51
 70
     0
102
RTVSPropertyOp52
 70
     0
102
RTVSPropertyOp53
 70
     1
102
RTVSPropertyOp54
 70
     1
102
RTVSPropertyOp55
 70
     1
102
RTVSPropertyOp56
 70
     1
102
RTVSPropertyOp57
 70
     1
102
RTVSPropertyOp58
 70
     1
102
RTVSPropertyOp59
 70
     1
102
RTVSPropertyOp60
 70
     1
102
RTVSPropertyOp61
 70
     1
102
RTVSPropertyOp62
 70
     1
  0
XRECORD
  5
1A6
102
{ACAD_REACTORS
330
1A5
102
}
330
1A5
100
AcDbXrecord
280
     1
102
RTVSPost2010Prop28
280
     0
102
RTVSPost2010PropOp28
 70
     1
102
RTVSPost2010Prop29
280
     1
102
RTVSPost2010PropOp29
 70
     1
102
RTVSPost2010Prop30
280
     1
102
RTVSPost2010PropOp30
 70
     1
102
RTVSPost2010Prop31
280
     0
102
RTVSPost2010PropOp31
 70
     1
102
RTVSPost2010Prop32
280
     0
102
RTVSPost2010PropOp32
 70
     1
102
RTVSPost2010Prop33
280
     0
102
RTVSPost2010PropOp33
 70
     1
102
RTVSPost2010Prop34
280
     0
102
RTVSPost2010PropOp34
 70
     1
102
RTVSPost2010Prop35
280
     0
102
RTVSPost2010PropOp35
 70
     1
102
RTVSPost2010Prop36
280
     0
102
RTVSPost2010PropOp36
 70
     1
102
RTVSPost2010Prop37
 90
       50
102
RTVSPost2010PropOp37
 70
     1
102
RTVSPost2010Prop38
140
0.0
102
RTVSPost2010PropOp38
 70
     1
102
RTVSPost2010Prop39
140
1.0
102
RTVSPost2010PropOp39
 70
     1
102
RTVSPost2010Prop40
 90
        0
102
RTVSPost2010PropOp40
 70
     1
102
RTVSPost2010Prop41ColorIndex
 90
       18
102
RTVSPost2010Prop41ColorRGB
 90
        0
102
RTVSPost2010PropOp41
 70
     1
102
RTVSPost2010Prop42
 90
       50
102
RTVSPost2010PropOp42
 70
     1
102
RTVSPost2010Prop43
 90
        3
102
RTVSPost2010PropOp43
 70
     1
102
RTVSPost2010Prop44ColorIndex
 90
        5
102
RTVSPost2010Prop44ColorRGB
 90
      255
102
RTVSPost2010PropOp44
 70
     1
102
RTVSPost2010Prop45
280
     0
102
RTVSPost2010PropOp45
 70
     1
102
RTVSPost2010Prop46
 90
       50
102
RTVSPost2010PropOp46
 70
     1
102
RTVSPost2010Prop47
 90
       50
102
RTVSPost2010PropOp47
 70
     1
102
RTVSPost2010Prop48
 90
       50
102
RTVSPost2010PropOp48
 70
     1
102
RTVSPost2010Prop49
280
     0
102
RTVSPost2010PropOp49
 70
     1
102
RTVSPost2010Prop50
 90
       50
102
RTVSPost2010PropOp50
 70
     1
102
RTVSPost2010Prop51ColorIndex
 90
      256
102
RTVSPost2010Prop51ColorRGB
 90
-16777216
102
RTVSPost2010PropOp51
 70
     0
102
RTVSPost2010Prop52
140
1.0
102
RTVSPost2010PropOp52
 70
     0
102
RTVSPost2010Prop53
 90
        2
102
RTVSPost2010PropOp53
 70
     1
102
RTVSPost2010Prop54
  1
strokes_ogs.tif
102
RTVSPost2010PropOp54
 70
     1
102
RTVSPost2010Prop55
280
     0
102
RTVSPost2010PropOp55
 70
     1
102
RTVSPost2010Prop56
140
1.0
102
RTVSPost2010PropOp56
 70
     1
102
RTVSPost2010Prop57
140
1.0
102
RTVSPost2010PropOp57
 70
     1
102
RTVSPropertyOp0
 70
     1
102
RTVSPropertyOp1
 70
     1
102
RTVSPropertyOp2
 70
     1
102
RTVSPropertyOp3
 70
     1
102
RTVSPropertyOp4
 70
     1
102
RTVSPropertyOp5
 70
     1
102
RTVSPropertyOp6
 70
     1
102
RTVSPropertyOp7
 70
     1
102
RTVSPropertyOp8
 70
     1
102
RTVSPropertyOp9
 70
     1
102
RTVSPropertyOp10
 70
     1
102
RTVSPropertyOp11
 70
     1
102
RTVSPropertyOp12
 70
     1
102
RTVSPropertyOp13
 70
     1
102
RTVSPropertyOp14
 70
     1
102
RTVSPropertyOp15
 70
     1
102
RTVSPropertyOp16
 70
     1
102
RTVSPropertyOp17
 70
     1
102
RTVSPropertyOp18
 70
     1
102
RTVSPropertyOp19
 70
     1
102
RTVSPropertyOp20
 70
     1
102
RTVSPropertyOp21
 70
     1
102
RTVSPropertyOp22
 70
     1
102
RTVSPropertyOp23
 70
     1
102
RTVSPropertyOp24
 70
     1
102
RTVSPropertyOp25
 70
     1
102
RTVSPropertyOp26
 70
     1
102
RTVSPropertyOp27
 70
     1
102
RTVSPropertyOp28
 70
     1
102
RTVSPropertyOp29
 70
     1
102
RTVSPropertyOp30
 70
     1
102
RTVSPropertyOp31
 70
     1
102
RTVSPropertyOp32
 70
     1
102
RTVSPropertyOp33
 70
     1
102
RTVSPropertyOp34
 70
     1
102
RTVSPropertyOp35
 70
     1
102
RTVSPropertyOp36
 70
     1
102
RTVSPropertyOp37
 70
     1
102
RTVSPropertyOp38
 70
     1
102
RTVSPropertyOp39
 70
     1
102
RTVSPropertyOp40
 70
     1
102
RTVSPropertyOp41
 70
     1
102
RTVSPropertyOp42
 70
     1
102
RTVSPropertyOp43
 70
     1
102
RTVSPropertyOp44
 70
     1
102
RTVSPropertyOp45
 70
     1
102
RTVSPropertyOp46
 70
     1
102
RTVSPropertyOp47
 70
     1
102
RTVSPropertyOp48
 70
     1
102
RTVSPropertyOp49
 70
     1
102
RTVSPropertyOp50
 70
     1
102
RTVSPropertyOp51
 70
     0
102
RTVSPropertyOp52
 70
     0
102
RTVSPropertyOp53
 70
     1
102
RTVSPropertyOp54
 70
     1
102
RTVSPropertyOp55
 70
     1
102
RTVSPropertyOp56
 70
     1
102
RTVSPropertyOp57
 70
     1
102
RTVSPropertyOp58
 70
     1
102
RTVSPropertyOp59
 70
     1
102
RTVSPropertyOp60
 70
     1
102
RTVSPropertyOp61
 70
     1
102
RTVSPropertyOp62
 70
     1
  0
XRECORD
  5
198
102
{ACAD_REACTORS
330
197
102
}
330
197
100
AcDbXrecord
280
     1
102
RTVSPost2010Prop28
280
     0
102
RTVSPost2010PropOp28
 70
     1
102
RTVSPost2010Prop29
280
     1
102
RTVSPost2010PropOp29
 70
     1
102
RTVSPost2010Prop30
280
     1
102
RTVSPost2010PropOp30
 70
     1
102
RTVSPost2010Prop31
280
     0
102
RTVSPost2010PropOp31
 70
     1
102
RTVSPost2010Prop32
280
     0
102
RTVSPost2010PropOp32
 70
     1
102
RTVSPost2010Prop33
280
     0
102
RTVSPost2010PropOp33
 70
     1
102
RTVSPost2010Prop34
280
     0
102
RTVSPost2010PropOp34
 70
     1
102
RTVSPost2010Prop35
280
     0
102
RTVSPost2010PropOp35
 70
     1
102
RTVSPost2010Prop36
280
     0
102
RTVSPost2010PropOp36
 70
     1
102
RTVSPost2010Prop37
 90
       50
102
RTVSPost2010PropOp37
 70
     1
102
RTVSPost2010Prop38
140
0.0
102
RTVSPost2010PropOp38
 70
     1
102
RTVSPost2010Prop39
140
1.0
102
RTVSPost2010PropOp39
 70
     1
102
RTVSPost2010Prop40
 90
        0
102
RTVSPost2010PropOp40
 70
     1
102
RTVSPost2010Prop41ColorIndex
 90
       18
102
RTVSPost2010Prop41ColorRGB
 90
        0
102
RTVSPost2010PropOp41
 70
     1
102
RTVSPost2010Prop42
 90
       50
102
RTVSPost2010PropOp42
 70
     1
102
RTVSPost2010Prop43
 90
        3
102
RTVSPost2010PropOp43
 70
     1
102
RTVSPost2010Prop44ColorIndex
 90
        5
102
RTVSPost2010Prop44ColorRGB
 90
      255
102
RTVSPost2010PropOp44
 70
     1
102
RTVSPost2010Prop45
280
     0
102
RTVSPost2010PropOp45
 70
     1
102
RTVSPost2010Prop46
 90
       50
102
RTVSPost2010PropOp46
 70
     1
102
RTVSPost2010Prop47
 90
       50
102
RTVSPost2010PropOp47
 70
     1
102
RTVSPost2010Prop48
 90
       50
102
RTVSPost2010PropOp48
 70
     1
102
RTVSPost2010Prop49
280
     0
102
RTVSPost2010PropOp49
 70
     1
102
RTVSPost2010Prop50
 90
       50
102
RTVSPost2010PropOp50
 70
     1
102
RTVSPost2010Prop51ColorIndex
 90
      256
102
RTVSPost2010Prop51ColorRGB
 90
-16777216
102
RTVSPost2010PropOp51
 70
     0
102
RTVSPost2010Prop52
140
1.0
102
RTVSPost2010PropOp52
 70
     0
102
RTVSPost2010Prop53
 90
        2
102
RTVSPost2010PropOp53
 70
     1
102
RTVSPost2010Prop54
  1
strokes_ogs.tif
102
RTVSPost2010PropOp54
 70
     1
102
RTVSPost2010Prop55
280
     0
102
RTVSPost2010PropOp55
 70
     1
102
RTVSPost2010Prop56
140
1.0
102
RTVSPost2010PropOp56
 70
     1
102
RTVSPost2010Prop57
140
1.0
102
RTVSPost2010PropOp57
 70
     1
102
RTVSPropertyOp0
 70
     1
102
RTVSPropertyOp1
 70
     1
102
RTVSPropertyOp2
 70
     1
102
RTVSPropertyOp3
 70
     1
102
RTVSPropertyOp4
 70
     1
102
RTVSPropertyOp5
 70
     1
102
RTVSPropertyOp6
 70
     1
102
RTVSPropertyOp7
 70
     1
102
RTVSPropertyOp8
 70
     1
102
RTVSPropertyOp9
 70
     1
102
RTVSPropertyOp10
 70
     1
102
RTVSPropertyOp11
 70
     1
102
RTVSPropertyOp12
 70
     1
102
RTVSPropertyOp13
 70
     1
102
RTVSPropertyOp14
 70
     1
102
RTVSPropertyOp15
 70
     1
102
RTVSPropertyOp16
 70
     1
102
RTVSPropertyOp17
 70
     1
102
RTVSPropertyOp18
 70
     1
102
RTVSPropertyOp19
 70
     1
102
RTVSPropertyOp20
 70
     1
102
RTVSPropertyOp21
 70
     1
102
RTVSPropertyOp22
 70
     1
102
RTVSPropertyOp23
 70
     1
102
RTVSPropertyOp24
 70
     1
102
RTVSPropertyOp25
 70
     1
102
RTVSPropertyOp26
 70
     1
102
RTVSPropertyOp27
 70
     1
102
RTVSPropertyOp28
 70
     1
102
RTVSPropertyOp29
 70
     1
102
RTVSPropertyOp30
 70
     1
102
RTVSPropertyOp31
 70
     1
102
RTVSPropertyOp32
 70
     1
102
RTVSPropertyOp33
 70
     1
102
RTVSPropertyOp34
 70
     1
102
RTVSPropertyOp35
 70
     1
102
RTVSPropertyOp36
 70
     1
102
RTVSPropertyOp37
 70
     1
102
RTVSPropertyOp38
 70
     1
102
RTVSPropertyOp39
 70
     1
102
RTVSPropertyOp40
 70
     1
102
RTVSPropertyOp41
 70
     1
102
RTVSPropertyOp42
 70
     1
102
RTVSPropertyOp43
 70
     1
102
RTVSPropertyOp44
 70
     1
102
RTVSPropertyOp45
 70
     1
102
RTVSPropertyOp46
 70
     1
102
RTVSPropertyOp47
 70
     1
102
RTVSPropertyOp48
 70
     1
102
RTVSPropertyOp49
 70
     1
102
RTVSPropertyOp50
 70
     1
102
RTVSPropertyOp51
 70
     0
102
RTVSPropertyOp52
 70
     0
102
RTVSPropertyOp53
 70
     1
102
RTVSPropertyOp54
 70
     1
102
RTVSPropertyOp55
 70
     1
102
RTVSPropertyOp56
 70
     1
102
RTVSPropertyOp57
 70
     1
102
RTVSPropertyOp58
 70
     1
102
RTVSPropertyOp59
 70
     1
102
RTVSPropertyOp60
 70
     1
102
RTVSPropertyOp61
 70
     1
102
RTVSPropertyOp62
 70
     1
  0
XRECORD
  5
19C
102
{ACAD_REACTORS
330
19B
102
}
330
19B
100
AcDbXrecord
280
     1
102
RTVSPost2010Prop28
280
     0
102
RTVSPost2010PropOp28
 70
     1
102
RTVSPost2010Prop29
280
     1
102
RTVSPost2010PropOp29
 70
     1
102
RTVSPost2010Prop30
280
     1
102
RTVSPost2010PropOp30
 70
     1
102
RTVSPost2010Prop31
280
     0
102
RTVSPost2010PropOp31
 70
     1
102
RTVSPost2010Prop32
280
     0
102
RTVSPost2010PropOp32
 70
     1
102
RTVSPost2010Prop33
280
     0
102
RTVSPost2010PropOp33
 70
     1
102
RTVSPost2010Prop34
280
     0
102
RTVSPost2010PropOp34
 70
     1
102
RTVSPost2010Prop35
280
     0
102
RTVSPost2010PropOp35
 70
     1
102
RTVSPost2010Prop36
280
     0
102
RTVSPost2010PropOp36
 70
     1
102
RTVSPost2010Prop37
 90
       50
102
RTVSPost2010PropOp37
 70
     1
102
RTVSPost2010Prop38
140
0.0
102
RTVSPost2010PropOp38
 70
     1
102
RTVSPost2010Prop39
140
1.0
102
RTVSPost2010PropOp39
 70
     1
102
RTVSPost2010Prop40
 90
        0
102
RTVSPost2010PropOp40
 70
     1
102
RTVSPost2010Prop41ColorIndex
 90
       18
102
RTVSPost2010Prop41ColorRGB
 90
        0
102
RTVSPost2010PropOp41
 70
     1
102
RTVSPost2010Prop42
 90
       50
102
RTVSPost2010PropOp42
 70
     1
102
RTVSPost2010Prop43
 90
        3
102
RTVSPost2010PropOp43
 70
     1
102
RTVSPost2010Prop44ColorIndex
 90
        5
102
RTVSPost2010Prop44ColorRGB
 90
      255
102
RTVSPost2010PropOp44
 70
     1
102
RTVSPost2010Prop45
280
     0
102
RTVSPost2010PropOp45
 70
     1
102
RTVSPost2010Prop46
 90
       50
102
RTVSPost2010PropOp46
 70
     1
102
RTVSPost2010Prop47
 90
       50
102
RTVSPost2010PropOp47
 70
     1
102
RTVSPost2010Prop48
 90
       50
102
RTVSPost2010PropOp48
 70
     1
102
RTVSPost2010Prop49
280
     0
102
RTVSPost2010PropOp49
 70
     1
102
RTVSPost2010Prop50
 90
       50
102
RTVSPost2010PropOp50
 70
     1
102
RTVSPost2010Prop51ColorIndex
 90
      256
102
RTVSPost2010Prop51ColorRGB
 90
-16777216
102
RTVSPost2010PropOp51
 70
     0
102
RTVSPost2010Prop52
140
1.0
102
RTVSPost2010PropOp52
 70
     0
102
RTVSPost2010Prop53
 90
        2
102
RTVSPost2010PropOp53
 70
     1
102
RTVSPost2010Prop54
  1
strokes_ogs.tif
102
RTVSPost2010PropOp54
 70
     1
102
RTVSPost2010Prop55
280
     0
102
RTVSPost2010PropOp55
 70
     1
102
RTVSPost2010Prop56
140
1.0
102
RTVSPost2010PropOp56
 70
     1
102
RTVSPost2010Prop57
140
1.0
102
RTVSPost2010PropOp57
 70
     1
102
RTVSPropertyOp0
 70
     1
102
RTVSPropertyOp1
 70
     1
102
RTVSPropertyOp2
 70
     1
102
RTVSPropertyOp3
 70
     1
102
RTVSPropertyOp4
 70
     1
102
RTVSPropertyOp5
 70
     1
102
RTVSPropertyOp6
 70
     1
102
RTVSPropertyOp7
 70
     1
102
RTVSPropertyOp8
 70
     1
102
RTVSPropertyOp9
 70
     1
102
RTVSPropertyOp10
 70
     1
102
RTVSPropertyOp11
 70
     1
102
RTVSPropertyOp12
 70
     1
102
RTVSPropertyOp13
 70
     1
102
RTVSPropertyOp14
 70
     1
102
RTVSPropertyOp15
 70
     1
102
RTVSPropertyOp16
 70
     1
102
RTVSPropertyOp17
 70
     1
102
RTVSPropertyOp18
 70
     1
102
RTVSPropertyOp19
 70
     1
102
RTVSPropertyOp20
 70
     1
102
RTVSPropertyOp21
 70
     1
102
RTVSPropertyOp22
 70
     1
102
RTVSPropertyOp23
 70
     1
102
RTVSPropertyOp24
 70
     1
102
RTVSPropertyOp25
 70
     1
102
RTVSPropertyOp26
 70
     1
102
RTVSPropertyOp27
 70
     1
102
RTVSPropertyOp28
 70
     1
102
RTVSPropertyOp29
 70
     1
102
RTVSPropertyOp30
 70
     1
102
RTVSPropertyOp31
 70
     1
102
RTVSPropertyOp32
 70
     1
102
RTVSPropertyOp33
 70
     1
102
RTVSPropertyOp34
 70
     1
102
RTVSPropertyOp35
 70
     1
102
RTVSPropertyOp36
 70
     1
102
RTVSPropertyOp37
 70
     1
102
RTVSPropertyOp38
 70
     1
102
RTVSPropertyOp39
 70
     1
102
RTVSPropertyOp40
 70
     1
102
RTVSPropertyOp41
 70
     1
102
RTVSPropertyOp42
 70
     1
102
RTVSPropertyOp43
 70
     1
102
RTVSPropertyOp44
 70
     1
102
RTVSPropertyOp45
 70
     1
102
RTVSPropertyOp46
 70
     1
102
RTVSPropertyOp47
 70
     1
102
RTVSPropertyOp48
 70
     1
102
RTVSPropertyOp49
 70
     1
102
RTVSPropertyOp50
 70
     1
102
RTVSPropertyOp51
 70
     0
102
RTVSPropertyOp52
 70
     0
102
RTVSPropertyOp53
 70
     1
102
RTVSPropertyOp54
 70
     1
102
RTVSPropertyOp55
 70
     1
102
RTVSPropertyOp56
 70
     1
102
RTVSPropertyOp57
 70
     1
102
RTVSPropertyOp58
 70
     1
102
RTVSPropertyOp59
 70
     1
102
RTVSPropertyOp60
 70
     1
102
RTVSPropertyOp61
 70
     1
102
RTVSPropertyOp62
 70
     1
  0
XRECORD
  5
1B6
102
{ACAD_REACTORS
330
1B5
102
}
330
1B5
100
AcDbXrecord
280
     1
102
RTVSPost2010Prop28
280
     0
102
RTVSPost2010PropOp28
 70
     0
102
RTVSPost2010Prop29
280
     1
102
RTVSPost2010PropOp29
 70
     0
102
RTVSPost2010Prop30
280
     1
102
RTVSPost2010PropOp30
 70
     0
102
RTVSPost2010Prop31
280
     0
102
RTVSPost2010PropOp31
 70
     0
102
RTVSPost2010Prop32
280
     0
102
RTVSPost2010PropOp32
 70
     0
102
RTVSPost2010Prop33
280
     0
102
RTVSPost2010PropOp33
 70
     0
102
RTVSPost2010Prop34
280
     0
102
RTVSPost2010PropOp34
 70
     0
102
RTVSPost2010Prop35
280
     0
102
RTVSPost2010PropOp35
 70
     0
102
RTVSPost2010Prop36
280
     0
102
RTVSPost2010PropOp36
 70
     0
102
RTVSPost2010Prop37
 90
       50
102
RTVSPost2010PropOp37
 70
     0
102
RTVSPost2010Prop38
140
0.0
102
RTVSPost2010PropOp38
 70
     0
102
RTVSPost2010Prop39
140
1.0
102
RTVSPost2010PropOp39
 70
     0
102
RTVSPost2010Prop40
 90
        0
102
RTVSPost2010PropOp40
 70
     0
102
RTVSPost2010Prop41ColorIndex
 90
       18
102
RTVSPost2010Prop41ColorRGB
 90
        0
102
RTVSPost2010PropOp41
 70
     0
102
RTVSPost2010Prop42
 90
       50
102
RTVSPost2010PropOp42
 70
     0
102
RTVSPost2010Prop43
 90
        3
102
RTVSPost2010PropOp43
 70
     0
102
RTVSPost2010Prop44ColorIndex
 90
        5
102
RTVSPost2010Prop44ColorRGB
 90
      255
102
RTVSPost2010PropOp44
 70
     0
102
RTVSPost2010Prop45
280
     0
102
RTVSPost2010PropOp45
 70
     0
102
RTVSPost2010Prop46
 90
       50
102
RTVSPost2010PropOp46
 70
     0
102
RTVSPost2010Prop47
 90
       50
102
RTVSPost2010PropOp47
 70
     0
102
RTVSPost2010Prop48
 90
       50
102
RTVSPost2010PropOp48
 70
     0
102
RTVSPost2010Prop49
280
     0
102
RTVSPost2010PropOp49
 70
     0
102
RTVSPost2010Prop50
 90
       50
102
RTVSPost2010PropOp50
 70
     0
102
RTVSPost2010Prop51ColorIndex
 90
      256
102
RTVSPost2010Prop51ColorRGB
 90
-16777216
102
RTVSPost2010PropOp51
 70
     0
102
RTVSPost2010Prop52
140
1.0
102
RTVSPost2010PropOp52
 70
     0
102
RTVSPost2010Prop53
 90
        2
102
RTVSPost2010PropOp53
 70
     0
102
RTVSPost2010Prop54
  1
strokes_ogs.tif
102
RTVSPost2010PropOp54
 70
     0
102
RTVSPost2010Prop55
280
     0
102
RTVSPost2010PropOp55
 70
     0
102
RTVSPost2010Prop56
140
1.0
102
RTVSPost2010PropOp56
 70
     0
102
RTVSPost2010Prop57
140
1.0
102
RTVSPost2010PropOp57
 70
     0
102
RTVSPropertyOp0
 70
     0
102
RTVSPropertyOp1
 70
     0
102
RTVSPropertyOp2
 70
     0
102
RTVSPropertyOp3
 70
     0
102
RTVSPropertyOp4
 70
     0
102
RTVSPropertyOp5
 70
     0
102
RTVSPropertyOp6
 70
     0
102
RTVSPropertyOp7
 70
     0
102
RTVSPropertyOp8
 70
     0
102
RTVSPropertyOp9
 70
     0
102
RTVSPropertyOp10
 70
     0
102
RTVSPropertyOp11
 70
     0
102
RTVSPropertyOp12
 70
     0
102
RTVSPropertyOp13
 70
     0
102
RTVSPropertyOp14
 70
     2
102
RTVSPropertyOp15
 70
     0
102
RTVSPropertyOp16
 70
     0
102
RTVSPropertyOp17
 70
     0
102
RTVSPropertyOp18
 70
     0
102
RTVSPropertyOp19
 70
     0
102
RTVSPropertyOp20
 70
     0
102
RTVSPropertyOp21
 70
     0
102
RTVSPropertyOp22
 70
     0
102
RTVSPropertyOp23
 70
     0
102
RTVSPropertyOp24
 70
     0
102
RTVSPropertyOp25
 70
     0
102
RTVSPropertyOp26
 70
     0
102
RTVSPropertyOp27
 70
     0
102
RTVSPropertyOp28
 70
     0
102
RTVSPropertyOp29
 70
     0
102
RTVSPropertyOp30
 70
     0
102
RTVSPropertyOp31
 70
     0
102
RTVSPropertyOp32
 70
     0
102
RTVSPropertyOp33
 70
     0
102
RTVSPropertyOp34
 70
     0
102
RTVSPropertyOp35
 70
     0
102
RTVSPropertyOp36
 70
     0
102
RTVSPropertyOp37
 70
     0
102
RTVSPropertyOp38
 70
     0
102
RTVSPropertyOp39
 70
     0
102
RTVSPropertyOp40
 70
     0
102
RTVSPropertyOp41
 70
     0
102
RTVSPropertyOp42
 70
     0
102
RTVSPropertyOp43
 70
     0
102
RTVSPropertyOp44
 70
     0
102
RTVSPropertyOp45
 70
     0
102
RTVSPropertyOp46
 70
     0
102
RTVSPropertyOp47
 70
     0
102
RTVSPropertyOp48
 70
     0
102
RTVSPropertyOp49
 70
     0
102
RTVSPropertyOp50
 70
     0
102
RTVSPropertyOp51
 70
     0
102
RTVSPropertyOp52
 70
     0
102
RTVSPropertyOp53
 70
     0
102
RTVSPropertyOp54
 70
     0
102
RTVSPropertyOp55
 70
     0
102
RTVSPropertyOp56
 70
     0
102
RTVSPropertyOp57
 70
     0
102
RTVSPropertyOp58
 70
     0
102
RTVSPropertyOp59
 70
     0
102
RTVSPropertyOp60
 70
     0
102
RTVSPropertyOp61
 70
     0
102
RTVSPropertyOp62
 70
     0
  0
XRECORD
  5
1A4
102
{ACAD_REACTORS
330
1A3
102
}
330
1A3
100
AcDbXrecord
280
     1
102
RTVSPost2010Prop28
280
     0
102
RTVSPost2010PropOp28
 70
     1
102
RTVSPost2010Prop29
280
     1
102
RTVSPost2010PropOp29
 70
     1
102
RTVSPost2010Prop30
280
     1
102
RTVSPost2010PropOp30
 70
     1
102
RTVSPost2010Prop31
280
     0
102
RTVSPost2010PropOp31
 70
     1
102
RTVSPost2010Prop32
280
     0
102
RTVSPost2010PropOp32
 70
     1
102
RTVSPost2010Prop33
280
     0
102
RTVSPost2010PropOp33
 70
     1
102
RTVSPost2010Prop34
280
     0
102
RTVSPost2010PropOp34
 70
     1
102
RTVSPost2010Prop35
280
     0
102
RTVSPost2010PropOp35
 70
     1
102
RTVSPost2010Prop36
280
     0
102
RTVSPost2010PropOp36
 70
     1
102
RTVSPost2010Prop37
 90
       50
102
RTVSPost2010PropOp37
 70
     1
102
RTVSPost2010Prop38
140
0.0
102
RTVSPost2010PropOp38
 70
     1
102
RTVSPost2010Prop39
140
1.0
102
RTVSPost2010PropOp39
 70
     1
102
RTVSPost2010Prop40
 90
        0
102
RTVSPost2010PropOp40
 70
     1
102
RTVSPost2010Prop41ColorIndex
 90
       18
102
RTVSPost2010Prop41ColorRGB
 90
        0
102
RTVSPost2010PropOp41
 70
     1
102
RTVSPost2010Prop42
 90
       50
102
RTVSPost2010PropOp42
 70
     1
102
RTVSPost2010Prop43
 90
        3
102
RTVSPost2010PropOp43
 70
     1
102
RTVSPost2010Prop44ColorIndex
 90
        5
102
RTVSPost2010Prop44ColorRGB
 90
      255
102
RTVSPost2010PropOp44
 70
     1
102
RTVSPost2010Prop45
280
     0
102
RTVSPost2010PropOp45
 70
     1
102
RTVSPost2010Prop46
 90
       50
102
RTVSPost2010PropOp46
 70
     1
102
RTVSPost2010Prop47
 90
       50
102
RTVSPost2010PropOp47
 70
     1
102
RTVSPost2010Prop48
 90
       50
102
RTVSPost2010PropOp48
 70
     1
102
RTVSPost2010Prop49
280
     0
102
RTVSPost2010PropOp49
 70
     1
102
RTVSPost2010Prop50
 90
       50
102
RTVSPost2010PropOp50
 70
     1
102
RTVSPost2010Prop51ColorIndex
 90
      256
102
RTVSPost2010Prop51ColorRGB
 90
-16777216
102
RTVSPost2010PropOp51
 70
     0
102
RTVSPost2010Prop52
140
1.0
102
RTVSPost2010PropOp52
 70
     0
102
RTVSPost2010Prop53
 90
        2
102
RTVSPost2010PropOp53
 70
     1
102
RTVSPost2010Prop54
  1
strokes_ogs.tif
102
RTVSPost2010PropOp54
 70
     1
102
RTVSPost2010Prop55
280
     0
102
RTVSPost2010PropOp55
 70
     1
102
RTVSPost2010Prop56
140
1.0
102
RTVSPost2010PropOp56
 70
     1
102
RTVSPost2010Prop57
140
1.0
102
RTVSPost2010PropOp57
 70
     1
102
RTVSPropertyOp0
 70
     1
102
RTVSPropertyOp1
 70
     1
102
RTVSPropertyOp2
 70
     1
102
RTVSPropertyOp3
 70
     1
102
RTVSPropertyOp4
 70
     1
102
RTVSPropertyOp5
 70
     1
102
RTVSPropertyOp6
 70
     1
102
RTVSPropertyOp7
 70
     1
102
RTVSPropertyOp8
 70
     1
102
RTVSPropertyOp9
 70
     1
102
RTVSPropertyOp10
 70
     1
102
RTVSPropertyOp11
 70
     1
102
RTVSPropertyOp12
 70
     1
102
RTVSPropertyOp13
 70
     1
102
RTVSPropertyOp14
 70
     1
102
RTVSPropertyOp15
 70
     1
102
RTVSPropertyOp16
 70
     1
102
RTVSPropertyOp17
 70
     1
102
RTVSPropertyOp18
 70
     1
102
RTVSPropertyOp19
 70
     1
102
RTVSPropertyOp20
 70
     1
102
RTVSPropertyOp21
 70
     1
102
RTVSPropertyOp22
 70
     1
102
RTVSPropertyOp23
 70
     1
102
RTVSPropertyOp24
 70
     1
102
RTVSPropertyOp25
 70
     1
102
RTVSPropertyOp26
 70
     1
102
RTVSPropertyOp27
 70
     1
102
RTVSPropertyOp28
 70
     1
102
RTVSPropertyOp29
 70
     1
102
RTVSPropertyOp30
 70
     1
102
RTVSPropertyOp31
 70
     1
102
RTVSPropertyOp32
 70
     1
102
RTVSPropertyOp33
 70
     1
102
RTVSPropertyOp34
 70
     1
102
RTVSPropertyOp35
 70
     1
102
RTVSPropertyOp36
 70
     1
102
RTVSPropertyOp37
 70
     1
102
RTVSPropertyOp38
 70
     1
102
RTVSPropertyOp39
 70
     1
102
RTVSPropertyOp40
 70
     1
102
RTVSPropertyOp41
 70
     1
102
RTVSPropertyOp42
 70
     1
102
RTVSPropertyOp43
 70
     1
102
RTVSPropertyOp44
 70
     1
102
RTVSPropertyOp45
 70
     1
102
RTVSPropertyOp46
 70
     1
102
RTVSPropertyOp47
 70
     1
102
RTVSPropertyOp48
 70
     1
102
RTVSPropertyOp49
 70
     1
102
RTVSPropertyOp50
 70
     1
102
RTVSPropertyOp51
 70
     0
102
RTVSPropertyOp52
 70
     0
102
RTVSPropertyOp53
 70
     1
102
RTVSPropertyOp54
 70
     1
102
RTVSPropertyOp55
 70
     1
102
RTVSPropertyOp56
 70
     1
102
RTVSPropertyOp57
 70
     1
102
RTVSPropertyOp58
 70
     1
102
RTVSPropertyOp59
 70
     1
102
RTVSPropertyOp60
 70
     1
102
RTVSPropertyOp61
 70
     1
102
RTVSPropertyOp62
 70
     1
  0
XRECORD
  5
188
102
{ACAD_REACTORS
330
187
102
}
330
187
100
AcDbXrecord
280
     1
102
RTVSPost2010Prop28
280
     0
102
RTVSPost2010PropOp28
 70
     1
102
RTVSPost2010Prop29
280
     1
102
RTVSPost2010PropOp29
 70
     1
102
RTVSPost2010Prop30
280
     1
102
RTVSPost2010PropOp30
 70
     1
102
RTVSPost2010Prop31
280
     0
102
RTVSPost2010PropOp31
 70
     1
102
RTVSPost2010Prop32
280
     0
102
RTVSPost2010PropOp32
 70
     1
102
RTVSPost2010Prop33
280
     0
102
RTVSPost2010PropOp33
 70
     1
102
RTVSPost2010Prop34
280
     0
102
RTVSPost2010PropOp34
 70
     1
102
RTVSPost2010Prop35
280
     0
102
RTVSPost2010PropOp35
 70
     1
102
RTVSPost2010Prop36
280
     0
102
RTVSPost2010PropOp36
 70
     1
102
RTVSPost2010Prop37
 90
       50
102
RTVSPost2010PropOp37
 70
     1
102
RTVSPost2010Prop38
140
0.0
102
RTVSPost2010PropOp38
 70
     1
102
RTVSPost2010Prop39
140
1.0
102
RTVSPost2010PropOp39
 70
     1
102
RTVSPost2010Prop40
 90
        0
102
RTVSPost2010PropOp40
 70
     1
102
RTVSPost2010Prop41ColorIndex
 90
       18
102
RTVSPost2010Prop41ColorRGB
 90
        0
102
RTVSPost2010PropOp41
 70
     1
102
RTVSPost2010Prop42
 90
       50
102
RTVSPost2010PropOp42
 70
     1
102
RTVSPost2010Prop43
 90
        3
102
RTVSPost2010PropOp43
 70
     1
102
RTVSPost2010Prop44ColorIndex
 90
        5
102
RTVSPost2010Prop44ColorRGB
 90
      255
102
RTVSPost2010PropOp44
 70
     1
102
RTVSPost2010Prop45
280
     0
102
RTVSPost2010PropOp45
 70
     1
102
RTVSPost2010Prop46
 90
       50
102
RTVSPost2010PropOp46
 70
     1
102
RTVSPost2010Prop47
 90
       50
102
RTVSPost2010PropOp47
 70
     1
102
RTVSPost2010Prop48
 90
       50
102
RTVSPost2010PropOp48
 70
     1
102
RTVSPost2010Prop49
280
     0
102
RTVSPost2010PropOp49
 70
     1
102
RTVSPost2010Prop50
 90
       50
102
RTVSPost2010PropOp50
 70
     1
102
RTVSPost2010Prop51ColorIndex
 90
      256
102
RTVSPost2010Prop51ColorRGB
 90
-16777216
102
RTVSPost2010PropOp51
 70
     0
102
RTVSPost2010Prop52
140
1.0
102
RTVSPost2010PropOp52
 70
     0
102
RTVSPost2010Prop53
 90
        2
102
RTVSPost2010PropOp53
 70
     1
102
RTVSPost2010Prop54
  1
strokes_ogs.tif
102
RTVSPost2010PropOp54
 70
     1
102
RTVSPost2010Prop55
280
     0
102
RTVSPost2010PropOp55
 70
     1
102
RTVSPost2010Prop56
140
1.0
102
RTVSPost2010PropOp56
 70
     1
102
RTVSPost2010Prop57
140
1.0
102
RTVSPost2010PropOp57
 70
     1
102
RTVSPropertyOp0
 70
     1
102
RTVSPropertyOp1
 70
     1
102
RTVSPropertyOp2
 70
     1
102
RTVSPropertyOp3
 70
     1
102
RTVSPropertyOp4
 70
     1
102
RTVSPropertyOp5
 70
     1
102
RTVSPropertyOp6
 70
     1
102
RTVSPropertyOp7
 70
     1
102
RTVSPropertyOp8
 70
     1
102
RTVSPropertyOp9
 70
     1
102
RTVSPropertyOp10
 70
     1
102
RTVSPropertyOp11
 70
     1
102
RTVSPropertyOp12
 70
     1
102
RTVSPropertyOp13
 70
     1
102
RTVSPropertyOp14
 70
     1
102
RTVSPropertyOp15
 70
     1
102
RTVSPropertyOp16
 70
     1
102
RTVSPropertyOp17
 70
     1
102
RTVSPropertyOp18
 70
     1
102
RTVSPropertyOp19
 70
     1
102
RTVSPropertyOp20
 70
     1
102
RTVSPropertyOp21
 70
     1
102
RTVSPropertyOp22
 70
     1
102
RTVSPropertyOp23
 70
     1
102
RTVSPropertyOp24
 70
     1
102
RTVSPropertyOp25
 70
     1
102
RTVSPropertyOp26
 70
     1
102
RTVSPropertyOp27
 70
     1
102
RTVSPropertyOp28
 70
     1
102
RTVSPropertyOp29
 70
     1
102
RTVSPropertyOp30
 70
     1
102
RTVSPropertyOp31
 70
     1
102
RTVSPropertyOp32
 70
     1
102
RTVSPropertyOp33
 70
     1
102
RTVSPropertyOp34
 70
     1
102
RTVSPropertyOp35
 70
     1
102
RTVSPropertyOp36
 70
     1
102
RTVSPropertyOp37
 70
     1
102
RTVSPropertyOp38
 70
     1
102
RTVSPropertyOp39
 70
     1
102
RTVSPropertyOp40
 70
     1
102
RTVSPropertyOp41
 70
     1
102
RTVSPropertyOp42
 70
     1
102
RTVSPropertyOp43
 70
     1
102
RTVSPropertyOp44
 70
     1
102
RTVSPropertyOp45
 70
     1
102
RTVSPropertyOp46
 70
     1
102
RTVSPropertyOp47
 70
     1
102
RTVSPropertyOp48
 70
     1
102
RTVSPropertyOp49
 70
     1
102
RTVSPropertyOp50
 70
     1
102
RTVSPropertyOp51
 70
     0
102
RTVSPropertyOp52
 70
     0
102
RTVSPropertyOp53
 70
     1
102
RTVSPropertyOp54
 70
     1
102
RTVSPropertyOp55
 70
     1
102
RTVSPropertyOp56
 70
     1
102
RTVSPropertyOp57
 70
     1
102
RTVSPropertyOp58
 70
     1
102
RTVSPropertyOp59
 70
     1
102
RTVSPropertyOp60
 70
     1
102
RTVSPropertyOp61
 70
     1
102
RTVSPropertyOp62
 70
     1
  0
XRECORD
  5
18A
102
{ACAD_REACTORS
330
189
102
}
330
189
100
AcDbXrecord
280
     1
102
RTVSPost2010Prop28
280
     0
102
RTVSPost2010PropOp28
 70
     1
102
RTVSPost2010Prop29
280
     1
102
RTVSPost2010PropOp29
 70
     1
102
RTVSPost2010Prop30
280
     1
102
RTVSPost2010PropOp30
 70
     1
102
RTVSPost2010Prop31
280
     0
102
RTVSPost2010PropOp31
 70
     1
102
RTVSPost2010Prop32
280
     0
102
RTVSPost2010PropOp32
 70
     1
102
RTVSPost2010Prop33
280
     0
102
RTVSPost2010PropOp33
 70
     1
102
RTVSPost2010Prop34
280
     0
102
RTVSPost2010PropOp34
 70
     1
102
RTVSPost2010Prop35
280
     0
102
RTVSPost2010PropOp35
 70
     1
102
RTVSPost2010Prop36
280
     0
102
RTVSPost2010PropOp36
 70
     1
102
RTVSPost2010Prop37
 90
       50
102
RTVSPost2010PropOp37
 70
     1
102
RTVSPost2010Prop38
140
0.0
102
RTVSPost2010PropOp38
 70
     1
102
RTVSPost2010Prop39
140
1.0
102
RTVSPost2010PropOp39
 70
     1
102
RTVSPost2010Prop40
 90
        0
102
RTVSPost2010PropOp40
 70
     1
102
RTVSPost2010Prop41ColorIndex
 90
       18
102
RTVSPost2010Prop41ColorRGB
 90
        0
102
RTVSPost2010PropOp41
 70
     1
102
RTVSPost2010Prop42
 90
       50
102
RTVSPost2010PropOp42
 70
     1
102
RTVSPost2010Prop43
 90
        3
102
RTVSPost2010PropOp43
 70
     1
102
RTVSPost2010Prop44ColorIndex
 90
        5
102
RTVSPost2010Prop44ColorRGB
 90
      255
102
RTVSPost2010PropOp44
 70
     1
102
RTVSPost2010Prop45
280
     0
102
RTVSPost2010PropOp45
 70
     1
102
RTVSPost2010Prop46
 90
       50
102
RTVSPost2010PropOp46
 70
     1
102
RTVSPost2010Prop47
 90
       50
102
RTVSPost2010PropOp47
 70
     1
102
RTVSPost2010Prop48
 90
       50
102
RTVSPost2010PropOp48
 70
     1
102
RTVSPost2010Prop49
280
     0
102
RTVSPost2010PropOp49
 70
     1
102
RTVSPost2010Prop50
 90
       50
102
RTVSPost2010PropOp50
 70
     1
102
RTVSPost2010Prop51ColorIndex
 90
      256
102
RTVSPost2010Prop51ColorRGB
 90
-16777216
102
RTVSPost2010PropOp51
 70
     0
102
RTVSPost2010Prop52
140
1.0
102
RTVSPost2010PropOp52
 70
     0
102
RTVSPost2010Prop53
 90
        2
102
RTVSPost2010PropOp53
 70
     1
102
RTVSPost2010Prop54
  1
strokes_ogs.tif
102
RTVSPost2010PropOp54
 70
     1
102
RTVSPost2010Prop55
280
     0
102
RTVSPost2010PropOp55
 70
     1
102
RTVSPost2010Prop56
140
1.0
102
RTVSPost2010PropOp56
 70
     1
102
RTVSPost2010Prop57
140
1.0
102
RTVSPost2010PropOp57
 70
     1
102
RTVSPropertyOp0
 70
     1
102
RTVSPropertyOp1
 70
     1
102
RTVSPropertyOp2
 70
     1
102
RTVSPropertyOp3
 70
     1
102
RTVSPropertyOp4
 70
     1
102
RTVSPropertyOp5
 70
     1
102
RTVSPropertyOp6
 70
     1
102
RTVSPropertyOp7
 70
     1
102
RTVSPropertyOp8
 70
     1
102
RTVSPropertyOp9
 70
     1
102
RTVSPropertyOp10
 70
     1
102
RTVSPropertyOp11
 70
     1
102
RTVSPropertyOp12
 70
     1
102
RTVSPropertyOp13
 70
     1
102
RTVSPropertyOp14
 70
     1
102
RTVSPropertyOp15
 70
     1
102
RTVSPropertyOp16
 70
     1
102
RTVSPropertyOp17
 70
     1
102
RTVSPropertyOp18
 70
     1
102
RTVSPropertyOp19
 70
     1
102
RTVSPropertyOp20
 70
     1
102
RTVSPropertyOp21
 70
     1
102
RTVSPropertyOp22
 70
     1
102
RTVSPropertyOp23
 70
     1
102
RTVSPropertyOp24
 70
     1
102
RTVSPropertyOp25
 70
     1
102
RTVSPropertyOp26
 70
     1
102
RTVSPropertyOp27
 70
     1
102
RTVSPropertyOp28
 70
     1
102
RTVSPropertyOp29
 70
     1
102
RTVSPropertyOp30
 70
     1
102
RTVSPropertyOp31
 70
     1
102
RTVSPropertyOp32
 70
     1
102
RTVSPropertyOp33
 70
     1
102
RTVSPropertyOp34
 70
     1
102
RTVSPropertyOp35
 70
     1
102
RTVSPropertyOp36
 70
     1
102
RTVSPropertyOp37
 70
     1
102
RTVSPropertyOp38
 70
     1
102
RTVSPropertyOp39
 70
     1
102
RTVSPropertyOp40
 70
     1
102
RTVSPropertyOp41
 70
     1
102
RTVSPropertyOp42
 70
     1
102
RTVSPropertyOp43
 70
     1
102
RTVSPropertyOp44
 70
     1
102
RTVSPropertyOp45
 70
     1
102
RTVSPropertyOp46
 70
     1
102
RTVSPropertyOp47
 70
     1
102
RTVSPropertyOp48
 70
     1
102
RTVSPropertyOp49
 70
     1
102
RTVSPropertyOp50
 70
     1
102
RTVSPropertyOp51
 70
     0
102
RTVSPropertyOp52
 70
     0
102
RTVSPropertyOp53
 70
     1
102
RTVSPropertyOp54
 70
     1
102
RTVSPropertyOp55
 70
     1
102
RTVSPropertyOp56
 70
     1
102
RTVSPropertyOp57
 70
     1
102
RTVSPropertyOp58
 70
     1
102
RTVSPropertyOp59
 70
     1
102
RTVSPropertyOp60
 70
     1
102
RTVSPropertyOp61
 70
     1
102
RTVSPropertyOp62
 70
     1
  0
XRECORD
  5
18C
102
{ACAD_REACTORS
330
18B
102
}
330
18B
100
AcDbXrecord
280
     1
102
RTVSPost2010Prop28
280
     0
102
RTVSPost2010PropOp28
 70
     1
102
RTVSPost2010Prop29
280
     1
102
RTVSPost2010PropOp29
 70
     1
102
RTVSPost2010Prop30
280
     1
102
RTVSPost2010PropOp30
 70
     1
102
RTVSPost2010Prop31
280
     0
102
RTVSPost2010PropOp31
 70
     1
102
RTVSPost2010Prop32
280
     0
102
RTVSPost2010PropOp32
 70
     1
102
RTVSPost2010Prop33
280
     0
102
RTVSPost2010PropOp33
 70
     1
102
RTVSPost2010Prop34
280
     0
102
RTVSPost2010PropOp34
 70
     1
102
RTVSPost2010Prop35
280
     0
102
RTVSPost2010PropOp35
 70
     1
102
RTVSPost2010Prop36
280
     0
102
RTVSPost2010PropOp36
 70
     1
102
RTVSPost2010Prop37
 90
       50
102
RTVSPost2010PropOp37
 70
     1
102
RTVSPost2010Prop38
140
0.0
102
RTVSPost2010PropOp38
 70
     1
102
RTVSPost2010Prop39
140
1.0
102
RTVSPost2010PropOp39
 70
     1
102
RTVSPost2010Prop40
 90
        0
102
RTVSPost2010PropOp40
 70
     1
102
RTVSPost2010Prop41ColorIndex
 90
       18
102
RTVSPost2010Prop41ColorRGB
 90
        0
102
RTVSPost2010PropOp41
 70
     1
102
RTVSPost2010Prop42
 90
       50
102
RTVSPost2010PropOp42
 70
     1
102
RTVSPost2010Prop43
 90
        3
102
RTVSPost2010PropOp43
 70
     1
102
RTVSPost2010Prop44ColorIndex
 90
        5
102
RTVSPost2010Prop44ColorRGB
 90
      255
102
RTVSPost2010PropOp44
 70
     1
102
RTVSPost2010Prop45
280
     0
102
RTVSPost2010PropOp45
 70
     1
102
RTVSPost2010Prop46
 90
       50
102
RTVSPost2010PropOp46
 70
     1
102
RTVSPost2010Prop47
 90
       50
102
RTVSPost2010PropOp47
 70
     1
102
RTVSPost2010Prop48
 90
       50
102
RTVSPost2010PropOp48
 70
     1
102
RTVSPost2010Prop49
280
     0
102
RTVSPost2010PropOp49
 70
     1
102
RTVSPost2010Prop50
 90
       50
102
RTVSPost2010PropOp50
 70
     1
102
RTVSPost2010Prop51ColorIndex
 90
      256
102
RTVSPost2010Prop51ColorRGB
 90
-16777216
102
RTVSPost2010PropOp51
 70
     0
102
RTVSPost2010Prop52
140
1.0
102
RTVSPost2010PropOp52
 70
     0
102
RTVSPost2010Prop53
 90
        2
102
RTVSPost2010PropOp53
 70
     1
102
RTVSPost2010Prop54
  1
strokes_ogs.tif
102
RTVSPost2010PropOp54
 70
     1
102
RTVSPost2010Prop55
280
     0
102
RTVSPost2010PropOp55
 70
     1
102
RTVSPost2010Prop56
140
1.0
102
RTVSPost2010PropOp56
 70
     1
102
RTVSPost2010Prop57
140
1.0
102
RTVSPost2010PropOp57
 70
     1
102
RTVSPropertyOp0
 70
     1
102
RTVSPropertyOp1
 70
     1
102
RTVSPropertyOp2
 70
     1
102
RTVSPropertyOp3
 70
     1
102
RTVSPropertyOp4
 70
     1
102
RTVSPropertyOp5
 70
     1
102
RTVSPropertyOp6
 70
     1
102
RTVSPropertyOp7
 70
     1
102
RTVSPropertyOp8
 70
     1
102
RTVSPropertyOp9
 70
     1
102
RTVSPropertyOp10
 70
     1
102
RTVSPropertyOp11
 70
     1
102
RTVSPropertyOp12
 70
     1
102
RTVSPropertyOp13
 70
     1
102
RTVSPropertyOp14
 70
     1
102
RTVSPropertyOp15
 70
     1
102
RTVSPropertyOp16
 70
     1
102
RTVSPropertyOp17
 70
     1
102
RTVSPropertyOp18
 70
     1
102
RTVSPropertyOp19
 70
     1
102
RTVSPropertyOp20
 70
     1
102
RTVSPropertyOp21
 70
     1
102
RTVSPropertyOp22
 70
     1
102
RTVSPropertyOp23
 70
     1
102
RTVSPropertyOp24
 70
     1
102
RTVSPropertyOp25
 70
     1
102
RTVSPropertyOp26
 70
     1
102
RTVSPropertyOp27
 70
     1
102
RTVSPropertyOp28
 70
     1
102
RTVSPropertyOp29
 70
     1
102
RTVSPropertyOp30
 70
     1
102
RTVSPropertyOp31
 70
     1
102
RTVSPropertyOp32
 70
     1
102
RTVSPropertyOp33
 70
     1
102
RTVSPropertyOp34
 70
     1
102
RTVSPropertyOp35
 70
     1
102
RTVSPropertyOp36
 70
     1
102
RTVSPropertyOp37
 70
     1
102
RTVSPropertyOp38
 70
     1
102
RTVSPropertyOp39
 70
     1
102
RTVSPropertyOp40
 70
     1
102
RTVSPropertyOp41
 70
     1
102
RTVSPropertyOp42
 70
     1
102
RTVSPropertyOp43
 70
     1
102
RTVSPropertyOp44
 70
     1
102
RTVSPropertyOp45
 70
     1
102
RTVSPropertyOp46
 70
     1
102
RTVSPropertyOp47
 70
     1
102
RTVSPropertyOp48
 70
     1
102
RTVSPropertyOp49
 70
     1
102
RTVSPropertyOp50
 70
     1
102
RTVSPropertyOp51
 70
     0
102
RTVSPropertyOp52
 70
     0
102
RTVSPropertyOp53
 70
     1
102
RTVSPropertyOp54
 70
     1
102
RTVSPropertyOp55
 70
     1
102
RTVSPropertyOp56
 70
     1
102
RTVSPropertyOp57
 70
     1
102
RTVSPropertyOp58
 70
     1
102
RTVSPropertyOp59
 70
     1
102
RTVSPropertyOp60
 70
     1
102
RTVSPropertyOp61
 70
     1
102
RTVSPropertyOp62
 70
     1
  0
XRECORD
  5
18E
102
{ACAD_REACTORS
330
18D
102
}
330
18D
100
AcDbXrecord
280
     1
102
RTVSPost2010Prop28
280
     0
102
RTVSPost2010PropOp28
 70
     1
102
RTVSPost2010Prop29
280
     1
102
RTVSPost2010PropOp29
 70
     1
102
RTVSPost2010Prop30
280
     1
102
RTVSPost2010PropOp30
 70
     1
102
RTVSPost2010Prop31
280
     0
102
RTVSPost2010PropOp31
 70
     1
102
RTVSPost2010Prop32
280
     0
102
RTVSPost2010PropOp32
 70
     1
102
RTVSPost2010Prop33
280
     0
102
RTVSPost2010PropOp33
 70
     1
102
RTVSPost2010Prop34
280
     0
102
RTVSPost2010PropOp34
 70
     1
102
RTVSPost2010Prop35
280
     0
102
RTVSPost2010PropOp35
 70
     1
102
RTVSPost2010Prop36
280
     0
102
RTVSPost2010PropOp36
 70
     1
102
RTVSPost2010Prop37
 90
       50
102
RTVSPost2010PropOp37
 70
     1
102
RTVSPost2010Prop38
140
0.0
102
RTVSPost2010PropOp38
 70
     1
102
RTVSPost2010Prop39
140
1.0
102
RTVSPost2010PropOp39
 70
     1
102
RTVSPost2010Prop40
 90
        0
102
RTVSPost2010PropOp40
 70
     1
102
RTVSPost2010Prop41ColorIndex
 90
       18
102
RTVSPost2010Prop41ColorRGB
 90
        0
102
RTVSPost2010PropOp41
 70
     1
102
RTVSPost2010Prop42
 90
       50
102
RTVSPost2010PropOp42
 70
     1
102
RTVSPost2010Prop43
 90
        3
102
RTVSPost2010PropOp43
 70
     1
102
RTVSPost2010Prop44ColorIndex
 90
        5
102
RTVSPost2010Prop44ColorRGB
 90
      255
102
RTVSPost2010PropOp44
 70
     1
102
RTVSPost2010Prop45
280
     0
102
RTVSPost2010PropOp45
 70
     1
102
RTVSPost2010Prop46
 90
       50
102
RTVSPost2010PropOp46
 70
     1
102
RTVSPost2010Prop47
 90
       50
102
RTVSPost2010PropOp47
 70
     1
102
RTVSPost2010Prop48
 90
       50
102
RTVSPost2010PropOp48
 70
     1
102
RTVSPost2010Prop49
280
     0
102
RTVSPost2010PropOp49
 70
     1
102
RTVSPost2010Prop50
 90
       50
102
RTVSPost2010PropOp50
 70
     1
102
RTVSPost2010Prop51ColorIndex
 90
      256
102
RTVSPost2010Prop51ColorRGB
 90
-16777216
102
RTVSPost2010PropOp51
 70
     0
102
RTVSPost2010Prop52
140
1.0
102
RTVSPost2010PropOp52
 70
     0
102
RTVSPost2010Prop53
 90
        2
102
RTVSPost2010PropOp53
 70
     1
102
RTVSPost2010Prop54
  1
strokes_ogs.tif
102
RTVSPost2010PropOp54
 70
     1
102
RTVSPost2010Prop55
280
     0
102
RTVSPost2010PropOp55
 70
     1
102
RTVSPost2010Prop56
140
1.0
102
RTVSPost2010PropOp56
 70
     1
102
RTVSPost2010Prop57
140
1.0
102
RTVSPost2010PropOp57
 70
     1
102
RTVSPropertyOp0
 70
     1
102
RTVSPropertyOp1
 70
     1
102
RTVSPropertyOp2
 70
     1
102
RTVSPropertyOp3
 70
     1
102
RTVSPropertyOp4
 70
     1
102
RTVSPropertyOp5
 70
     1
102
RTVSPropertyOp6
 70
     1
102
RTVSPropertyOp7
 70
     1
102
RTVSPropertyOp8
 70
     1
102
RTVSPropertyOp9
 70
     1
102
RTVSPropertyOp10
 70
     1
102
RTVSPropertyOp11
 70
     1
102
RTVSPropertyOp12
 70
     1
102
RTVSPropertyOp13
 70
     1
102
RTVSPropertyOp14
 70
     1
102
RTVSPropertyOp15
 70
     1
102
RTVSPropertyOp16
 70
     1
102
RTVSPropertyOp17
 70
     1
102
RTVSPropertyOp18
 70
     1
102
RTVSPropertyOp19
 70
     1
102
RTVSPropertyOp20
 70
     1
102
RTVSPropertyOp21
 70
     1
102
RTVSPropertyOp22
 70
     1
102
RTVSPropertyOp23
 70
     1
102
RTVSPropertyOp24
 70
     1
102
RTVSPropertyOp25
 70
     1
102
RTVSPropertyOp26
 70
     1
102
RTVSPropertyOp27
 70
     1
102
RTVSPropertyOp28
 70
     1
102
RTVSPropertyOp29
 70
     1
102
RTVSPropertyOp30
 70
     1
102
RTVSPropertyOp31
 70
     1
102
RTVSPropertyOp32
 70
     1
102
RTVSPropertyOp33
 70
     1
102
RTVSPropertyOp34
 70
     1
102
RTVSPropertyOp35
 70
     1
102
RTVSPropertyOp36
 70
     1
102
RTVSPropertyOp37
 70
     1
102
RTVSPropertyOp38
 70
     1
102
RTVSPropertyOp39
 70
     1
102
RTVSPropertyOp40
 70
     1
102
RTVSPropertyOp41
 70
     1
102
RTVSPropertyOp42
 70
     1
102
RTVSPropertyOp43
 70
     1
102
RTVSPropertyOp44
 70
     1
102
RTVSPropertyOp45
 70
     1
102
RTVSPropertyOp46
 70
     1
102
RTVSPropertyOp47
 70
     1
102
RTVSPropertyOp48
 70
     1
102
RTVSPropertyOp49
 70
     1
102
RTVSPropertyOp50
 70
     1
102
RTVSPropertyOp51
 70
     0
102
RTVSPropertyOp52
 70
     0
102
RTVSPropertyOp53
 70
     1
102
RTVSPropertyOp54
 70
     1
102
RTVSPropertyOp55
 70
     1
102
RTVSPropertyOp56
 70
     1
102
RTVSPropertyOp57
 70
     1
102
RTVSPropertyOp58
 70
     1
102
RTVSPropertyOp59
 70
     1
102
RTVSPropertyOp60
 70
     1
102
RTVSPropertyOp61
 70
     1
102
RTVSPropertyOp62
 70
     1
  0
XRECORD
  5
196
102
{ACAD_REACTORS
330
195
102
}
330
195
100
AcDbXrecord
280
     1
102
RTVSPost2010Prop28
280
     0
102
RTVSPost2010PropOp28
 70
     1
102
RTVSPost2010Prop29
280
     1
102
RTVSPost2010PropOp29
 70
     1
102
RTVSPost2010Prop30
280
     1
102
RTVSPost2010PropOp30
 70
     1
102
RTVSPost2010Prop31
280
     0
102
RTVSPost2010PropOp31
 70
     1
102
RTVSPost2010Prop32
280
     0
102
RTVSPost2010PropOp32
 70
     1
102
RTVSPost2010Prop33
280
     0
102
RTVSPost2010PropOp33
 70
     1
102
RTVSPost2010Prop34
280
     0
102
RTVSPost2010PropOp34
 70
     1
102
RTVSPost2010Prop35
280
     0
102
RTVSPost2010PropOp35
 70
     1
102
RTVSPost2010Prop36
280
     0
102
RTVSPost2010PropOp36
 70
     1
102
RTVSPost2010Prop37
 90
       50
102
RTVSPost2010PropOp37
 70
     1
102
RTVSPost2010Prop38
140
0.0
102
RTVSPost2010PropOp38
 70
     1
102
RTVSPost2010Prop39
140
1.0
102
RTVSPost2010PropOp39
 70
     1
102
RTVSPost2010Prop40
 90
        0
102
RTVSPost2010PropOp40
 70
     1
102
RTVSPost2010Prop41ColorIndex
 90
       18
102
RTVSPost2010Prop41ColorRGB
 90
        0
102
RTVSPost2010PropOp41
 70
     1
102
RTVSPost2010Prop42
 90
       50
102
RTVSPost2010PropOp42
 70
     1
102
RTVSPost2010Prop43
 90
        3
102
RTVSPost2010PropOp43
 70
     1
102
RTVSPost2010Prop44ColorIndex
 90
        5
102
RTVSPost2010Prop44ColorRGB
 90
      255
102
RTVSPost2010PropOp44
 70
     1
102
RTVSPost2010Prop45
280
     0
102
RTVSPost2010PropOp45
 70
     1
102
RTVSPost2010Prop46
 90
       50
102
RTVSPost2010PropOp46
 70
     1
102
RTVSPost2010Prop47
 90
       50
102
RTVSPost2010PropOp47
 70
     1
102
RTVSPost2010Prop48
 90
       50
102
RTVSPost2010PropOp48
 70
     1
102
RTVSPost2010Prop49
280
     0
102
RTVSPost2010PropOp49
 70
     1
102
RTVSPost2010Prop50
 90
       50
102
RTVSPost2010PropOp50
 70
     1
102
RTVSPost2010Prop51ColorIndex
 90
      256
102
RTVSPost2010Prop51ColorRGB
 90
-16777216
102
RTVSPost2010PropOp51
 70
     0
102
RTVSPost2010Prop52
140
1.0
102
RTVSPost2010PropOp52
 70
     0
102
RTVSPost2010Prop53
 90
        2
102
RTVSPost2010PropOp53
 70
     1
102
RTVSPost2010Prop54
  1
strokes_ogs.tif
102
RTVSPost2010PropOp54
 70
     1
102
RTVSPost2010Prop55
280
     0
102
RTVSPost2010PropOp55
 70
     1
102
RTVSPost2010Prop56
140
1.0
102
RTVSPost2010PropOp56
 70
     1
102
RTVSPost2010Prop57
140
1.0
102
RTVSPost2010PropOp57
 70
     1
102
RTVSPropertyOp0
 70
     1
102
RTVSPropertyOp1
 70
     1
102
RTVSPropertyOp2
 70
     1
102
RTVSPropertyOp3
 70
     1
102
RTVSPropertyOp4
 70
     1
102
RTVSPropertyOp5
 70
     1
102
RTVSPropertyOp6
 70
     1
102
RTVSPropertyOp7
 70
     1
102
RTVSPropertyOp8
 70
     1
102
RTVSPropertyOp9
 70
     1
102
RTVSPropertyOp10
 70
     1
102
RTVSPropertyOp11
 70
     1
102
RTVSPropertyOp12
 70
     1
102
RTVSPropertyOp13
 70
     1
102
RTVSPropertyOp14
 70
     1
102
RTVSPropertyOp15
 70
     1
102
RTVSPropertyOp16
 70
     1
102
RTVSPropertyOp17
 70
     1
102
RTVSPropertyOp18
 70
     1
102
RTVSPropertyOp19
 70
     1
102
RTVSPropertyOp20
 70
     1
102
RTVSPropertyOp21
 70
     1
102
RTVSPropertyOp22
 70
     1
102
RTVSPropertyOp23
 70
     1
102
RTVSPropertyOp24
 70
     1
102
RTVSPropertyOp25
 70
     1
102
RTVSPropertyOp26
 70
     1
102
RTVSPropertyOp27
 70
     1
102
RTVSPropertyOp28
 70
     1
102
RTVSPropertyOp29
 70
     1
102
RTVSPropertyOp30
 70
     1
102
RTVSPropertyOp31
 70
     1
102
RTVSPropertyOp32
 70
     1
102
RTVSPropertyOp33
 70
     1
102
RTVSPropertyOp34
 70
     1
102
RTVSPropertyOp35
 70
     1
102
RTVSPropertyOp36
 70
     1
102
RTVSPropertyOp37
 70
     1
102
RTVSPropertyOp38
 70
     1
102
RTVSPropertyOp39
 70
     1
102
RTVSPropertyOp40
 70
     1
102
RTVSPropertyOp41
 70
     1
102
RTVSPropertyOp42
 70
     1
102
RTVSPropertyOp43
 70
     1
102
RTVSPropertyOp44
 70
     1
102
RTVSPropertyOp45
 70
     1
102
RTVSPropertyOp46
 70
     1
102
RTVSPropertyOp47
 70
     1
102
RTVSPropertyOp48
 70
     1
102
RTVSPropertyOp49
 70
     1
102
RTVSPropertyOp50
 70
     1
102
RTVSPropertyOp51
 70
     0
102
RTVSPropertyOp52
 70
     0
102
RTVSPropertyOp53
 70
     1
102
RTVSPropertyOp54
 70
     1
102
RTVSPropertyOp55
 70
     1
102
RTVSPropertyOp56
 70
     1
102
RTVSPropertyOp57
 70
     1
102
RTVSPropertyOp58
 70
     1
102
RTVSPropertyOp59
 70
     1
102
RTVSPropertyOp60
 70
     1
102
RTVSPropertyOp61
 70
     1
102
RTVSPropertyOp62
 70
     1
  0
XRECORD
  5
1B2
102
{ACAD_REACTORS
330
1B1
102
}
330
1B1
100
AcDbXrecord
280
     1
102
RTVSPost2010Prop28
280
     0
102
RTVSPost2010PropOp28
 70
     0
102
RTVSPost2010Prop29
280
     1
102
RTVSPost2010PropOp29
 70
     0
102
RTVSPost2010Prop30
280
     1
102
RTVSPost2010PropOp30
 70
     0
102
RTVSPost2010Prop31
280
     0
102
RTVSPost2010PropOp31
 70
     0
102
RTVSPost2010Prop32
280
     0
102
RTVSPost2010PropOp32
 70
     0
102
RTVSPost2010Prop33
280
     0
102
RTVSPost2010PropOp33
 70
     0
102
RTVSPost2010Prop34
280
     0
102
RTVSPost2010PropOp34
 70
     0
102
RTVSPost2010Prop35
280
     0
102
RTVSPost2010PropOp35
 70
     0
102
RTVSPost2010Prop36
280
     0
102
RTVSPost2010PropOp36
 70
     0
102
RTVSPost2010Prop37
 90
       50
102
RTVSPost2010PropOp37
 70
     0
102
RTVSPost2010Prop38
140
0.0
102
RTVSPost2010PropOp38
 70
     0
102
RTVSPost2010Prop39
140
1.0
102
RTVSPost2010PropOp39
 70
     0
102
RTVSPost2010Prop40
 90
        0
102
RTVSPost2010PropOp40
 70
     0
102
RTVSPost2010Prop41ColorIndex
 90
       18
102
RTVSPost2010Prop41ColorRGB
 90
        0
102
RTVSPost2010PropOp41
 70
     0
102
RTVSPost2010Prop42
 90
       50
102
RTVSPost2010PropOp42
 70
     0
102
RTVSPost2010Prop43
 90
        3
102
RTVSPost2010PropOp43
 70
     0
102
RTVSPost2010Prop44ColorIndex
 90
        5
102
RTVSPost2010Prop44ColorRGB
 90
      255
102
RTVSPost2010PropOp44
 70
     0
102
RTVSPost2010Prop45
280
     0
102
RTVSPost2010PropOp45
 70
     0
102
RTVSPost2010Prop46
 90
       50
102
RTVSPost2010PropOp46
 70
     0
102
RTVSPost2010Prop47
 90
       50
102
RTVSPost2010PropOp47
 70
     0
102
RTVSPost2010Prop48
 90
       50
102
RTVSPost2010PropOp48
 70
     0
102
RTVSPost2010Prop49
280
     0
102
RTVSPost2010PropOp49
 70
     0
102
RTVSPost2010Prop50
 90
       50
102
RTVSPost2010PropOp50
 70
     0
102
RTVSPost2010Prop51ColorIndex
 90
      256
102
RTVSPost2010Prop51ColorRGB
 90
-16777216
102
RTVSPost2010PropOp51
 70
     0
102
RTVSPost2010Prop52
140
1.0
102
RTVSPost2010PropOp52
 70
     0
102
RTVSPost2010Prop53
 90
        2
102
RTVSPost2010PropOp53
 70
     0
102
RTVSPost2010Prop54
  1
strokes_ogs.tif
102
RTVSPost2010PropOp54
 70
     0
102
RTVSPost2010Prop55
280
     0
102
RTVSPost2010PropOp55
 70
     0
102
RTVSPost2010Prop56
140
1.0
102
RTVSPost2010PropOp56
 70
     0
102
RTVSPost2010Prop57
140
1.0
102
RTVSPost2010PropOp57
 70
     0
102
RTVSPropertyOp0
 70
     0
102
RTVSPropertyOp1
 70
     0
102
RTVSPropertyOp2
 70
     0
102
RTVSPropertyOp3
 70
     0
102
RTVSPropertyOp4
 70
     0
102
RTVSPropertyOp5
 70
     0
102
RTVSPropertyOp6
 70
     0
102
RTVSPropertyOp7
 70
     0
102
RTVSPropertyOp8
 70
     0
102
RTVSPropertyOp9
 70
     0
102
RTVSPropertyOp10
 70
     0
102
RTVSPropertyOp11
 70
     0
102
RTVSPropertyOp12
 70
     0
102
RTVSPropertyOp13
 70
     0
102
RTVSPropertyOp14
 70
     2
102
RTVSPropertyOp15
 70
     0
102
RTVSPropertyOp16
 70
     0
102
RTVSPropertyOp17
 70
     0
102
RTVSPropertyOp18
 70
     0
102
RTVSPropertyOp19
 70
     0
102
RTVSPropertyOp20
 70
     0
102
RTVSPropertyOp21
 70
     0
102
RTVSPropertyOp22
 70
     0
102
RTVSPropertyOp23
 70
     0
102
RTVSPropertyOp24
 70
     0
102
RTVSPropertyOp25
 70
     0
102
RTVSPropertyOp26
 70
     0
102
RTVSPropertyOp27
 70
     0
102
RTVSPropertyOp28
 70
     0
102
RTVSPropertyOp29
 70
     0
102
RTVSPropertyOp30
 70
     0
102
RTVSPropertyOp31
 70
     0
102
RTVSPropertyOp32
 70
     0
102
RTVSPropertyOp33
 70
     0
102
RTVSPropertyOp34
 70
     0
102
RTVSPropertyOp35
 70
     0
102
RTVSPropertyOp36
 70
     0
102
RTVSPropertyOp37
 70
     0
102
RTVSPropertyOp38
 70
     0
102
RTVSPropertyOp39
 70
     0
102
RTVSPropertyOp40
 70
     0
102
RTVSPropertyOp41
 70
     0
102
RTVSPropertyOp42
 70
     0
102
RTVSPropertyOp43
 70
     0
102
RTVSPropertyOp44
 70
     0
102
RTVSPropertyOp45
 70
     0
102
RTVSPropertyOp46
 70
     0
102
RTVSPropertyOp47
 70
     0
102
RTVSPropertyOp48
 70
     0
102
RTVSPropertyOp49
 70
     0
102
RTVSPropertyOp50
 70
     0
102
RTVSPropertyOp51
 70
     0
102
RTVSPropertyOp52
 70
     0
102
RTVSPropertyOp53
 70
     0
102
RTVSPropertyOp54
 70
     0
102
RTVSPropertyOp55
 70
     0
102
RTVSPropertyOp56
 70
     0
102
RTVSPropertyOp57
 70
     0
102
RTVSPropertyOp58
 70
     0
102
RTVSPropertyOp59
 70
     0
102
RTVSPropertyOp60
 70
     0
102
RTVSPropertyOp61
 70
     0
102
RTVSPropertyOp62
 70
     0
  0
XRECORD
  5
1A2
102
{ACAD_REACTORS
330
1A1
102
}
330
1A1
100
AcDbXrecord
280
     1
102
RTVSPost2010Prop28
280
     0
102
RTVSPost2010PropOp28
 70
     1
102
RTVSPost2010Prop29
280
     1
102
RTVSPost2010PropOp29
 70
     1
102
RTVSPost2010Prop30
280
     1
102
RTVSPost2010PropOp30
 70
     1
102
RTVSPost2010Prop31
280
     0
102
RTVSPost2010PropOp31
 70
     1
102
RTVSPost2010Prop32
280
     0
102
RTVSPost2010PropOp32
 70
     1
102
RTVSPost2010Prop33
280
     0
102
RTVSPost2010PropOp33
 70
     1
102
RTVSPost2010Prop34
280
     0
102
RTVSPost2010PropOp34
 70
     1
102
RTVSPost2010Prop35
280
     0
102
RTVSPost2010PropOp35
 70
     1
102
RTVSPost2010Prop36
280
     0
102
RTVSPost2010PropOp36
 70
     1
102
RTVSPost2010Prop37
 90
       50
102
RTVSPost2010PropOp37
 70
     1
102
RTVSPost2010Prop38
140
0.0
102
RTVSPost2010PropOp38
 70
     1
102
RTVSPost2010Prop39
140
1.0
102
RTVSPost2010PropOp39
 70
     1
102
RTVSPost2010Prop40
 90
        0
102
RTVSPost2010PropOp40
 70
     1
102
RTVSPost2010Prop41ColorIndex
 90
       18
102
RTVSPost2010Prop41ColorRGB
 90
        0
102
RTVSPost2010PropOp41
 70
     1
102
RTVSPost2010Prop42
 90
       50
102
RTVSPost2010PropOp42
 70
     1
102
RTVSPost2010Prop43
 90
        3
102
RTVSPost2010PropOp43
 70
     1
102
RTVSPost2010Prop44ColorIndex
 90
        5
102
RTVSPost2010Prop44ColorRGB
 90
      255
102
RTVSPost2010PropOp44
 70
     1
102
RTVSPost2010Prop45
280
     0
102
RTVSPost2010PropOp45
 70
     1
102
RTVSPost2010Prop46
 90
       50
102
RTVSPost2010PropOp46
 70
     1
102
RTVSPost2010Prop47
 90
       50
102
RTVSPost2010PropOp47
 70
     1
102
RTVSPost2010Prop48
 90
       50
102
RTVSPost2010PropOp48
 70
     1
102
RTVSPost2010Prop49
280
     0
102
RTVSPost2010PropOp49
 70
     1
102
RTVSPost2010Prop50
 90
       50
102
RTVSPost2010PropOp50
 70
     1
102
RTVSPost2010Prop51ColorIndex
 90
      256
102
RTVSPost2010Prop51ColorRGB
 90
-16777216
102
RTVSPost2010PropOp51
 70
     0
102
RTVSPost2010Prop52
140
1.0
102
RTVSPost2010PropOp52
 70
     0
102
RTVSPost2010Prop53
 90
        2
102
RTVSPost2010PropOp53
 70
     1
102
RTVSPost2010Prop54
  1
strokes_ogs.tif
102
RTVSPost2010PropOp54
 70
     1
102
RTVSPost2010Prop55
280
     0
102
RTVSPost2010PropOp55
 70
     1
102
RTVSPost2010Prop56
140
1.0
102
RTVSPost2010PropOp56
 70
     1
102
RTVSPost2010Prop57
140
1.0
102
RTVSPost2010PropOp57
 70
     1
102
RTVSPropertyOp0
 70
     1
102
RTVSPropertyOp1
 70
     1
102
RTVSPropertyOp2
 70
     1
102
RTVSPropertyOp3
 70
     1
102
RTVSPropertyOp4
 70
     1
102
RTVSPropertyOp5
 70
     1
102
RTVSPropertyOp6
 70
     1
102
RTVSPropertyOp7
 70
     1
102
RTVSPropertyOp8
 70
     1
102
RTVSPropertyOp9
 70
     1
102
RTVSPropertyOp10
 70
     1
102
RTVSPropertyOp11
 70
     1
102
RTVSPropertyOp12
 70
     1
102
RTVSPropertyOp13
 70
     1
102
RTVSPropertyOp14
 70
     1
102
RTVSPropertyOp15
 70
     1
102
RTVSPropertyOp16
 70
     1
102
RTVSPropertyOp17
 70
     1
102
RTVSPropertyOp18
 70
     1
102
RTVSPropertyOp19
 70
     1
102
RTVSPropertyOp20
 70
     1
102
RTVSPropertyOp21
 70
     1
102
RTVSPropertyOp22
 70
     1
102
RTVSPropertyOp23
 70
     1
102
RTVSPropertyOp24
 70
     1
102
RTVSPropertyOp25
 70
     1
102
RTVSPropertyOp26
 70
     1
102
RTVSPropertyOp27
 70
     1
102
RTVSPropertyOp28
 70
     1
102
RTVSPropertyOp29
 70
     1
102
RTVSPropertyOp30
 70
     1
102
RTVSPropertyOp31
 70
     1
102
RTVSPropertyOp32
 70
     1
102
RTVSPropertyOp33
 70
     1
102
RTVSPropertyOp34
 70
     1
102
RTVSPropertyOp35
 70
     1
102
RTVSPropertyOp36
 70
     1
102
RTVSPropertyOp37
 70
     1
102
RTVSPropertyOp38
 70
     1
102
RTVSPropertyOp39
 70
     1
102
RTVSPropertyOp40
 70
     1
102
RTVSPropertyOp41
 70
     1
102
RTVSPropertyOp42
 70
     1
102
RTVSPropertyOp43
 70
     1
102
RTVSPropertyOp44
 70
     1
102
RTVSPropertyOp45
 70
     1
102
RTVSPropertyOp46
 70
     1
102
RTVSPropertyOp47
 70
     1
102
RTVSPropertyOp48
 70
     1
102
RTVSPropertyOp49
 70
     1
102
RTVSPropertyOp50
 70
     1
102
RTVSPropertyOp51
 70
     0
102
RTVSPropertyOp52
 70
     0
102
RTVSPropertyOp53
 70
     1
102
RTVSPropertyOp54
 70
     1
102
RTVSPropertyOp55
 70
     1
102
RTVSPropertyOp56
 70
     1
102
RTVSPropertyOp57
 70
     1
102
RTVSPropertyOp58
 70
     1
102
RTVSPropertyOp59
 70
     1
102
RTVSPropertyOp60
 70
     1
102
RTVSPropertyOp61
 70
     1
102
RTVSPropertyOp62
 70
     1
  0
XRECORD
  5
1B4
102
{ACAD_REACTORS
330
1B3
102
}
330
1B3
100
AcDbXrecord
280
     1
102
RTVSPost2010Prop28
280
     0
102
RTVSPost2010PropOp28
 70
     0
102
RTVSPost2010Prop29
280
     1
102
RTVSPost2010PropOp29
 70
     0
102
RTVSPost2010Prop30
280
     1
102
RTVSPost2010PropOp30
 70
     0
102
RTVSPost2010Prop31
280
     0
102
RTVSPost2010PropOp31
 70
     0
102
RTVSPost2010Prop32
280
     0
102
RTVSPost2010PropOp32
 70
     0
102
RTVSPost2010Prop33
280
     0
102
RTVSPost2010PropOp33
 70
     0
102
RTVSPost2010Prop34
280
     0
102
RTVSPost2010PropOp34
 70
     0
102
RTVSPost2010Prop35
280
     0
102
RTVSPost2010PropOp35
 70
     0
102
RTVSPost2010Prop36
280
     0
102
RTVSPost2010PropOp36
 70
     0
102
RTVSPost2010Prop37
 90
       50
102
RTVSPost2010PropOp37
 70
     0
102
RTVSPost2010Prop38
140
0.0
102
RTVSPost2010PropOp38
 70
     0
102
RTVSPost2010Prop39
140
1.0
102
RTVSPost2010PropOp39
 70
     0
102
RTVSPost2010Prop40
 90
        0
102
RTVSPost2010PropOp40
 70
     0
102
RTVSPost2010Prop41ColorIndex
 90
       18
102
RTVSPost2010Prop41ColorRGB
 90
        0
102
RTVSPost2010PropOp41
 70
     0
102
RTVSPost2010Prop42
 90
       50
102
RTVSPost2010PropOp42
 70
     0
102
RTVSPost2010Prop43
 90
        3
102
RTVSPost2010PropOp43
 70
     0
102
RTVSPost2010Prop44ColorIndex
 90
        5
102
RTVSPost2010Prop44ColorRGB
 90
      255
102
RTVSPost2010PropOp44
 70
     0
102
RTVSPost2010Prop45
280
     0
102
RTVSPost2010PropOp45
 70
     0
102
RTVSPost2010Prop46
 90
       50
102
RTVSPost2010PropOp46
 70
     0
102
RTVSPost2010Prop47
 90
       50
102
RTVSPost2010PropOp47
 70
     0
102
RTVSPost2010Prop48
 90
       50
102
RTVSPost2010PropOp48
 70
     0
102
RTVSPost2010Prop49
280
     0
102
RTVSPost2010PropOp49
 70
     0
102
RTVSPost2010Prop50
 90
       50
102
RTVSPost2010PropOp50
 70
     0
102
RTVSPost2010Prop51ColorIndex
 90
      256
102
RTVSPost2010Prop51ColorRGB
 90
-16777216
102
RTVSPost2010PropOp51
 70
     0
102
RTVSPost2010Prop52
140
1.0
102
RTVSPost2010PropOp52
 70
     0
102
RTVSPost2010Prop53
 90
        2
102
RTVSPost2010PropOp53
 70
     0
102
RTVSPost2010Prop54
  1
strokes_ogs.tif
102
RTVSPost2010PropOp54
 70
     0
102
RTVSPost2010Prop55
280
     0
102
RTVSPost2010PropOp55
 70
     0
102
RTVSPost2010Prop56
140
1.0
102
RTVSPost2010PropOp56
 70
     0
102
RTVSPost2010Prop57
140
1.0
102
RTVSPost2010PropOp57
 70
     0
102
RTVSPropertyOp0
 70
     0
102
RTVSPropertyOp1
 70
     0
102
RTVSPropertyOp2
 70
     0
102
RTVSPropertyOp3
 70
     0
102
RTVSPropertyOp4
 70
     0
102
RTVSPropertyOp5
 70
     0
102
RTVSPropertyOp6
 70
     0
102
RTVSPropertyOp7
 70
     0
102
RTVSPropertyOp8
 70
     0
102
RTVSPropertyOp9
 70
     0
102
RTVSPropertyOp10
 70
     0
102
RTVSPropertyOp11
 70
     0
102
RTVSPropertyOp12
 70
     0
102
RTVSPropertyOp13
 70
     0
102
RTVSPropertyOp14
 70
     2
102
RTVSPropertyOp15
 70
     0
102
RTVSPropertyOp16
 70
     0
102
RTVSPropertyOp17
 70
     0
102
RTVSPropertyOp18
 70
     0
102
RTVSPropertyOp19
 70
     0
102
RTVSPropertyOp20
 70
     0
102
RTVSPropertyOp21
 70
     0
102
RTVSPropertyOp22
 70
     0
102
RTVSPropertyOp23
 70
     0
102
RTVSPropertyOp24
 70
     0
102
RTVSPropertyOp25
 70
     0
102
RTVSPropertyOp26
 70
     0
102
RTVSPropertyOp27
 70
     0
102
RTVSPropertyOp28
 70
     0
102
RTVSPropertyOp29
 70
     0
102
RTVSPropertyOp30
 70
     0
102
RTVSPropertyOp31
 70
     0
102
RTVSPropertyOp32
 70
     0
102
RTVSPropertyOp33
 70
     0
102
RTVSPropertyOp34
 70
     0
102
RTVSPropertyOp35
 70
     0
102
RTVSPropertyOp36
 70
     0
102
RTVSPropertyOp37
 70
     0
102
RTVSPropertyOp38
 70
     0
102
RTVSPropertyOp39
 70
     0
102
RTVSPropertyOp40
 70
     0
102
RTVSPropertyOp41
 70
     0
102
RTVSPropertyOp42
 70
     0
102
RTVSPropertyOp43
 70
     0
102
RTVSPropertyOp44
 70
     0
102
RTVSPropertyOp45
 70
     0
102
RTVSPropertyOp46
 70
     0
102
RTVSPropertyOp47
 70
     0
102
RTVSPropertyOp48
 70
     0
102
RTVSPropertyOp49
 70
     0
102
RTVSPropertyOp50
 70
     0
102
RTVSPropertyOp51
 70
     0
102
RTVSPropertyOp52
 70
     0
102
RTVSPropertyOp53
 70
     0
102
RTVSPropertyOp54
 70
     0
102
RTVSPropertyOp55
 70
     0
102
RTVSPropertyOp56
 70
     0
102
RTVSPropertyOp57
 70
     0
102
RTVSPropertyOp58
 70
     0
102
RTVSPropertyOp59
 70
     0
102
RTVSPropertyOp60
 70
     0
102
RTVSPropertyOp61
 70
     0
102
RTVSPropertyOp62
 70
     0
  0
XRECORD
  5
19A
102
{ACAD_REACTORS
330
199
102
}
330
199
100
AcDbXrecord
280
     1
102
RTVSPost2010Prop28
280
     0
102
RTVSPost2010PropOp28
 70
     1
102
RTVSPost2010Prop29
280
     1
102
RTVSPost2010PropOp29
 70
     1
102
RTVSPost2010Prop30
280
     1
102
RTVSPost2010PropOp30
 70
     1
102
RTVSPost2010Prop31
280
     0
102
RTVSPost2010PropOp31
 70
     1
102
RTVSPost2010Prop32
280
     0
102
RTVSPost2010PropOp32
 70
     1
102
RTVSPost2010Prop33
280
     0
102
RTVSPost2010PropOp33
 70
     1
102
RTVSPost2010Prop34
280
     0
102
RTVSPost2010PropOp34
 70
     1
102
RTVSPost2010Prop35
280
     0
102
RTVSPost2010PropOp35
 70
     1
102
RTVSPost2010Prop36
280
     0
102
RTVSPost2010PropOp36
 70
     1
102
RTVSPost2010Prop37
 90
       50
102
RTVSPost2010PropOp37
 70
     1
102
RTVSPost2010Prop38
140
0.0
102
RTVSPost2010PropOp38
 70
     1
102
RTVSPost2010Prop39
140
1.0
102
RTVSPost2010PropOp39
 70
     1
102
RTVSPost2010Prop40
 90
        0
102
RTVSPost2010PropOp40
 70
     1
102
RTVSPost2010Prop41ColorIndex
 90
       18
102
RTVSPost2010Prop41ColorRGB
 90
        0
102
RTVSPost2010PropOp41
 70
     1
102
RTVSPost2010Prop42
 90
       50
102
RTVSPost2010PropOp42
 70
     1
102
RTVSPost2010Prop43
 90
        3
102
RTVSPost2010PropOp43
 70
     1
102
RTVSPost2010Prop44ColorIndex
 90
        5
102
RTVSPost2010Prop44ColorRGB
 90
      255
102
RTVSPost2010PropOp44
 70
     1
102
RTVSPost2010Prop45
280
     0
102
RTVSPost2010PropOp45
 70
     1
102
RTVSPost2010Prop46
 90
       50
102
RTVSPost2010PropOp46
 70
     1
102
RTVSPost2010Prop47
 90
       50
102
RTVSPost2010PropOp47
 70
     1
102
RTVSPost2010Prop48
 90
       50
102
RTVSPost2010PropOp48
 70
     1
102
RTVSPost2010Prop49
280
     0
102
RTVSPost2010PropOp49
 70
     1
102
RTVSPost2010Prop50
 90
       50
102
RTVSPost2010PropOp50
 70
     1
102
RTVSPost2010Prop51ColorIndex
 90
      256
102
RTVSPost2010Prop51ColorRGB
 90
-16777216
102
RTVSPost2010PropOp51
 70
     0
102
RTVSPost2010Prop52
140
1.0
102
RTVSPost2010PropOp52
 70
     0
102
RTVSPost2010Prop53
 90
        2
102
RTVSPost2010PropOp53
 70
     1
102
RTVSPost2010Prop54
  1
strokes_ogs.tif
102
RTVSPost2010PropOp54
 70
     1
102
RTVSPost2010Prop55
280
     0
102
RTVSPost2010PropOp55
 70
     1
102
RTVSPost2010Prop56
140
1.0
102
RTVSPost2010PropOp56
 70
     1
102
RTVSPost2010Prop57
140
1.0
102
RTVSPost2010PropOp57
 70
     1
102
RTVSPropertyOp0
 70
     1
102
RTVSPropertyOp1
 70
     1
102
RTVSPropertyOp2
 70
     1
102
RTVSPropertyOp3
 70
     1
102
RTVSPropertyOp4
 70
     1
102
RTVSPropertyOp5
 70
     1
102
RTVSPropertyOp6
 70
     1
102
RTVSPropertyOp7
 70
     1
102
RTVSPropertyOp8
 70
     1
102
RTVSPropertyOp9
 70
     1
102
RTVSPropertyOp10
 70
     1
102
RTVSPropertyOp11
 70
     1
102
RTVSPropertyOp12
 70
     1
102
RTVSPropertyOp13
 70
     1
102
RTVSPropertyOp14
 70
     1
102
RTVSPropertyOp15
 70
     1
102
RTVSPropertyOp16
 70
     1
102
RTVSPropertyOp17
 70
     1
102
RTVSPropertyOp18
 70
     1
102
RTVSPropertyOp19
 70
     1
102
RTVSPropertyOp20
 70
     1
102
RTVSPropertyOp21
 70
     1
102
RTVSPropertyOp22
 70
     1
102
RTVSPropertyOp23
 70
     1
102
RTVSPropertyOp24
 70
     1
102
RTVSPropertyOp25
 70
     1
102
RTVSPropertyOp26
 70
     1
102
RTVSPropertyOp27
 70
     1
102
RTVSPropertyOp28
 70
     1
102
RTVSPropertyOp29
 70
     1
102
RTVSPropertyOp30
 70
     1
102
RTVSPropertyOp31
 70
     1
102
RTVSPropertyOp32
 70
     1
102
RTVSPropertyOp33
 70
     1
102
RTVSPropertyOp34
 70
     1
102
RTVSPropertyOp35
 70
     1
102
RTVSPropertyOp36
 70
     1
102
RTVSPropertyOp37
 70
     1
102
RTVSPropertyOp38
 70
     1
102
RTVSPropertyOp39
 70
     1
102
RTVSPropertyOp40
 70
     1
102
RTVSPropertyOp41
 70
     1
102
RTVSPropertyOp42
 70
     1
102
RTVSPropertyOp43
 70
     1
102
RTVSPropertyOp44
 70
     1
102
RTVSPropertyOp45
 70
     1
102
RTVSPropertyOp46
 70
     1
102
RTVSPropertyOp47
 70
     1
102
RTVSPropertyOp48
 70
     1
102
RTVSPropertyOp49
 70
     1
102
RTVSPropertyOp50
 70
     1
102
RTVSPropertyOp51
 70
     0
102
RTVSPropertyOp52
 70
     0
102
RTVSPropertyOp53
 70
     1
102
RTVSPropertyOp54
 70
     1
102
RTVSPropertyOp55
 70
     1
102
RTVSPropertyOp56
 70
     1
102
RTVSPropertyOp57
 70
     1
102
RTVSPropertyOp58
 70
     1
102
RTVSPropertyOp59
 70
     1
102
RTVSPropertyOp60
 70
     1
102
RTVSPropertyOp61
 70
     1
102
RTVSPropertyOp62
 70
     1
  0
XRECORD
  5
1B0
102
{ACAD_REACTORS
330
1AF
102
}
330
1AF
100
AcDbXrecord
280
     1
102
RTVSPost2010Prop28
280
     0
102
RTVSPost2010PropOp28
 70
     1
102
RTVSPost2010Prop29
280
     1
102
RTVSPost2010PropOp29
 70
     1
102
RTVSPost2010Prop30
280
     1
102
RTVSPost2010PropOp30
 70
     1
102
RTVSPost2010Prop31
280
     0
102
RTVSPost2010PropOp31
 70
     1
102
RTVSPost2010Prop32
280
     0
102
RTVSPost2010PropOp32
 70
     1
102
RTVSPost2010Prop33
280
     0
102
RTVSPost2010PropOp33
 70
     1
102
RTVSPost2010Prop34
280
     0
102
RTVSPost2010PropOp34
 70
     1
102
RTVSPost2010Prop35
280
     0
102
RTVSPost2010PropOp35
 70
     1
102
RTVSPost2010Prop36
280
     0
102
RTVSPost2010PropOp36
 70
     1
102
RTVSPost2010Prop37
 90
       50
102
RTVSPost2010PropOp37
 70
     1
102
RTVSPost2010Prop38
140
0.0
102
RTVSPost2010PropOp38
 70
     1
102
RTVSPost2010Prop39
140
1.0
102
RTVSPost2010PropOp39
 70
     1
102
RTVSPost2010Prop40
 90
        0
102
RTVSPost2010PropOp40
 70
     1
102
RTVSPost2010Prop41ColorIndex
 90
       18
102
RTVSPost2010Prop41ColorRGB
 90
        0
102
RTVSPost2010PropOp41
 70
     1
102
RTVSPost2010Prop42
 90
       50
102
RTVSPost2010PropOp42
 70
     1
102
RTVSPost2010Prop43
 90
        3
102
RTVSPost2010PropOp43
 70
     1
102
RTVSPost2010Prop44ColorIndex
 90
        5
102
RTVSPost2010Prop44ColorRGB
 90
      255
102
RTVSPost2010PropOp44
 70
     1
102
RTVSPost2010Prop45
280
     0
102
RTVSPost2010PropOp45
 70
     1
102
RTVSPost2010Prop46
 90
       50
102
RTVSPost2010PropOp46
 70
     1
102
RTVSPost2010Prop47
 90
       50
102
RTVSPost2010PropOp47
 70
     1
102
RTVSPost2010Prop48
 90
       50
102
RTVSPost2010PropOp48
 70
     1
102
RTVSPost2010Prop49
280
     0
102
RTVSPost2010PropOp49
 70
     1
102
RTVSPost2010Prop50
 90
       50
102
RTVSPost2010PropOp50
 70
     1
102
RTVSPost2010Prop51ColorIndex
 90
      256
102
RTVSPost2010Prop51ColorRGB
 90
-16777216
102
RTVSPost2010PropOp51
 70
     0
102
RTVSPost2010Prop52
140
1.0
102
RTVSPost2010PropOp52
 70
     0
102
RTVSPost2010Prop53
 90
        2
102
RTVSPost2010PropOp53
 70
     1
102
RTVSPost2010Prop54
  1
strokes_ogs.tif
102
RTVSPost2010PropOp54
 70
     1
102
RTVSPost2010Prop55
280
     0
102
RTVSPost2010PropOp55
 70
     1
102
RTVSPost2010Prop56
140
1.0
102
RTVSPost2010PropOp56
 70
     1
102
RTVSPost2010Prop57
140
1.0
102
RTVSPost2010PropOp57
 70
     1
102
RTVSPropertyOp0
 70
     1
102
RTVSPropertyOp1
 70
     1
102
RTVSPropertyOp2
 70
     1
102
RTVSPropertyOp3
 70
     1
102
RTVSPropertyOp4
 70
     1
102
RTVSPropertyOp5
 70
     1
102
RTVSPropertyOp6
 70
     1
102
RTVSPropertyOp7
 70
     1
102
RTVSPropertyOp8
 70
     1
102
RTVSPropertyOp9
 70
     1
102
RTVSPropertyOp10
 70
     1
102
RTVSPropertyOp11
 70
     1
102
RTVSPropertyOp12
 70
     1
102
RTVSPropertyOp13
 70
     1
102
RTVSPropertyOp14
 70
     1
102
RTVSPropertyOp15
 70
     1
102
RTVSPropertyOp16
 70
     1
102
RTVSPropertyOp17
 70
     1
102
RTVSPropertyOp18
 70
     1
102
RTVSPropertyOp19
 70
     1
102
RTVSPropertyOp20
 70
     1
102
RTVSPropertyOp21
 70
     1
102
RTVSPropertyOp22
 70
     1
102
RTVSPropertyOp23
 70
     1
102
RTVSPropertyOp24
 70
     1
102
RTVSPropertyOp25
 70
     1
102
RTVSPropertyOp26
 70
     1
102
RTVSPropertyOp27
 70
     1
102
RTVSPropertyOp28
 70
     1
102
RTVSPropertyOp29
 70
     1
102
RTVSPropertyOp30
 70
     1
102
RTVSPropertyOp31
 70
     1
102
RTVSPropertyOp32
 70
     1
102
RTVSPropertyOp33
 70
     1
102
RTVSPropertyOp34
 70
     1
102
RTVSPropertyOp35
 70
     1
102
RTVSPropertyOp36
 70
     1
102
RTVSPropertyOp37
 70
     1
102
RTVSPropertyOp38
 70
     1
102
RTVSPropertyOp39
 70
     1
102
RTVSPropertyOp40
 70
     1
102
RTVSPropertyOp41
 70
     1
102
RTVSPropertyOp42
 70
     1
102
RTVSPropertyOp43
 70
     1
102
RTVSPropertyOp44
 70
     1
102
RTVSPropertyOp45
 70
     1
102
RTVSPropertyOp46
 70
     1
102
RTVSPropertyOp47
 70
     1
102
RTVSPropertyOp48
 70
     1
102
RTVSPropertyOp49
 70
     1
102
RTVSPropertyOp50
 70
     1
102
RTVSPropertyOp51
 70
     0
102
RTVSPropertyOp52
 70
     0
102
RTVSPropertyOp53
 70
     1
102
RTVSPropertyOp54
 70
     1
102
RTVSPropertyOp55
 70
     1
102
RTVSPropertyOp56
 70
     1
102
RTVSPropertyOp57
 70
     1
102
RTVSPropertyOp58
 70
     1
102
RTVSPropertyOp59
 70
     1
102
RTVSPropertyOp60
 70
     1
102
RTVSPropertyOp61
 70
     1
102
RTVSPropertyOp62
 70
     1
  0
XRECORD
  5
1AE
102
{ACAD_REACTORS
330
1AD
102
}
330
1AD
100
AcDbXrecord
280
     1
102
RTVSPost2010Prop28
280
     0
102
RTVSPost2010PropOp28
 70
     1
102
RTVSPost2010Prop29
280
     1
102
RTVSPost2010PropOp29
 70
     1
102
RTVSPost2010Prop30
280
     1
102
RTVSPost2010PropOp30
 70
     1
102
RTVSPost2010Prop31
280
     0
102
RTVSPost2010PropOp31
 70
     1
102
RTVSPost2010Prop32
280
     0
102
RTVSPost2010PropOp32
 70
     1
102
RTVSPost2010Prop33
280
     0
102
RTVSPost2010PropOp33
 70
     1
102
RTVSPost2010Prop34
280
     0
102
RTVSPost2010PropOp34
 70
     1
102
RTVSPost2010Prop35
280
     0
102
RTVSPost2010PropOp35
 70
     1
102
RTVSPost2010Prop36
280
     0
102
RTVSPost2010PropOp36
 70
     1
102
RTVSPost2010Prop37
 90
       50
102
RTVSPost2010PropOp37
 70
     1
102
RTVSPost2010Prop38
140
0.0
102
RTVSPost2010PropOp38
 70
     1
102
RTVSPost2010Prop39
140
1.0
102
RTVSPost2010PropOp39
 70
     1
102
RTVSPost2010Prop40
 90
        0
102
RTVSPost2010PropOp40
 70
     1
102
RTVSPost2010Prop41ColorIndex
 90
       18
102
RTVSPost2010Prop41ColorRGB
 90
        0
102
RTVSPost2010PropOp41
 70
     1
102
RTVSPost2010Prop42
 90
       50
102
RTVSPost2010PropOp42
 70
     1
102
RTVSPost2010Prop43
 90
        3
102
RTVSPost2010PropOp43
 70
     1
102
RTVSPost2010Prop44ColorIndex
 90
        5
102
RTVSPost2010Prop44ColorRGB
 90
      255
102
RTVSPost2010PropOp44
 70
     1
102
RTVSPost2010Prop45
280
     0
102
RTVSPost2010PropOp45
 70
     1
102
RTVSPost2010Prop46
 90
       50
102
RTVSPost2010PropOp46
 70
     1
102
RTVSPost2010Prop47
 90
       50
102
RTVSPost2010PropOp47
 70
     1
102
RTVSPost2010Prop48
 90
       50
102
RTVSPost2010PropOp48
 70
     1
102
RTVSPost2010Prop49
280
     0
102
RTVSPost2010PropOp49
 70
     1
102
RTVSPost2010Prop50
 90
       50
102
RTVSPost2010PropOp50
 70
     1
102
RTVSPost2010Prop51ColorIndex
 90
      256
102
RTVSPost2010Prop51ColorRGB
 90
-16777216
102
RTVSPost2010PropOp51
 70
     0
102
RTVSPost2010Prop52
140
1.0
102
RTVSPost2010PropOp52
 70
     0
102
RTVSPost2010Prop53
 90
        2
102
RTVSPost2010PropOp53
 70
     1
102
RTVSPost2010Prop54
  1
strokes_ogs.tif
102
RTVSPost2010PropOp54
 70
     1
102
RTVSPost2010Prop55
280
     0
102
RTVSPost2010PropOp55
 70
     1
102
RTVSPost2010Prop56
140
1.0
102
RTVSPost2010PropOp56
 70
     1
102
RTVSPost2010Prop57
140
1.0
102
RTVSPost2010PropOp57
 70
     1
102
RTVSPropertyOp0
 70
     1
102
RTVSPropertyOp1
 70
     1
102
RTVSPropertyOp2
 70
     1
102
RTVSPropertyOp3
 70
     1
102
RTVSPropertyOp4
 70
     1
102
RTVSPropertyOp5
 70
     1
102
RTVSPropertyOp6
 70
     1
102
RTVSPropertyOp7
 70
     1
102
RTVSPropertyOp8
 70
     1
102
RTVSPropertyOp9
 70
     1
102
RTVSPropertyOp10
 70
     1
102
RTVSPropertyOp11
 70
     1
102
RTVSPropertyOp12
 70
     1
102
RTVSPropertyOp13
 70
     1
102
RTVSPropertyOp14
 70
     1
102
RTVSPropertyOp15
 70
     1
102
RTVSPropertyOp16
 70
     1
102
RTVSPropertyOp17
 70
     1
102
RTVSPropertyOp18
 70
     1
102
RTVSPropertyOp19
 70
     1
102
RTVSPropertyOp20
 70
     1
102
RTVSPropertyOp21
 70
     1
102
RTVSPropertyOp22
 70
     1
102
RTVSPropertyOp23
 70
     1
102
RTVSPropertyOp24
 70
     1
102
RTVSPropertyOp25
 70
     1
102
RTVSPropertyOp26
 70
     1
102
RTVSPropertyOp27
 70
     1
102
RTVSPropertyOp28
 70
     1
102
RTVSPropertyOp29
 70
     1
102
RTVSPropertyOp30
 70
     1
102
RTVSPropertyOp31
 70
     1
102
RTVSPropertyOp32
 70
     1
102
RTVSPropertyOp33
 70
     1
102
RTVSPropertyOp34
 70
     1
102
RTVSPropertyOp35
 70
     1
102
RTVSPropertyOp36
 70
     1
102
RTVSPropertyOp37
 70
     1
102
RTVSPropertyOp38
 70
     1
102
RTVSPropertyOp39
 70
     1
102
RTVSPropertyOp40
 70
     1
102
RTVSPropertyOp41
 70
     1
102
RTVSPropertyOp42
 70
     1
102
RTVSPropertyOp43
 70
     1
102
RTVSPropertyOp44
 70
     1
102
RTVSPropertyOp45
 70
     1
102
RTVSPropertyOp46
 70
     1
102
RTVSPropertyOp47
 70
     1
102
RTVSPropertyOp48
 70
     1
102
RTVSPropertyOp49
 70
     1
102
RTVSPropertyOp50
 70
     1
102
RTVSPropertyOp51
 70
     0
102
RTVSPropertyOp52
 70
     0
102
RTVSPropertyOp53
 70
     1
102
RTVSPropertyOp54
 70
     1
102
RTVSPropertyOp55
 70
     1
102
RTVSPropertyOp56
 70
     1
102
RTVSPropertyOp57
 70
     1
102
RTVSPropertyOp58
 70
     1
102
RTVSPropertyOp59
 70
     1
102
RTVSPropertyOp60
 70
     1
102
RTVSPropertyOp61
 70
     1
102
RTVSPropertyOp62
 70
     1
  0
XRECORD
  5
1A8
102
{ACAD_REACTORS
330
1A7
102
}
330
1A7
100
AcDbXrecord
280
     1
102
RTVSPost2010Prop28
280
     0
102
RTVSPost2010PropOp28
 70
     1
102
RTVSPost2010Prop29
280
     1
102
RTVSPost2010PropOp29
 70
     1
102
RTVSPost2010Prop30
280
     1
102
RTVSPost2010PropOp30
 70
     1
102
RTVSPost2010Prop31
280
     0
102
RTVSPost2010PropOp31
 70
     1
102
RTVSPost2010Prop32
280
     0
102
RTVSPost2010PropOp32
 70
     1
102
RTVSPost2010Prop33
280
     0
102
RTVSPost2010PropOp33
 70
     1
102
RTVSPost2010Prop34
280
     0
102
RTVSPost2010PropOp34
 70
     1
102
RTVSPost2010Prop35
280
     0
102
RTVSPost2010PropOp35
 70
     1
102
RTVSPost2010Prop36
280
     0
102
RTVSPost2010PropOp36
 70
     1
102
RTVSPost2010Prop37
 90
       50
102
RTVSPost2010PropOp37
 70
     1
102
RTVSPost2010Prop38
140
0.0
102
RTVSPost2010PropOp38
 70
     1
102
RTVSPost2010Prop39
140
1.0
102
RTVSPost2010PropOp39
 70
     1
102
RTVSPost2010Prop40
 90
        0
102
RTVSPost2010PropOp40
 70
     1
102
RTVSPost2010Prop41ColorIndex
 90
       18
102
RTVSPost2010Prop41ColorRGB
 90
        0
102
RTVSPost2010PropOp41
 70
     1
102
RTVSPost2010Prop42
 90
       50
102
RTVSPost2010PropOp42
 70
     1
102
RTVSPost2010Prop43
 90
        3
102
RTVSPost2010PropOp43
 70
     1
102
RTVSPost2010Prop44ColorIndex
 90
        5
102
RTVSPost2010Prop44ColorRGB
 90
      255
102
RTVSPost2010PropOp44
 70
     1
102
RTVSPost2010Prop45
280
     0
102
RTVSPost2010PropOp45
 70
     1
102
RTVSPost2010Prop46
 90
       50
102
RTVSPost2010PropOp46
 70
     1
102
RTVSPost2010Prop47
 90
       50
102
RTVSPost2010PropOp47
 70
     1
102
RTVSPost2010Prop48
 90
       50
102
RTVSPost2010PropOp48
 70
     1
102
RTVSPost2010Prop49
280
     0
102
RTVSPost2010PropOp49
 70
     1
102
RTVSPost2010Prop50
 90
       50
102
RTVSPost2010PropOp50
 70
     1
102
RTVSPost2010Prop51ColorIndex
 90
      256
102
RTVSPost2010Prop51ColorRGB
 90
-16777216
102
RTVSPost2010PropOp51
 70
     0
102
RTVSPost2010Prop52
140
1.0
102
RTVSPost2010PropOp52
 70
     0
102
RTVSPost2010Prop53
 90
        2
102
RTVSPost2010PropOp53
 70
     1
102
RTVSPost2010Prop54
  1
strokes_ogs.tif
102
RTVSPost2010PropOp54
 70
     1
102
RTVSPost2010Prop55
280
     0
102
RTVSPost2010PropOp55
 70
     1
102
RTVSPost2010Prop56
140
1.0
102
RTVSPost2010PropOp56
 70
     1
102
RTVSPost2010Prop57
140
1.0
102
RTVSPost2010PropOp57
 70
     1
102
RTVSPropertyOp0
 70
     1
102
RTVSPropertyOp1
 70
     1
102
RTVSPropertyOp2
 70
     1
102
RTVSPropertyOp3
 70
     1
102
RTVSPropertyOp4
 70
     1
102
RTVSPropertyOp5
 70
     1
102
RTVSPropertyOp6
 70
     1
102
RTVSPropertyOp7
 70
     1
102
RTVSPropertyOp8
 70
     1
102
RTVSPropertyOp9
 70
     1
102
RTVSPropertyOp10
 70
     1
102
RTVSPropertyOp11
 70
     1
102
RTVSPropertyOp12
 70
     1
102
RTVSPropertyOp13
 70
     1
102
RTVSPropertyOp14
 70
     1
102
RTVSPropertyOp15
 70
     1
102
RTVSPropertyOp16
 70
     1
102
RTVSPropertyOp17
 70
     1
102
RTVSPropertyOp18
 70
     1
102
RTVSPropertyOp19
 70
     1
102
RTVSPropertyOp20
 70
     1
102
RTVSPropertyOp21
 70
     1
102
RTVSPropertyOp22
 70
     1
102
RTVSPropertyOp23
 70
     1
102
RTVSPropertyOp24
 70
     1
102
RTVSPropertyOp25
 70
     1
102
RTVSPropertyOp26
 70
     1
102
RTVSPropertyOp27
 70
     1
102
RTVSPropertyOp28
 70
     1
102
RTVSPropertyOp29
 70
     1
102
RTVSPropertyOp30
 70
     1
102
RTVSPropertyOp31
 70
     1
102
RTVSPropertyOp32
 70
     1
102
RTVSPropertyOp33
 70
     1
102
RTVSPropertyOp34
 70
     1
102
RTVSPropertyOp35
 70
     1
102
RTVSPropertyOp36
 70
     1
102
RTVSPropertyOp37
 70
     1
102
RTVSPropertyOp38
 70
     1
102
RTVSPropertyOp39
 70
     1
102
RTVSPropertyOp40
 70
     1
102
RTVSPropertyOp41
 70
     1
102
RTVSPropertyOp42
 70
     1
102
RTVSPropertyOp43
 70
     1
102
RTVSPropertyOp44
 70
     1
102
RTVSPropertyOp45
 70
     1
102
RTVSPropertyOp46
 70
     1
102
RTVSPropertyOp47
 70
     1
102
RTVSPropertyOp48
 70
     1
102
RTVSPropertyOp49
 70
     1
102
RTVSPropertyOp50
 70
     1
102
RTVSPropertyOp51
 70
     0
102
RTVSPropertyOp52
 70
     0
102
RTVSPropertyOp53
 70
     1
102
RTVSPropertyOp54
 70
     1
102
RTVSPropertyOp55
 70
     1
102
RTVSPropertyOp56
 70
     1
102
RTVSPropertyOp57
 70
     1
102
RTVSPropertyOp58
 70
     1
102
RTVSPropertyOp59
 70
     1
102
RTVSPropertyOp60
 70
     1
102
RTVSPropertyOp61
 70
     1
102
RTVSPropertyOp62
 70
     1
  0
XRECORD
  5
1AA
102
{ACAD_REACTORS
330
1A9
102
}
330
1A9
100
AcDbXrecord
280
     1
102
RTVSPost2010Prop28
280
     0
102
RTVSPost2010PropOp28
 70
     1
102
RTVSPost2010Prop29
280
     1
102
RTVSPost2010PropOp29
 70
     1
102
RTVSPost2010Prop30
280
     1
102
RTVSPost2010PropOp30
 70
     1
102
RTVSPost2010Prop31
280
     0
102
RTVSPost2010PropOp31
 70
     1
102
RTVSPost2010Prop32
280
     0
102
RTVSPost2010PropOp32
 70
     1
102
RTVSPost2010Prop33
280
     0
102
RTVSPost2010PropOp33
 70
     1
102
RTVSPost2010Prop34
280
     0
102
RTVSPost2010PropOp34
 70
     1
102
RTVSPost2010Prop35
280
     0
102
RTVSPost2010PropOp35
 70
     1
102
RTVSPost2010Prop36
280
     0
102
RTVSPost2010PropOp36
 70
     1
102
RTVSPost2010Prop37
 90
       50
102
RTVSPost2010PropOp37
 70
     1
102
RTVSPost2010Prop38
140
0.0
102
RTVSPost2010PropOp38
 70
     1
102
RTVSPost2010Prop39
140
1.0
102
RTVSPost2010PropOp39
 70
     1
102
RTVSPost2010Prop40
 90
        0
102
RTVSPost2010PropOp40
 70
     1
102
RTVSPost2010Prop41ColorIndex
 90
       18
102
RTVSPost2010Prop41ColorRGB
 90
        0
102
RTVSPost2010PropOp41
 70
     1
102
RTVSPost2010Prop42
 90
       50
102
RTVSPost2010PropOp42
 70
     1
102
RTVSPost2010Prop43
 90
        3
102
RTVSPost2010PropOp43
 70
     1
102
RTVSPost2010Prop44ColorIndex
 90
        5
102
RTVSPost2010Prop44ColorRGB
 90
      255
102
RTVSPost2010PropOp44
 70
     1
102
RTVSPost2010Prop45
280
     0
102
RTVSPost2010PropOp45
 70
     1
102
RTVSPost2010Prop46
 90
       50
102
RTVSPost2010PropOp46
 70
     1
102
RTVSPost2010Prop47
 90
       50
102
RTVSPost2010PropOp47
 70
     1
102
RTVSPost2010Prop48
 90
       50
102
RTVSPost2010PropOp48
 70
     1
102
RTVSPost2010Prop49
280
     0
102
RTVSPost2010PropOp49
 70
     1
102
RTVSPost2010Prop50
 90
       50
102
RTVSPost2010PropOp50
 70
     1
102
RTVSPost2010Prop51ColorIndex
 90
      256
102
RTVSPost2010Prop51ColorRGB
 90
-16777216
102
RTVSPost2010PropOp51
 70
     0
102
RTVSPost2010Prop52
140
1.0
102
RTVSPost2010PropOp52
 70
     0
102
RTVSPost2010Prop53
 90
        2
102
RTVSPost2010PropOp53
 70
     1
102
RTVSPost2010Prop54
  1
strokes_ogs.tif
102
RTVSPost2010PropOp54
 70
     1
102
RTVSPost2010Prop55
280
     0
102
RTVSPost2010PropOp55
 70
     1
102
RTVSPost2010Prop56
140
1.0
102
RTVSPost2010PropOp56
 70
     1
102
RTVSPost2010Prop57
140
1.0
102
RTVSPost2010PropOp57
 70
     1
102
RTVSPropertyOp0
 70
     1
102
RTVSPropertyOp1
 70
     1
102
RTVSPropertyOp2
 70
     1
102
RTVSPropertyOp3
 70
     1
102
RTVSPropertyOp4
 70
     1
102
RTVSPropertyOp5
 70
     1
102
RTVSPropertyOp6
 70
     1
102
RTVSPropertyOp7
 70
     1
102
RTVSPropertyOp8
 70
     1
102
RTVSPropertyOp9
 70
     1
102
RTVSPropertyOp10
 70
     1
102
RTVSPropertyOp11
 70
     1
102
RTVSPropertyOp12
 70
     1
102
RTVSPropertyOp13
 70
     1
102
RTVSPropertyOp14
 70
     1
102
RTVSPropertyOp15
 70
     1
102
RTVSPropertyOp16
 70
     1
102
RTVSPropertyOp17
 70
     1
102
RTVSPropertyOp18
 70
     1
102
RTVSPropertyOp19
 70
     1
102
RTVSPropertyOp20
 70
     1
102
RTVSPropertyOp21
 70
     1
102
RTVSPropertyOp22
 70
     1
102
RTVSPropertyOp23
 70
     1
102
RTVSPropertyOp24
 70
     1
102
RTVSPropertyOp25
 70
     1
102
RTVSPropertyOp26
 70
     1
102
RTVSPropertyOp27
 70
     1
102
RTVSPropertyOp28
 70
     1
102
RTVSPropertyOp29
 70
     1
102
RTVSPropertyOp30
 70
     1
102
RTVSPropertyOp31
 70
     1
102
RTVSPropertyOp32
 70
     1
102
RTVSPropertyOp33
 70
     1
102
RTVSPropertyOp34
 70
     1
102
RTVSPropertyOp35
 70
     1
102
RTVSPropertyOp36
 70
     1
102
RTVSPropertyOp37
 70
     1
102
RTVSPropertyOp38
 70
     1
102
RTVSPropertyOp39
 70
     1
102
RTVSPropertyOp40
 70
     1
102
RTVSPropertyOp41
 70
     1
102
RTVSPropertyOp42
 70
     1
102
RTVSPropertyOp43
 70
     1
102
RTVSPropertyOp44
 70
     1
102
RTVSPropertyOp45
 70
     1
102
RTVSPropertyOp46
 70
     1
102
RTVSPropertyOp47
 70
     1
102
RTVSPropertyOp48
 70
     1
102
RTVSPropertyOp49
 70
     1
102
RTVSPropertyOp50
 70
     1
102
RTVSPropertyOp51
 70
     0
102
RTVSPropertyOp52
 70
     0
102
RTVSPropertyOp53
 70
     1
102
RTVSPropertyOp54
 70
     1
102
RTVSPropertyOp55
 70
     1
102
RTVSPropertyOp56
 70
     1
102
RTVSPropertyOp57
 70
     1
102
RTVSPropertyOp58
 70
     1
102
RTVSPropertyOp59
 70
     1
102
RTVSPropertyOp60
 70
     1
102
RTVSPropertyOp61
 70
     1
102
RTVSPropertyOp62
 70
     1
  0
XRECORD
  5
1A0
102
{ACAD_REACTORS
330
19F
102
}
330
19F
100
AcDbXrecord
280
     1
102
RTVSPost2010Prop28
280
     0
102
RTVSPost2010PropOp28
 70
     1
102
RTVSPost2010Prop29
280
     1
102
RTVSPost2010PropOp29
 70
     1
102
RTVSPost2010Prop30
280
     1
102
RTVSPost2010PropOp30
 70
     1
102
RTVSPost2010Prop31
280
     0
102
RTVSPost2010PropOp31
 70
     1
102
RTVSPost2010Prop32
280
     0
102
RTVSPost2010PropOp32
 70
     1
102
RTVSPost2010Prop33
280
     0
102
RTVSPost2010PropOp33
 70
     1
102
RTVSPost2010Prop34
280
     0
102
RTVSPost2010PropOp34
 70
     1
102
RTVSPost2010Prop35
280
     0
102
RTVSPost2010PropOp35
 70
     1
102
RTVSPost2010Prop36
280
     0
102
RTVSPost2010PropOp36
 70
     1
102
RTVSPost2010Prop37
 90
       50
102
RTVSPost2010PropOp37
 70
     1
102
RTVSPost2010Prop38
140
0.0
102
RTVSPost2010PropOp38
 70
     1
102
RTVSPost2010Prop39
140
1.0
102
RTVSPost2010PropOp39
 70
     1
102
RTVSPost2010Prop40
 90
        0
102
RTVSPost2010PropOp40
 70
     1
102
RTVSPost2010Prop41ColorIndex
 90
       18
102
RTVSPost2010Prop41ColorRGB
 90
        0
102
RTVSPost2010PropOp41
 70
     1
102
RTVSPost2010Prop42
 90
       50
102
RTVSPost2010PropOp42
 70
     1
102
RTVSPost2010Prop43
 90
        3
102
RTVSPost2010PropOp43
 70
     1
102
RTVSPost2010Prop44ColorIndex
 90
        5
102
RTVSPost2010Prop44ColorRGB
 90
      255
102
RTVSPost2010PropOp44
 70
     1
102
RTVSPost2010Prop45
280
     0
102
RTVSPost2010PropOp45
 70
     1
102
RTVSPost2010Prop46
 90
       50
102
RTVSPost2010PropOp46
 70
     1
102
RTVSPost2010Prop47
 90
       50
102
RTVSPost2010PropOp47
 70
     1
102
RTVSPost2010Prop48
 90
       50
102
RTVSPost2010PropOp48
 70
     1
102
RTVSPost2010Prop49
280
     0
102
RTVSPost2010PropOp49
 70
     1
102
RTVSPost2010Prop50
 90
       50
102
RTVSPost2010PropOp50
 70
     1
102
RTVSPost2010Prop51ColorIndex
 90
      256
102
RTVSPost2010Prop51ColorRGB
 90
-16777216
102
RTVSPost2010PropOp51
 70
     0
102
RTVSPost2010Prop52
140
1.0
102
RTVSPost2010PropOp52
 70
     0
102
RTVSPost2010Prop53
 90
        2
102
RTVSPost2010PropOp53
 70
     1
102
RTVSPost2010Prop54
  1
strokes_ogs.tif
102
RTVSPost2010PropOp54
 70
     1
102
RTVSPost2010Prop55
280
     0
102
RTVSPost2010PropOp55
 70
     1
102
RTVSPost2010Prop56
140
1.0
102
RTVSPost2010PropOp56
 70
     1
102
RTVSPost2010Prop57
140
1.0
102
RTVSPost2010PropOp57
 70
     1
102
RTVSPropertyOp0
 70
     1
102
RTVSPropertyOp1
 70
     1
102
RTVSPropertyOp2
 70
     1
102
RTVSPropertyOp3
 70
     1
102
RTVSPropertyOp4
 70
     1
102
RTVSPropertyOp5
 70
     1
102
RTVSPropertyOp6
 70
     1
102
RTVSPropertyOp7
 70
     1
102
RTVSPropertyOp8
 70
     1
102
RTVSPropertyOp9
 70
     1
102
RTVSPropertyOp10
 70
     1
102
RTVSPropertyOp11
 70
     1
102
RTVSPropertyOp12
 70
     1
102
RTVSPropertyOp13
 70
     1
102
RTVSPropertyOp14
 70
     1
102
RTVSPropertyOp15
 70
     1
102
RTVSPropertyOp16
 70
     1
102
RTVSPropertyOp17
 70
     1
102
RTVSPropertyOp18
 70
     1
102
RTVSPropertyOp19
 70
     1
102
RTVSPropertyOp20
 70
     1
102
RTVSPropertyOp21
 70
     1
102
RTVSPropertyOp22
 70
     1
102
RTVSPropertyOp23
 70
     1
102
RTVSPropertyOp24
 70
     1
102
RTVSPropertyOp25
 70
     1
102
RTVSPropertyOp26
 70
     1
102
RTVSPropertyOp27
 70
     1
102
RTVSPropertyOp28
 70
     1
102
RTVSPropertyOp29
 70
     1
102
RTVSPropertyOp30
 70
     1
102
RTVSPropertyOp31
 70
     1
102
RTVSPropertyOp32
 70
     1
102
RTVSPropertyOp33
 70
     1
102
RTVSPropertyOp34
 70
     1
102
RTVSPropertyOp35
 70
     1
102
RTVSPropertyOp36
 70
     1
102
RTVSPropertyOp37
 70
     1
102
RTVSPropertyOp38
 70
     1
102
RTVSPropertyOp39
 70
     1
102
RTVSPropertyOp40
 70
     1
102
RTVSPropertyOp41
 70
     1
102
RTVSPropertyOp42
 70
     1
102
RTVSPropertyOp43
 70
     1
102
RTVSPropertyOp44
 70
     1
102
RTVSPropertyOp45
 70
     1
102
RTVSPropertyOp46
 70
     1
102
RTVSPropertyOp47
 70
     1
102
RTVSPropertyOp48
 70
     1
102
RTVSPropertyOp49
 70
     1
102
RTVSPropertyOp50
 70
     1
102
RTVSPropertyOp51
 70
     0
102
RTVSPropertyOp52
 70
     0
102
RTVSPropertyOp53
 70
     1
102
RTVSPropertyOp54
 70
     1
102
RTVSPropertyOp55
 70
     1
102
RTVSPropertyOp56
 70
     1
102
RTVSPropertyOp57
 70
     1
102
RTVSPropertyOp58
 70
     1
102
RTVSPropertyOp59
 70
     1
102
RTVSPropertyOp60
 70
     1
102
RTVSPropertyOp61
 70
     1
102
RTVSPropertyOp62
 70
     1
  0
XRECORD
  5
194
102
{ACAD_REACTORS
330
193
102
}
330
193
100
AcDbXrecord
280
     1
102
RTVSPost2010Prop28
280
     0
102
RTVSPost2010PropOp28
 70
     1
102
RTVSPost2010Prop29
280
     1
102
RTVSPost2010PropOp29
 70
     1
102
RTVSPost2010Prop30
280
     1
102
RTVSPost2010PropOp30
 70
     1
102
RTVSPost2010Prop31
280
     0
102
RTVSPost2010PropOp31
 70
     1
102
RTVSPost2010Prop32
280
     0
102
RTVSPost2010PropOp32
 70
     1
102
RTVSPost2010Prop33
280
     0
102
RTVSPost2010PropOp33
 70
     1
102
RTVSPost2010Prop34
280
     0
102
RTVSPost2010PropOp34
 70
     1
102
RTVSPost2010Prop35
280
     0
102
RTVSPost2010PropOp35
 70
     1
102
RTVSPost2010Prop36
280
     0
102
RTVSPost2010PropOp36
 70
     1
102
RTVSPost2010Prop37
 90
       50
102
RTVSPost2010PropOp37
 70
     1
102
RTVSPost2010Prop38
140
0.0
102
RTVSPost2010PropOp38
 70
     1
102
RTVSPost2010Prop39
140
1.0
102
RTVSPost2010PropOp39
 70
     1
102
RTVSPost2010Prop40
 90
        0
102
RTVSPost2010PropOp40
 70
     1
102
RTVSPost2010Prop41ColorIndex
 90
       18
102
RTVSPost2010Prop41ColorRGB
 90
        0
102
RTVSPost2010PropOp41
 70
     1
102
RTVSPost2010Prop42
 90
       50
102
RTVSPost2010PropOp42
 70
     1
102
RTVSPost2010Prop43
 90
        3
102
RTVSPost2010PropOp43
 70
     1
102
RTVSPost2010Prop44ColorIndex
 90
        5
102
RTVSPost2010Prop44ColorRGB
 90
      255
102
RTVSPost2010PropOp44
 70
     1
102
RTVSPost2010Prop45
280
     0
102
RTVSPost2010PropOp45
 70
     1
102
RTVSPost2010Prop46
 90
       50
102
RTVSPost2010PropOp46
 70
     1
102
RTVSPost2010Prop47
 90
       50
102
RTVSPost2010PropOp47
 70
     1
102
RTVSPost2010Prop48
 90
       50
102
RTVSPost2010PropOp48
 70
     1
102
RTVSPost2010Prop49
280
     0
102
RTVSPost2010PropOp49
 70
     1
102
RTVSPost2010Prop50
 90
       50
102
RTVSPost2010PropOp50
 70
     1
102
RTVSPost2010Prop51ColorIndex
 90
      256
102
RTVSPost2010Prop51ColorRGB
 90
-16777216
102
RTVSPost2010PropOp51
 70
     0
102
RTVSPost2010Prop52
140
1.0
102
RTVSPost2010PropOp52
 70
     0
102
RTVSPost2010Prop53
 90
        2
102
RTVSPost2010PropOp53
 70
     1
102
RTVSPost2010Prop54
  1
strokes_ogs.tif
102
RTVSPost2010PropOp54
 70
     1
102
RTVSPost2010Prop55
280
     0
102
RTVSPost2010PropOp55
 70
     1
102
RTVSPost2010Prop56
140
1.0
102
RTVSPost2010PropOp56
 70
     1
102
RTVSPost2010Prop57
140
1.0
102
RTVSPost2010PropOp57
 70
     1
102
RTVSPropertyOp0
 70
     1
102
RTVSPropertyOp1
 70
     1
102
RTVSPropertyOp2
 70
     1
102
RTVSPropertyOp3
 70
     1
102
RTVSPropertyOp4
 70
     1
102
RTVSPropertyOp5
 70
     1
102
RTVSPropertyOp6
 70
     1
102
RTVSPropertyOp7
 70
     1
102
RTVSPropertyOp8
 70
     1
102
RTVSPropertyOp9
 70
     1
102
RTVSPropertyOp10
 70
     1
102
RTVSPropertyOp11
 70
     1
102
RTVSPropertyOp12
 70
     1
102
RTVSPropertyOp13
 70
     1
102
RTVSPropertyOp14
 70
     1
102
RTVSPropertyOp15
 70
     1
102
RTVSPropertyOp16
 70
     1
102
RTVSPropertyOp17
 70
     1
102
RTVSPropertyOp18
 70
     1
102
RTVSPropertyOp19
 70
     1
102
RTVSPropertyOp20
 70
     1
102
RTVSPropertyOp21
 70
     1
102
RTVSPropertyOp22
 70
     1
102
RTVSPropertyOp23
 70
     1
102
RTVSPropertyOp24
 70
     1
102
RTVSPropertyOp25
 70
     1
102
RTVSPropertyOp26
 70
     1
102
RTVSPropertyOp27
 70
     1
102
RTVSPropertyOp28
 70
     1
102
RTVSPropertyOp29
 70
     1
102
RTVSPropertyOp30
 70
     1
102
RTVSPropertyOp31
 70
     1
102
RTVSPropertyOp32
 70
     1
102
RTVSPropertyOp33
 70
     1
102
RTVSPropertyOp34
 70
     1
102
RTVSPropertyOp35
 70
     1
102
RTVSPropertyOp36
 70
     1
102
RTVSPropertyOp37
 70
     1
102
RTVSPropertyOp38
 70
     1
102
RTVSPropertyOp39
 70
     1
102
RTVSPropertyOp40
 70
     1
102
RTVSPropertyOp41
 70
     1
102
RTVSPropertyOp42
 70
     1
102
RTVSPropertyOp43
 70
     1
102
RTVSPropertyOp44
 70
     1
102
RTVSPropertyOp45
 70
     1
102
RTVSPropertyOp46
 70
     1
102
RTVSPropertyOp47
 70
     1
102
RTVSPropertyOp48
 70
     1
102
RTVSPropertyOp49
 70
     1
102
RTVSPropertyOp50
 70
     1
102
RTVSPropertyOp51
 70
     0
102
RTVSPropertyOp52
 70
     0
102
RTVSPropertyOp53
 70
     1
102
RTVSPropertyOp54
 70
     1
102
RTVSPropertyOp55
 70
     1
102
RTVSPropertyOp56
 70
     1
102
RTVSPropertyOp57
 70
     1
102
RTVSPropertyOp58
 70
     1
102
RTVSPropertyOp59
 70
     1
102
RTVSPropertyOp60
 70
     1
102
RTVSPropertyOp61
 70
     1
102
RTVSPropertyOp62
 70
     1
  0
XRECORD
  5
1AC
102
{ACAD_REACTORS
330
1AB
102
}
330
1AB
100
AcDbXrecord
280
     1
102
RTVSPost2010Prop28
280
     0
102
RTVSPost2010PropOp28
 70
     1
102
RTVSPost2010Prop29
280
     1
102
RTVSPost2010PropOp29
 70
     1
102
RTVSPost2010Prop30
280
     1
102
RTVSPost2010PropOp30
 70
     1
102
RTVSPost2010Prop31
280
     0
102
RTVSPost2010PropOp31
 70
     1
102
RTVSPost2010Prop32
280
     0
102
RTVSPost2010PropOp32
 70
     1
102
RTVSPost2010Prop33
280
     0
102
RTVSPost2010PropOp33
 70
     1
102
RTVSPost2010Prop34
280
     0
102
RTVSPost2010PropOp34
 70
     1
102
RTVSPost2010Prop35
280
     0
102
RTVSPost2010PropOp35
 70
     1
102
RTVSPost2010Prop36
280
     0
102
RTVSPost2010PropOp36
 70
     1
102
RTVSPost2010Prop37
 90
       50
102
RTVSPost2010PropOp37
 70
     1
102
RTVSPost2010Prop38
140
0.0
102
RTVSPost2010PropOp38
 70
     1
102
RTVSPost2010Prop39
140
1.0
102
RTVSPost2010PropOp39
 70
     1
102
RTVSPost2010Prop40
 90
        0
102
RTVSPost2010PropOp40
 70
     1
102
RTVSPost2010Prop41ColorIndex
 90
       18
102
RTVSPost2010Prop41ColorRGB
 90
        0
102
RTVSPost2010PropOp41
 70
     1
102
RTVSPost2010Prop42
 90
       50
102
RTVSPost2010PropOp42
 70
     1
102
RTVSPost2010Prop43
 90
        3
102
RTVSPost2010PropOp43
 70
     1
102
RTVSPost2010Prop44ColorIndex
 90
        5
102
RTVSPost2010Prop44ColorRGB
 90
      255
102
RTVSPost2010PropOp44
 70
     1
102
RTVSPost2010Prop45
280
     0
102
RTVSPost2010PropOp45
 70
     1
102
RTVSPost2010Prop46
 90
       50
102
RTVSPost2010PropOp46
 70
     1
102
RTVSPost2010Prop47
 90
       50
102
RTVSPost2010PropOp47
 70
     1
102
RTVSPost2010Prop48
 90
       50
102
RTVSPost2010PropOp48
 70
     1
102
RTVSPost2010Prop49
280
     0
102
RTVSPost2010PropOp49
 70
     1
102
RTVSPost2010Prop50
 90
       50
102
RTVSPost2010PropOp50
 70
     1
102
RTVSPost2010Prop51ColorIndex
 90
      256
102
RTVSPost2010Prop51ColorRGB
 90
-16777216
102
RTVSPost2010PropOp51
 70
     0
102
RTVSPost2010Prop52
140
1.0
102
RTVSPost2010PropOp52
 70
     0
102
RTVSPost2010Prop53
 90
        2
102
RTVSPost2010PropOp53
 70
     1
102
RTVSPost2010Prop54
  1
strokes_ogs.tif
102
RTVSPost2010PropOp54
 70
     1
102
RTVSPost2010Prop55
280
     0
102
RTVSPost2010PropOp55
 70
     1
102
RTVSPost2010Prop56
140
1.0
102
RTVSPost2010PropOp56
 70
     1
102
RTVSPost2010Prop57
140
1.0
102
RTVSPost2010PropOp57
 70
     1
102
RTVSPropertyOp0
 70
     1
102
RTVSPropertyOp1
 70
     1
102
RTVSPropertyOp2
 70
     1
102
RTVSPropertyOp3
 70
     1
102
RTVSPropertyOp4
 70
     1
102
RTVSPropertyOp5
 70
     1
102
RTVSPropertyOp6
 70
     1
102
RTVSPropertyOp7
 70
     1
102
RTVSPropertyOp8
 70
     1
102
RTVSPropertyOp9
 70
     1
102
RTVSPropertyOp10
 70
     1
102
RTVSPropertyOp11
 70
     1
102
RTVSPropertyOp12
 70
     1
102
RTVSPropertyOp13
 70
     1
102
RTVSPropertyOp14
 70
     1
102
RTVSPropertyOp15
 70
     1
102
RTVSPropertyOp16
 70
     1
102
RTVSPropertyOp17
 70
     1
102
RTVSPropertyOp18
 70
     1
102
RTVSPropertyOp19
 70
     1
102
RTVSPropertyOp20
 70
     1
102
RTVSPropertyOp21
 70
     1
102
RTVSPropertyOp22
 70
     1
102
RTVSPropertyOp23
 70
     1
102
RTVSPropertyOp24
 70
     1
102
RTVSPropertyOp25
 70
     1
102
RTVSPropertyOp26
 70
     1
102
RTVSPropertyOp27
 70
     1
102
RTVSPropertyOp28
 70
     1
102
RTVSPropertyOp29
 70
     1
102
RTVSPropertyOp30
 70
     1
102
RTVSPropertyOp31
 70
     1
102
RTVSPropertyOp32
 70
     1
102
RTVSPropertyOp33
 70
     1
102
RTVSPropertyOp34
 70
     1
102
RTVSPropertyOp35
 70
     1
102
RTVSPropertyOp36
 70
     1
102
RTVSPropertyOp37
 70
     1
102
RTVSPropertyOp38
 70
     1
102
RTVSPropertyOp39
 70
     1
102
RTVSPropertyOp40
 70
     1
102
RTVSPropertyOp41
 70
     1
102
RTVSPropertyOp42
 70
     1
102
RTVSPropertyOp43
 70
     1
102
RTVSPropertyOp44
 70
     1
102
RTVSPropertyOp45
 70
     1
102
RTVSPropertyOp46
 70
     1
102
RTVSPropertyOp47
 70
     1
102
RTVSPropertyOp48
 70
     1
102
RTVSPropertyOp49
 70
     1
102
RTVSPropertyOp50
 70
     1
102
RTVSPropertyOp51
 70
     0
102
RTVSPropertyOp52
 70
     0
102
RTVSPropertyOp53
 70
     1
102
RTVSPropertyOp54
 70
     1
102
RTVSPropertyOp55
 70
     1
102
RTVSPropertyOp56
 70
     1
102
RTVSPropertyOp57
 70
     1
102
RTVSPropertyOp58
 70
     1
102
RTVSPropertyOp59
 70
     1
102
RTVSPropertyOp60
 70
     1
102
RTVSPropertyOp61
 70
     1
102
RTVSPropertyOp62
 70
     1
  0
ENDSEC
  0
EOF
