  0
SECTION
  2
HEADER
  9
$ACADVER
  1
AC1014
  9
$ACADMAINTVER
 70
     9
  9
$DWGCODEPAGE
  3
ANSI_1252
  9
$INSBASE
 10
0.0
 20
0.0
 30
0.0
  9
$EXTMIN
 10
1.000000000000000E+20
 20
1.000000000000000E+20
 30
1.000000000000000E+20
  9
$EXTMAX
 10
-1.000000000000000E+20
 20
-1.000000000000000E+20
 30
-1.000000000000000E+20
  9
$LIMMIN
 10
0.0
 20
0.0
  9
$LIMMAX
 10
12.0
 20
9.0
  9
$ORTHOMODE
 70
     0
  9
$REGENMODE
 70
     1
  9
$FILLMODE
 70
     1
  9
$QTEXTMODE
 70
     0
  9
$MIRRTEXT
 70
     1
  9
$DRAGMODE
 70
     2
  9
$LTSCALE
 40
1.0
  9
$OSMODE
 70
    37
  9
$ATTMODE
 70
     1
  9
$TEXTSIZE
 40
0.2
  9
$TRACEWID
 40
0.05
  9
$TEXTSTYLE
  7
STANDARD
  9
$CLAYER
  8
0
  9
$CELTYPE
  6
BYLAYER
  9
$CECOLOR
 62
   256
  9
$CELTSCALE
 40
1.0
  9
$DELOBJ
 70
     1
  9
$DISPSILH
 70
     0
  9
$DIMSCALE
 40
1.0
  9
$DIMASZ
 40
0.18
  9
$DIMEXO
 40
0.0625
  9
$DIMDLI
 40
0.38
  9
$DIMRND
 40
0.0
  9
$DIMDLE
 40
0.0
  9
$DIMEXE
 40
0.18
  9
$DIMTP
 40
0.0
  9
$DIMTM
 40
0.0
  9
$DIMTXT
 40
0.18
  9
$DIMCEN
 40
0.09
  9
$DIMTSZ
 40
0.0
  9
$DIMTOL
 70
     0
  9
$DIMLIM
 70
     0
  9
$DIMTIH
 70
     1
  9
$DIMTOH
 70
     1
  9
$DIMSE1
 70
     0
  9
$DIMSE2
 70
     0
  9
$DIMTAD
 70
     0
  9
$DIMZIN
 70
     0
  9
$DIMBLK
  1

  9
$DIMASO
 70
     1
  9
$DIMSHO
 70
     1
  9
$DIMPOST
  1

  9
$DIMAPOST
  1

  9
$DIMALT
 70
     0
  9
$DIMALTD
 70
     2
  9
$DIMALTF
 40
25.4
  9
$DIMLFAC
 40
1.0
  9
$DIMTOFL
 70
     0
  9
$DIMTVP
 40
0.0
  9
$DIMTIX
 70
     0
  9
$DIMSOXD
 70
     0
  9
$DIMSAH
 70
     0
  9
$DIMBLK1
  1

  9
$DIMBLK2
  1

  9
$DIMSTYLE
  2
STANDARD
  9
$DIMCLRD
 70
     0
  9
$DIMCLRE
 70
     0
  9
$DIMCLRT
 70
     0
  9
$DIMTFAC
 40
1.0
  9
$DIMGAP
 40
0.09
  9
$DIMJUST
 70
     0
  9
$DIMSD1
 70
     0
  9
$DIMSD2
 70
     0
  9
$DIMTOLJ
 70
     1
  9
$DIMTZIN
 70
     0
  9
$DIMALTZ
 70
     0
  9
$DIMALTTZ
 70
     0
  9
$DIMFIT
 70
     3
  9
$DIMUPT
 70
     0
  9
$DIMUNIT
 70
     2
  9
$DIMDEC
 70
     4
  9
$DIMTDEC
 70
     4
  9
$DIMALTU
 70
     2
  9
$DIMALTTD
 70
     2
  9
$DIMTXSTY
  7
STANDARD
  9
$DIMAUNIT
 70
     0
  9
$LUNITS
 70
     2
  9
$LUPREC
 70
     4
  9
$SKETCHINC
 40
0.1
  9
$FILLETRAD
 40
0.5
  9
$AUNITS
 70
     0
  9
$AUPREC
 70
     0
  9
$MENU
  1
.
  9
$ELEVATION
 40
0.0
  9
$PELEVATION
 40
0.0
  9
$THICKNESS
 40
0.0
  9
$LIMCHECK
 70
     0
  9
$CHAMFERA
 40
0.0
  9
$CHAMFERB
 40
0.0
  9
$CHAMFERC
 40
0.0
  9
$CHAMFERD
 40
0.0
  9
$SKPOLY
 70
     0
  9
$TDCREATE
 40
2458329.887446655
  9
$TDUPDATE
 40
2458329.887446886
  9
$TDINDWG
 40
0.0000000116
  9
$TDUSRTIMER
 40
0.0000000116
  9
$USRTIMER
 70
     1
  9
$ANGBASE
 50
0.0
  9
$ANGDIR
 70
     0
  9
$PDMODE
 70
     0
  9
$PDSIZE
 40
0.0
  9
$PLINEWID
 40
0.0
  9
$COORDS
 70
     1
  9
$SPLFRAME
 70
     0
  9
$SPLINETYPE
 70
     6
  9
$SPLINESEGS
 70
     8
  9
$ATTDIA
 70
     0
  9
$ATTREQ
 70
     1
  9
$HANDLING
 70
     1
  9
$HANDSEED
  5
342
  9
$SURFTAB1
 70
     6
  9
$SURFTAB2
 70
     6
  9
$SURFTYPE
 70
     6
  9
$SURFU
 70
     6
  9
$SURFV
 70
     6
  9
$UCSNAME
  2

  9
$UCSORG
 10
0.0
 20
0.0
 30
0.0
  9
$UCSXDIR
 10
1.0
 20
0.0
 30
0.0
  9
$UCSYDIR
 10
0.0
 20
1.0
 30
0.0
  9
$PUCSNAME
  2

  9
$PUCSORG
 10
0.0
 20
0.0
 30
0.0
  9
$PUCSXDIR
 10
1.0
 20
0.0
 30
0.0
  9
$PUCSYDIR
 10
0.0
 20
1.0
 30
0.0
  9
$USERI1
 70
     0
  9
$USERI2
 70
     0
  9
$USERI3
 70
     0
  9
$USERI4
 70
     0
  9
$USERI5
 70
     0
  9
$USERR1
 40
0.0
  9
$USERR2
 40
0.0
  9
$USERR3
 40
0.0
  9
$USERR4
 40
0.0
  9
$USERR5
 40
0.0
  9
$WORLDVIEW
 70
     1
  9
$SHADEDGE
 70
     3
  9
$SHADEDIF
 70
    70
  9
$TILEMODE
 70
     1
  9
$MAXACTVP
 70
    64
  9
$PINSBASE
 10
0.0
 20
0.0
 30
0.0
  9
$PLIMCHECK
 70
     0
  9
$PEXTMIN
 10
1.000000000000000E+20
 20
1.000000000000000E+20
 30
1.000000000000000E+20
  9
$PEXTMAX
 10
-1.000000000000000E+20
 20
-1.000000000000000E+20
 30
-1.000000000000000E+20
  9
$PLIMMIN
 10
0.0
 20
0.0
  9
$PLIMMAX
 10
12.0
 20
9.0
  9
$UNITMODE
 70
     0
  9
$VISRETAIN
 70
     1
  9
$PLINEGEN
 70
     0
  9
$PSLTSCALE
 70
     1
  9
$TREEDEPTH
 70
  3020
  9
$PICKSTYLE
 70
     1
  9
$CMLSTYLE
  2
STANDARD
  9
$CMLJUST
 70
     0
  9
$CMLSCALE
 40
1.0
  9
$PROXYGRAPHICS
 70
     1
  9
$MEASUREMENT
 70
     1
  0
ENDSEC
  0
SECTION
  2
CLASSES
  0
CLASS
  1
ACDBDICTIONARYWDFLT
  2
AcDbDictionaryWithDefault
  3
ObjectDBX Classes
 90
        0
280
     0
281
     0
  0
CLASS
  1
VISUALSTYLE
  2
AcDbVisualStyle
  3
ObjectDBX Classes
 90
     4095
280
     0
281
     0
  0
CLASS
  1
MATERIAL
  2
AcDbMaterial
  3
ObjectDBX Classes
 90
     1153
280
     0
281
     0
  0
CLASS
  1
SCALE
  2
AcDbScale
  3
ObjectDBX Classes
 90
     1153
280
     0
281
     0
  0
CLASS
  1
SUN
  2
AcDbSun
  3
SCENEOE
 90
     1153
280
     0
281
     0
  0
CLASS
  1
DICTIONARYVAR
  2
AcDbDictionaryVar
  3
ObjectDBX Classes
 90
        0
280
     0
281
     0
  0
CLASS
  1
XRECORD
  2
AcDbXrecord
  3
ObjectDBX Classes
 90
        0
280
     0
281
     0
  0
CLASS
  1
LWPOLYLINE
  2
AcDbPolyline
  3
ObjectDBX Classes
 90
        0
280
     0
281
     1
  0
CLASS
  1
HATCH
  2
AcDbHatch
  3
ObjectDBX Classes
 90
        0
280
     0
281
     1
  0
CLASS
  1
ACDBPLACEHOLDER
  2
AcDbPlaceHolder
  3
ObjectDBX Classes
 90
        0
280
     0
281
     0
  0
CLASS
  1
LAYOUT
  2
AcDbLayout
  3
ObjectDBX Classes
 90
        0
280
     0
281
     0
  0
ENDSEC
  0
SECTION
  2
TABLES
  0
TABLE
  2
VPORT
  5
8
102
{ACAD_XDICTIONARY
360
338
102
}
330
0
100
AcDbSymbolTable
 70
     1
  0
VPORT
  5
29
330
8
100
AcDbSymbolTableRecord
100
AcDbViewportTableRecord
  2
*ACTIVE
 70
     0
 10
0.0
 20
0.0
 11
1.0
 21
1.0
 12
0.0
 22
0.0
 13
0.0
 23
0.0
 14
0.5
 24
0.5
 15
0.5
 25
0.5
 16
0.0
 26
0.0
 36
1.0
 17
0.0
 27
0.0
 37
-1000.0
 40
3934.327504697605
 41
1.904958677685951
 42
50.0
 43
6239.046332346776
 44
7659.803576895039
 50
0.0
 51
0.0
 71
     0
 72
   100
 73
     1
 74
     3
 75
     0
 76
     0
 77
     0
 78
     0
  0
ENDTAB
  0
TABLE
  2
LTYPE
  5
5
330
0
100
AcDbSymbolTable
 70
     1
  0
LTYPE
  5
14
330
5
100
AcDbSymbolTableRecord
100
AcDbLinetypeTableRecord
  2
BYBLOCK
 70
     0
  3

 72
    65
 73
     0
 40
0.0
  0
LTYPE
  5
15
330
5
100
AcDbSymbolTableRecord
100
AcDbLinetypeTableRecord
  2
BYLAYER
 70
     0
  3

 72
    65
 73
     0
 40
0.0
  0
LTYPE
  5
16
330
5
100
AcDbSymbolTableRecord
100
AcDbLinetypeTableRecord
  2
CONTINUOUS
 70
     0
  3
Solid line
 72
    65
 73
     0
 40
0.0
  0
ENDTAB
  0
TABLE
  2
LAYER
  5
2
330
0
100
AcDbSymbolTable
 70
     3
  0
LAYER
  5
10
330
2
100
AcDbSymbolTableRecord
100
AcDbLayerTableRecord
  2
0
 70
     0
 62
     7
  6
CONTINUOUS
  0
LAYER
  5
6A
330
2
100
AcDbSymbolTableRecord
100
AcDbLayerTableRecord
  2
PROFILEEDGES
 70
     0
 62
     7
  6
CONTINUOUS
  0
LAYER
  5
6B
330
2
100
AcDbSymbolTableRecord
100
AcDbLayerTableRecord
  2
SECTIONCUTEDGES
 70
     0
 62
     7
  6
CONTINUOUS
  0
ENDTAB
  0
TABLE
  2
STYLE
  5
3
330
0
100
AcDbSymbolTable
 70
     1
  0
STYLE
  5
11
330
3
100
AcDbSymbolTableRecord
100
AcDbTextStyleTableRecord
  2
STANDARD
 70
     0
 40
0.0
 41
1.0
 50
0.0
 71
     0
 42
0.2
  3
txt
  4

  0
ENDTAB
  0
TABLE
  2
VIEW
  5
6
330
0
100
AcDbSymbolTable
 70
     0
  0
ENDTAB
  0
TABLE
  2
UCS
  5
7
330
0
100
AcDbSymbolTable
 70
     0
  0
ENDTAB
  0
TABLE
  2
APPID
  5
9
330
0
100
AcDbSymbolTable
 70
     1
  0
APPID
  5
12
330
9
100
AcDbSymbolTableRecord
100
AcDbRegAppTableRecord
  2
ACAD
 70
     0
  0
ENDTAB
  0
TABLE
  2
DIMSTYLE
  5
A
330
0
100
AcDbSymbolTable
 70
     1
  0
DIMSTYLE
105
27
330
A
100
AcDbSymbolTableRecord
100
AcDbDimStyleTableRecord
  2
STANDARD
 70
     0
  3

  4

  5

  6

  7

 40
1.0
 41
0.18
 42
0.0625
 43
0.38
 44
0.18
 45
0.0
 46
0.0
 47
0.0
 48
0.0
140
0.18
141
0.09
142
0.0
143
25.4
144
1.0
145
0.0
146
1.0
147
0.09
 71
     0
 72
     0
 73
     1
 74
     1
 75
     0
 76
     0
 77
     0
 78
     0
170
     0
171
     2
172
     0
173
     0
174
     0
175
     0
176
     0
177
     0
178
     0
270
     2
271
     4
272
     4
273
     2
274
     2
340
11
275
     0
280
     0
281
     0
282
     0
283
     1
284
     0
285
     0
286
     0
287
     3
288
     0
  0
ENDTAB
  0
TABLE
  2
BLOCK_RECORD
  5
1
330
0
100
AcDbSymbolTable
 70
     1
  0
BLOCK_RECORD
  5
1F
330
1
100
AcDbSymbolTableRecord
100
AcDbBlockTableRecord
  2
*MODEL_SPACE
  0
BLOCK_RECORD
  5
1B
330
1
100
AcDbSymbolTableRecord
100
AcDbBlockTableRecord
  2
*PAPER_SPACE
  0
ENDTAB
  0
ENDSEC
  0
SECTION
  2
BLOCKS
  0
BLOCK
  5
20
330
1F
100
AcDbEntity
  8
0
100
AcDbBlockBegin
  2
*MODEL_SPACE
 70
     0
 10
0.0
 20
0.0
 30
0.0
  3
*MODEL_SPACE
  1

  0
ENDBLK
  5
21
330
1F
100
AcDbEntity
  8
0
100
AcDbBlockEnd
  0
BLOCK
  5
1C
330
1B
100
AcDbEntity
 67
     1
  8
0
100
AcDbBlockBegin
  2
*PAPER_SPACE
 70
     0
 10
0.0
 20
0.0
 30
0.0
  3
*PAPER_SPACE
  1

  0
ENDBLK
  5
1D
330
1B
100
AcDbEntity
 67
     1
  8
0
100
AcDbBlockEnd
  0
ENDSEC
  0
SECTION
  2
ENTITIES
  0
LINE
  5
6C
330
1F
100
AcDbEntity
  8
0
100
AcDbLine
 10
-1289.888220005685
 20
-1345.011648211056
 30
0.0
 11
-1289.888220005685
 21
-386.9977978705797
 31
0.0
  0
LINE
  5
6D
330
1F
100
AcDbEntity
  8
0
100
AcDbLine
 10
-2017.517472316584
 20
-1345.011648211056
 30
0.0
 11
-1289.888220005685
 21
-1345.011648211056
 31
0.0
  0
LINE
  5
6E
330
1F
100
AcDbEntity
  8
0
100
AcDbLine
 10
-1236.495336290226
 20
-201.188221636527
 30
0.0
 11
-1236.495336290226
 21
-212.2129072776013
 31
0.0
  0
LINE
  5
6F
330
1F
100
AcDbEntity
  8
0
100
AcDbLine
 10
-1289.888220005685
 20
-375.9731122295055
 30
0.0
 11
-1279.031024111833
 21
-374.0586956585822
 31
0.0
  0
LINE
  5
70
330
1F
100
AcDbEntity
  8
0
100
AcDbLine
 10
-1289.888220005685
 20
-386.9977978705797
 30
0.0
 11
-1289.888220005685
 21
-375.9731122295055
 31
0.0
  0
LINE
  5
71
330
1F
100
AcDbEntity
  8
0
100
AcDbLine
 10
-1279.031024111833
 20
-374.0586956585822
 30
0.0
 11
-1247.352532184079
 21
-368.4729228235637
 31
0.0
  0
LINE
  5
72
330
1F
100
AcDbEntity
  8
0
100
AcDbLine
 10
-1289.888220005685
 20
-386.9977978705797
 30
0.0
 11
-1289.799380757588
 21
-385.4724868874357
 31
0.0
  0
LINE
  5
73
330
1F
100
AcDbEntity
  8
0
100
AcDbLine
 10
-1289.799380757588
 20
-385.4724868874357
 30
0.0
 11
-1289.534064411724
 21
-383.9678031186922
 31
0.0
  0
LINE
  5
74
330
1F
100
AcDbEntity
  8
0
100
AcDbLine
 10
-1289.534064411724
 20
-383.9678031186922
 30
0.0
 11
-1289.095858916526
 21
-382.5040948310607
 31
0.0
  0
LINE
  5
75
330
1F
100
AcDbEntity
  8
0
100
AcDbLine
 10
-1289.095858916526
 20
-382.5040948310607
 30
0.0
 11
-1288.490690249582
 21
-381.1011561681635
 31
0.0
  0
LINE
  5
76
330
1F
100
AcDbEntity
  8
0
100
AcDbLine
 10
-1288.490690249582
 20
-381.1011561681635
 30
0.0
 11
-1287.726742278955
 21
-379.7779594686979
 31
0.0
  0
LINE
  5
77
330
1F
100
AcDbEntity
  8
0
100
AcDbLine
 10
-1287.726742278955
 20
-379.7779594686979
 30
0.0
 11
-1286.814346090407
 21
-378.5523986981012
 31
0.0
  0
LINE
  5
78
330
1F
100
AcDbEntity
  8
0
100
AcDbLine
 10
-1286.814346090407
 20
-378.5523986981012
 30
0.0
 11
-1285.765840277187
 21
-377.4410474633661
 31
0.0
  0
LINE
  5
79
330
1F
100
AcDbEntity
  8
0
100
AcDbLine
 10
-1285.765840277187
 20
-377.4410474633661
 30
0.0
 11
-1284.595404081725
 21
-376.4589348834373
 31
0.0
  0
LINE
  5
7A
330
1F
100
AcDbEntity
  8
0
100
AcDbLine
 10
-1284.595404081725
 20
-376.4589348834373
 30
0.0
 11
-1283.318865645699
 21
-375.6193423461598
 31
0.0
  0
LINE
  5
7B
330
1F
100
AcDbEntity
  8
0
100
AcDbLine
 10
-1283.318865645699
 20
-375.6193423461598
 30
0.0
 11
-1281.953487961576
 21
-374.9336239002931
 31
0.0
  0
LINE
  5
7C
330
1F
100
AcDbEntity
  8
0
100
AcDbLine
 10
-1281.953487961576
 20
-374.9336239002931
 30
0.0
 11
-1280.517735420251
 21
-374.4110527114785
 31
0.0
  0
LINE
  5
7D
330
1F
100
AcDbEntity
  8
0
100
AcDbLine
 10
-1280.517735420251
 20
-374.4110527114785
 30
0.0
 11
-1279.031024111833
 21
-374.0586956585822
 31
0.0
  0
LINE
  5
7E
330
1F
100
AcDbEntity
  8
0
100
AcDbLine
 10
-1247.352532184079
 20
-368.4729228235637
 30
0.0
 11
-1236.495336290226
 21
-366.5585062526404
 31
0.0
  0
LINE
  5
7F
330
1F
100
AcDbEntity
  8
0
100
AcDbLine
 10
-1236.495336290226
 20
-355.5338206115661
 30
0.0
 11
-1236.495336290226
 21
-366.5585062526404
 31
0.0
  0
LINE
  5
80
330
1F
100
AcDbEntity
  8
0
100
AcDbLine
 10
-1247.352532184079
 20
-368.4729228235637
 30
0.0
 11
-1245.865820875661
 21
-368.1205657706676
 31
0.0
  0
LINE
  5
81
330
1F
100
AcDbEntity
  8
0
100
AcDbLine
 10
-1245.865820875661
 20
-368.1205657706676
 30
0.0
 11
-1244.430068334335
 21
-367.597994581853
 31
0.0
  0
LINE
  5
82
330
1F
100
AcDbEntity
  8
0
100
AcDbLine
 10
-1244.430068334335
 20
-367.597994581853
 30
0.0
 11
-1243.064690650212
 21
-366.912276135986
 31
0.0
  0
LINE
  5
83
330
1F
100
AcDbEntity
  8
0
100
AcDbLine
 10
-1243.064690650212
 20
-366.912276135986
 30
0.0
 11
-1241.788152214187
 21
-366.0726835987087
 31
0.0
  0
LINE
  5
84
330
1F
100
AcDbEntity
  8
0
100
AcDbLine
 10
-1241.788152214187
 20
-366.0726835987087
 30
0.0
 11
-1240.617716018724
 21
-365.0905710187798
 31
0.0
  0
LINE
  5
85
330
1F
100
AcDbEntity
  8
0
100
AcDbLine
 10
-1240.617716018724
 20
-365.0905710187798
 30
0.0
 11
-1239.569210205505
 21
-363.9792197840447
 31
0.0
  0
LINE
  5
86
330
1F
100
AcDbEntity
  8
0
100
AcDbLine
 10
-1239.569210205505
 20
-363.9792197840447
 30
0.0
 11
-1238.656814016957
 21
-362.7536590134479
 31
0.0
  0
LINE
  5
87
330
1F
100
AcDbEntity
  8
0
100
AcDbLine
 10
-1238.656814016957
 20
-362.7536590134479
 30
0.0
 11
-1237.89286604633
 21
-361.4304623139823
 31
0.0
  0
LINE
  5
88
330
1F
100
AcDbEntity
  8
0
100
AcDbLine
 10
-1237.89286604633
 20
-361.4304623139823
 30
0.0
 11
-1237.287697379385
 21
-360.0275236510851
 31
0.0
  0
LINE
  5
89
330
1F
100
AcDbEntity
  8
0
100
AcDbLine
 10
-1237.287697379385
 20
-360.0275236510851
 30
0.0
 11
-1236.849491884187
 21
-358.5638153634537
 31
0.0
  0
LINE
  5
8A
330
1F
100
AcDbEntity
  8
0
100
AcDbLine
 10
-1236.849491884187
 20
-358.5638153634537
 30
0.0
 11
-1236.584175538324
 21
-357.0591315947103
 31
0.0
  0
LINE
  5
8B
330
1F
100
AcDbEntity
  8
0
100
AcDbLine
 10
-1236.584175538324
 20
-357.0591315947103
 30
0.0
 11
-1236.495336290226
 21
-355.5338206115661
 31
0.0
  0
LINE
  5
8C
330
1F
100
AcDbEntity
  8
0
100
AcDbLine
 10
-1247.352532184079
 20
-199.2738050656037
 30
0.0
 11
-1236.495336290226
 21
-201.188221636527
 31
0.0
  0
LINE
  5
8D
330
1F
100
AcDbEntity
  8
0
100
AcDbLine
 10
-1236.495336290226
 20
-212.2129072776013
 30
0.0
 11
-1236.495336290226
 21
-355.5338206115661
 31
0.0
  0
LINE
  5
8E
330
1F
100
AcDbEntity
  8
0
100
AcDbLine
 10
-1247.352532184079
 20
-199.2738050656037
 30
0.0
 11
-1245.865820875661
 21
-199.6261621185
 31
0.0
  0
LINE
  5
8F
330
1F
100
AcDbEntity
  8
0
100
AcDbLine
 10
-1245.865820875661
 20
-199.6261621185
 30
0.0
 11
-1244.430068334335
 21
-200.1487333073146
 31
0.0
  0
LINE
  5
90
330
1F
100
AcDbEntity
  8
0
100
AcDbLine
 10
-1244.430068334335
 20
-200.1487333073146
 30
0.0
 11
-1243.064690650212
 21
-200.8344517531813
 31
0.0
  0
LINE
  5
91
330
1F
100
AcDbEntity
  8
0
100
AcDbLine
 10
-1243.064690650212
 20
-200.8344517531813
 30
0.0
 11
-1241.788152214187
 21
-201.6740442904588
 31
0.0
  0
LINE
  5
92
330
1F
100
AcDbEntity
  8
0
100
AcDbLine
 10
-1241.788152214187
 20
-201.6740442904588
 30
0.0
 11
-1240.617716018725
 21
-202.6561568703876
 31
0.0
  0
LINE
  5
93
330
1F
100
AcDbEntity
  8
0
100
AcDbLine
 10
-1240.617716018725
 20
-202.6561568703876
 30
0.0
 11
-1239.569210205505
 21
-203.7675081051227
 31
0.0
  0
LINE
  5
94
330
1F
100
AcDbEntity
  8
0
100
AcDbLine
 10
-1239.569210205505
 20
-203.7675081051227
 30
0.0
 11
-1238.656814016957
 21
-204.9930688757194
 31
0.0
  0
LINE
  5
95
330
1F
100
AcDbEntity
  8
0
100
AcDbLine
 10
-1238.656814016957
 20
-204.9930688757194
 30
0.0
 11
-1237.89286604633
 21
-206.3162655751852
 31
0.0
  0
LINE
  5
96
330
1F
100
AcDbEntity
  8
0
100
AcDbLine
 10
-1237.89286604633
 20
-206.3162655751852
 30
0.0
 11
-1237.287697379385
 21
-207.7192042380823
 31
0.0
  0
LINE
  5
97
330
1F
100
AcDbEntity
  8
0
100
AcDbLine
 10
-1237.287697379385
 20
-207.7192042380823
 30
0.0
 11
-1236.849491884187
 21
-209.1829125257137
 31
0.0
  0
LINE
  5
98
330
1F
100
AcDbEntity
  8
0
100
AcDbLine
 10
-1236.849491884187
 20
-209.1829125257137
 30
0.0
 11
-1236.584175538324
 21
-210.6875962944571
 31
0.0
  0
LINE
  5
99
330
1F
100
AcDbEntity
  8
0
100
AcDbLine
 10
-1236.584175538324
 20
-210.6875962944571
 30
0.0
 11
-1236.495336290226
 21
-212.2129072776013
 31
0.0
  0
LINE
  5
9A
330
1F
100
AcDbEntity
  8
0
100
AcDbLine
 10
-1442.78205827342
 20
-164.814306788984
 30
0.0
 11
-1247.352532184079
 21
-199.2738050656037
 31
0.0
  0
LINE
  5
9B
330
1F
100
AcDbEntity
  8
0
100
AcDbLine
 10
-1455.553670738195
 20
-152.0426943242083
 30
0.0
 11
-1455.19550097093
 21
-153.6044578913975
 31
0.0
  0
LINE
  5
9C
330
1F
100
AcDbEntity
  8
0
100
AcDbLine
 10
-1455.19550097093
 20
-153.6044578913975
 30
0.0
 11
-1454.680455934618
 21
-155.121731641435
 31
0.0
  0
LINE
  5
9D
330
1F
100
AcDbEntity
  8
0
100
AcDbLine
 10
-1454.680455934618
 20
-155.121731641435
 30
0.0
 11
-1454.013869694933
 21
-156.5788019235578
 31
0.0
  0
LINE
  5
9E
330
1F
100
AcDbEntity
  8
0
100
AcDbLine
 10
-1454.013869694933
 20
-156.5788019235578
 30
0.0
 11
-1453.202645754539
 21
-157.9605785844236
 31
0.0
  0
LINE
  5
9F
330
1F
100
AcDbEntity
  8
0
100
AcDbLine
 10
-1453.202645754539
 20
-157.9605785844236
 30
0.0
 11
-1452.255185556937
 21
-159.2527512493348
 31
0.0
  0
LINE
  5
A0
330
1F
100
AcDbEntity
  8
0
100
AcDbLine
 10
-1452.255185556937
 20
-159.2527512493348
 30
0.0
 11
-1451.181301476895
 21
-160.441937527684
 31
0.0
  0
LINE
  5
A1
330
1F
100
AcDbEntity
  8
0
100
AcDbLine
 10
-1451.181301476895
 20
-160.441937527684
 30
0.0
 11
-1449.992115198546
 21
-161.5158216077263
 31
0.0
  0
LINE
  5
A2
330
1F
100
AcDbEntity
  8
0
100
AcDbLine
 10
-1449.992115198546
 20
-161.5158216077263
 30
0.0
 11
-1448.699942533635
 21
-162.4632818053276
 31
0.0
  0
LINE
  5
A3
330
1F
100
AcDbEntity
  8
0
100
AcDbLine
 10
-1448.699942533635
 20
-162.4632818053276
 30
0.0
 11
-1447.318165872769
 21
-163.2745057457222
 31
0.0
  0
LINE
  5
A4
330
1F
100
AcDbEntity
  8
0
100
AcDbLine
 10
-1447.318165872769
 20
-163.2745057457222
 30
0.0
 11
-1445.861095590646
 21
-163.9410919854069
 31
0.0
  0
LINE
  5
A5
330
1F
100
AcDbEntity
  8
0
100
AcDbLine
 10
-1445.861095590646
 20
-163.9410919854069
 30
0.0
 11
-1444.343821840609
 21
-164.4561370217187
 31
0.0
  0
LINE
  5
A6
330
1F
100
AcDbEntity
  8
0
100
AcDbLine
 10
-1444.343821840609
 20
-164.4561370217187
 30
0.0
 11
-1442.78205827342
 21
-164.814306788984
 31
0.0
  0
LINE
  5
A7
330
1F
100
AcDbEntity
  8
0
100
AcDbLine
 10
-1547.445666142514
 20
369.1027085807002
 30
0.0
 11
-1455.553670738195
 21
-152.0426943242083
 31
0.0
  0
LINE
  5
A8
330
1F
100
AcDbEntity
  8
0
100
AcDbLine
 10
-1518.177562804423
 20
411.1424243835668
 30
0.0
 11
-1541.564452736184
 21
387.755534451806
 31
0.0
  0
LINE
  5
A9
330
1F
100
AcDbEntity
  8
0
100
AcDbLine
 10
-1541.564452736184
 20
387.755534451806
 30
0.0
 11
-1542.713222375681
 21
386.5109879598996
 31
0.0
  0
LINE
  5
AA
330
1F
100
AcDbEntity
  8
0
100
AcDbLine
 10
-1542.713222375681
 20
386.5109879598996
 30
0.0
 11
-1543.758868011719
 21
385.1786243237331
 31
0.0
  0
LINE
  5
AB
330
1F
100
AcDbEntity
  8
0
100
AcDbLine
 10
-1543.758868011719
 20
385.1786243237331
 30
0.0
 11
-1544.694702040306
 21
383.7669649008956
 31
0.0
  0
LINE
  5
AC
330
1F
100
AcDbEntity
  8
0
100
AcDbLine
 10
-1544.694702040306
 20
383.7669649008956
 30
0.0
 11
-1545.514739176203
 21
382.2850381986273
 31
0.0
  0
LINE
  5
AD
330
1F
100
AcDbEntity
  8
0
100
AcDbLine
 10
-1545.514739176203
 20
382.2850381986273
 30
0.0
 11
-1546.213734732839
 21
380.7423221304707
 31
0.0
  0
LINE
  5
AE
330
1F
100
AcDbEntity
  8
0
100
AcDbLine
 10
-1546.213734732839
 20
380.7423221304707
 30
0.0
 11
-1546.78721816559
 21
379.1486833986664
 31
0.0
  0
LINE
  5
AF
330
1F
100
AcDbEntity
  8
0
100
AcDbLine
 10
-1546.78721816559
 20
379.1486833986664
 30
0.0
 11
-1547.231521663905
 21
377.5143143899875
 31
0.0
  0
LINE
  5
B0
330
1F
100
AcDbEntity
  8
0
100
AcDbLine
 10
-1547.231521663905
 20
377.5143143899875
 30
0.0
 11
-1547.543803609413
 21
375.8496679885989
 31
0.0
  0
LINE
  5
B1
330
1F
100
AcDbEntity
  8
0
100
AcDbLine
 10
-1547.543803609413
 20
375.8496679885989
 30
0.0
 11
-1547.72206674997
 21
374.1653907228659
 31
0.0
  0
LINE
  5
B2
330
1F
100
AcDbEntity
  8
0
100
AcDbLine
 10
-1547.72206674997
 20
374.1653907228659
 30
0.0
 11
-1547.765170973431
 21
372.4722546736762
 31
0.0
  0
LINE
  5
B3
330
1F
100
AcDbEntity
  8
0
100
AcDbLine
 10
-1547.765170973431
 20
372.4722546736762
 30
0.0
 11
-1547.672840599424
 21
370.7810885797689
 31
0.0
  0
LINE
  5
B4
330
1F
100
AcDbEntity
  8
0
100
AcDbLine
 10
-1547.672840599424
 20
370.7810885797689
 30
0.0
 11
-1547.445666142514
 21
369.1027085807002
 31
0.0
  0
LINE
  5
B5
330
1F
100
AcDbEntity
  8
0
100
AcDbLine
 10
-1518.177562804423
 20
411.1424243835668
 30
0.0
 11
-1516.906359529473
 21
412.3330361776918
 31
0.0
  0
LINE
  5
B6
330
1F
100
AcDbEntity
  8
0
100
AcDbLine
 10
-1516.906359529473
 20
412.3330361776918
 30
0.0
 11
-1515.56000826128
 21
413.4379581085033
 31
0.0
  0
LINE
  5
B7
330
1F
100
AcDbEntity
  8
0
100
AcDbLine
 10
-1515.56000826128
 20
413.4379581085033
 30
0.0
 11
-1514.144274282669
 21
414.4524587306627
 31
0.0
  0
LINE
  5
B8
330
1F
100
AcDbEntity
  8
0
100
AcDbLine
 10
-1514.144274282669
 20
414.4524587306627
 30
0.0
 11
-1512.665219983886
 21
415.3721937967568
 31
0.0
  0
LINE
  5
B9
330
1F
100
AcDbEntity
  8
0
100
AcDbLine
 10
-1512.665219983886
 20
415.3721937967568
 30
0.0
 11
-1511.129178902505
 21
416.1932248600328
 31
0.0
  0
LINE
  5
BA
330
1F
100
AcDbEntity
  8
0
100
AcDbLine
 10
-1511.129178902505
 20
416.1932248600328
 30
0.0
 11
-1509.542728602255
 21
416.9120361394304
 31
0.0
  0
LINE
  5
BB
330
1F
100
AcDbEntity
  8
0
100
AcDbLine
 10
-1509.542728602255
 20
416.9120361394304
 30
0.0
 11
-1507.912662506877
 21
417.5255495746975
 31
0.0
  0
LINE
  5
BC
330
1F
100
AcDbEntity
  8
0
100
AcDbLine
 10
-1507.912662506877
 20
417.5255495746975
 30
0.0
 11
-1506.245960809644
 21
418.0311380071157
 31
0.0
  0
LINE
  5
BD
330
1F
100
AcDbEntity
  8
0
100
AcDbLine
 10
-1506.245960809644
 20
418.0311380071157
 30
0.0
 11
-1504.549760583101
 21
418.4266364293982
 31
0.0
  0
LINE
  5
BE
330
1F
100
AcDbEntity
  8
0
100
AcDbLine
 10
-1504.549760583101
 20
418.4266364293982
 30
0.0
 11
-1502.831325217023
 21
418.710351256583
 31
0.0
  0
LINE
  5
BF
330
1F
100
AcDbEntity
  8
0
100
AcDbLine
 10
-1502.831325217023
 20
418.710351256583
 30
0.0
 11
-1501.098013315466
 21
418.8810675782229
 31
0.0
  0
LINE
  5
C0
330
1F
100
AcDbEntity
  8
0
100
AcDbLine
 10
-1501.098013315466
 20
418.8810675782229
 30
0.0
 11
-1499.357247186095
 21
418.9380543608203
 31
0.0
  0
LINE
  5
C1
330
1F
100
AcDbEntity
  8
0
100
AcDbLine
 10
-1466.283190262873
 20
418.9380543608203
 30
0.0
 11
-1499.357247186095
 21
418.9380543608203
 31
0.0
  0
LINE
  5
C2
330
1F
100
AcDbEntity
  8
0
100
AcDbLine
 10
-1455.258504621798
 20
429.9627400018946
 30
0.0
 11
-1455.258504621798
 21
628.4070815412307
 31
0.0
  0
LINE
  5
C3
330
1F
100
AcDbEntity
  8
0
100
AcDbLine
 10
-1466.283190262873
 20
418.9380543608203
 30
0.0
 11
-1464.84418002572
 21
419.0323720747898
 31
0.0
  0
LINE
  5
C4
330
1F
100
AcDbEntity
  8
0
100
AcDbLine
 10
-1464.84418002572
 20
419.0323720747898
 30
0.0
 11
-1463.429791652694
 21
419.3137114144627
 31
0.0
  0
LINE
  5
C5
330
1F
100
AcDbEntity
  8
0
100
AcDbLine
 10
-1463.429791652694
 20
419.3137114144627
 30
0.0
 11
-1462.064225721
 21
419.777258585735
 31
0.0
  0
LINE
  5
C6
330
1F
100
AcDbEntity
  8
0
100
AcDbLine
 10
-1462.064225721
 20
419.777258585735
 30
0.0
 11
-1460.770847442336
 21
420.4150821679868
 31
0.0
  0
LINE
  5
C7
330
1F
100
AcDbEntity
  8
0
100
AcDbLine
 10
-1460.770847442336
 20
420.4150821679868
 30
0.0
 11
-1459.57178687764
 21
421.2162688228876
 31
0.0
  0
LINE
  5
C8
330
1F
100
AcDbEntity
  8
0
100
AcDbLine
 10
-1459.57178687764
 20
421.2162688228876
 30
0.0
 11
-1458.487560285619
 21
422.1671100246409
 31
0.0
  0
LINE
  5
C9
330
1F
100
AcDbEntity
  8
0
100
AcDbLine
 10
-1458.487560285619
 20
422.1671100246409
 30
0.0
 11
-1457.536719083866
 21
423.2513366166623
 31
0.0
  0
LINE
  5
CA
330
1F
100
AcDbEntity
  8
0
100
AcDbLine
 10
-1457.536719083866
 20
423.2513366166623
 30
0.0
 11
-1456.735532428965
 21
424.4503971813576
 31
0.0
  0
LINE
  5
CB
330
1F
100
AcDbEntity
  8
0
100
AcDbLine
 10
-1456.735532428965
 20
424.4503971813576
 30
0.0
 11
-1456.097708846713
 21
425.7437754600223
 31
0.0
  0
LINE
  5
CC
330
1F
100
AcDbEntity
  8
0
100
AcDbLine
 10
-1456.097708846713
 20
425.7437754600223
 30
0.0
 11
-1455.634161675441
 21
427.1093413917163
 31
0.0
  0
LINE
  5
CD
330
1F
100
AcDbEntity
  8
0
100
AcDbLine
 10
-1455.634161675441
 20
427.1093413917163
 30
0.0
 11
-1455.352822335768
 21
428.5237297647422
 31
0.0
  0
LINE
  5
CE
330
1F
100
AcDbEntity
  8
0
100
AcDbLine
 10
-1455.352822335768
 20
428.5237297647422
 30
0.0
 11
-1455.258504621798
 21
429.9627400018946
 31
0.0
  0
LINE
  5
CF
330
1F
100
AcDbEntity
  8
0
100
AcDbLine
 10
-1466.283190262873
 20
639.4317671823048
 30
0.0
 11
-1464.84418002572
 21
639.3374494683355
 31
0.0
  0
LINE
  5
D0
330
1F
100
AcDbEntity
  8
0
100
AcDbLine
 10
-1464.84418002572
 20
639.3374494683355
 30
0.0
 11
-1463.429791652694
 21
639.0561101286625
 31
0.0
  0
LINE
  5
D1
330
1F
100
AcDbEntity
  8
0
100
AcDbLine
 10
-1463.429791652694
 20
639.0561101286625
 30
0.0
 11
-1462.064225721
 21
638.5925629573904
 31
0.0
  0
LINE
  5
D2
330
1F
100
AcDbEntity
  8
0
100
AcDbLine
 10
-1462.064225721
 20
638.5925629573904
 30
0.0
 11
-1460.770847442336
 21
637.9547393751384
 31
0.0
  0
LINE
  5
D3
330
1F
100
AcDbEntity
  8
0
100
AcDbLine
 10
-1460.770847442336
 20
637.9547393751384
 30
0.0
 11
-1459.57178687764
 21
637.1535527202377
 31
0.0
  0
LINE
  5
D4
330
1F
100
AcDbEntity
  8
0
100
AcDbLine
 10
-1459.57178687764
 20
637.1535527202377
 30
0.0
 11
-1458.487560285619
 21
636.2027115184844
 31
0.0
  0
LINE
  5
D5
330
1F
100
AcDbEntity
  8
0
100
AcDbLine
 10
-1458.487560285619
 20
636.2027115184844
 30
0.0
 11
-1457.536719083866
 21
635.118484926463
 31
0.0
  0
LINE
  5
D6
330
1F
100
AcDbEntity
  8
0
100
AcDbLine
 10
-1457.536719083866
 20
635.118484926463
 30
0.0
 11
-1456.735532428965
 21
633.9194243617677
 31
0.0
  0
LINE
  5
D7
330
1F
100
AcDbEntity
  8
0
100
AcDbLine
 10
-1456.735532428965
 20
633.9194243617677
 30
0.0
 11
-1456.097708846713
 21
632.6260460831032
 31
0.0
  0
LINE
  5
D8
330
1F
100
AcDbEntity
  8
0
100
AcDbLine
 10
-1456.097708846713
 20
632.6260460831032
 30
0.0
 11
-1455.634161675441
 21
631.2604801514092
 31
0.0
  0
LINE
  5
D9
330
1F
100
AcDbEntity
  8
0
100
AcDbLine
 10
-1455.634161675441
 20
631.2604801514092
 30
0.0
 11
-1455.352822335768
 21
629.8460917783834
 31
0.0
  0
LINE
  5
DA
330
1F
100
AcDbEntity
  8
0
100
AcDbLine
 10
-1455.352822335768
 20
629.8460917783834
 30
0.0
 11
-1455.258504621798
 21
628.4070815412307
 31
0.0
  0
LINE
  5
DB
330
1F
100
AcDbEntity
  8
0
100
AcDbLine
 10
-1683.547847420537
 20
631.6361372050512
 30
0.0
 11
-2009.721842339331
 21
305.4621422862572
 31
0.0
  0
LINE
  5
DC
330
1F
100
AcDbEntity
  8
0
100
AcDbLine
 10
-1683.547847420537
 20
631.6361372050512
 30
0.0
 11
-1682.276644145587
 21
632.8267489991762
 31
0.0
  0
LINE
  5
DD
330
1F
100
AcDbEntity
  8
0
100
AcDbLine
 10
-1682.276644145587
 20
632.8267489991762
 30
0.0
 11
-1680.930292877393
 21
633.9316709299874
 31
0.0
  0
LINE
  5
DE
330
1F
100
AcDbEntity
  8
0
100
AcDbLine
 10
-1680.930292877393
 20
633.9316709299874
 30
0.0
 11
-1679.514558898783
 21
634.946171552147
 31
0.0
  0
LINE
  5
DF
330
1F
100
AcDbEntity
  8
0
100
AcDbLine
 10
-1679.514558898783
 20
634.946171552147
 30
0.0
 11
-1678.035504599999
 21
635.8659066182412
 31
0.0
  0
LINE
  5
E0
330
1F
100
AcDbEntity
  8
0
100
AcDbLine
 10
-1678.035504599999
 20
635.8659066182412
 30
0.0
 11
-1676.499463518619
 21
636.6869376815174
 31
0.0
  0
LINE
  5
E1
330
1F
100
AcDbEntity
  8
0
100
AcDbLine
 10
-1676.499463518619
 20
636.6869376815174
 30
0.0
 11
-1674.913013218368
 21
637.4057489609148
 31
0.0
  0
LINE
  5
E2
330
1F
100
AcDbEntity
  8
0
100
AcDbLine
 10
-1674.913013218368
 20
637.4057489609148
 30
0.0
 11
-1673.28294712299
 21
638.019262396182
 31
0.0
  0
LINE
  5
E3
330
1F
100
AcDbEntity
  8
0
100
AcDbLine
 10
-1673.28294712299
 20
638.019262396182
 30
0.0
 11
-1671.616245425758
 21
638.5248508286002
 31
0.0
  0
LINE
  5
E4
330
1F
100
AcDbEntity
  8
0
100
AcDbLine
 10
-1671.616245425758
 20
638.5248508286002
 30
0.0
 11
-1669.920045199214
 21
638.9203492508829
 31
0.0
  0
LINE
  5
E5
330
1F
100
AcDbEntity
  8
0
100
AcDbLine
 10
-1669.920045199214
 20
638.9203492508829
 30
0.0
 11
-1668.201609833136
 21
639.2040640780674
 31
0.0
  0
LINE
  5
E6
330
1F
100
AcDbEntity
  8
0
100
AcDbLine
 10
-1668.201609833136
 20
639.2040640780674
 30
0.0
 11
-1666.468297931579
 21
639.3747803997072
 31
0.0
  0
LINE
  5
E7
330
1F
100
AcDbEntity
  8
0
100
AcDbLine
 10
-1666.468297931579
 20
639.3747803997072
 30
0.0
 11
-1664.727531802209
 21
639.4317671823048
 31
0.0
  0
LINE
  5
E8
330
1F
100
AcDbEntity
  8
0
100
AcDbLine
 10
-2017.517472316585
 20
286.6418266679292
 30
0.0
 11
-2017.460485533987
 21
288.3825927972994
 31
0.0
  0
LINE
  5
E9
330
1F
100
AcDbEntity
  8
0
100
AcDbLine
 10
-2017.460485533987
 20
288.3825927972994
 30
0.0
 11
-2017.289769212347
 21
290.1159046988565
 31
0.0
  0
LINE
  5
EA
330
1F
100
AcDbEntity
  8
0
100
AcDbLine
 10
-2017.289769212347
 20
290.1159046988565
 30
0.0
 11
-2017.006054385162
 21
291.8343400649349
 31
0.0
  0
LINE
  5
EB
330
1F
100
AcDbEntity
  8
0
100
AcDbLine
 10
-2017.006054385162
 20
291.8343400649349
 30
0.0
 11
-2016.61055596288
 21
293.5305402914782
 31
0.0
  0
LINE
  5
EC
330
1F
100
AcDbEntity
  8
0
100
AcDbLine
 10
-2016.61055596288
 20
293.5305402914782
 30
0.0
 11
-2016.104967530462
 21
295.197241988711
 31
0.0
  0
LINE
  5
ED
330
1F
100
AcDbEntity
  8
0
100
AcDbLine
 10
-2016.104967530462
 20
295.197241988711
 30
0.0
 11
-2015.491454095195
 21
296.8273080840888
 31
0.0
  0
LINE
  5
EE
330
1F
100
AcDbEntity
  8
0
100
AcDbLine
 10
-2015.491454095195
 20
296.8273080840888
 30
0.0
 11
-2014.772642815797
 21
298.4137583843392
 31
0.0
  0
LINE
  5
EF
330
1F
100
AcDbEntity
  8
0
100
AcDbLine
 10
-2014.772642815797
 20
298.4137583843392
 30
0.0
 11
-2013.951611752521
 21
299.9497994657199
 31
0.0
  0
LINE
  5
F0
330
1F
100
AcDbEntity
  8
0
100
AcDbLine
 10
-2013.951611752521
 20
299.9497994657199
 30
0.0
 11
-2013.031876686427
 21
301.4288537645035
 31
0.0
  0
LINE
  5
F1
330
1F
100
AcDbEntity
  8
0
100
AcDbLine
 10
-2013.031876686427
 20
301.4288537645035
 30
0.0
 11
-2012.017376064267
 21
302.8445877431138
 31
0.0
  0
LINE
  5
F2
330
1F
100
AcDbEntity
  8
0
100
AcDbLine
 10
-2012.017376064267
 20
302.8445877431138
 30
0.0
 11
-2010.912454133456
 21
304.1909390113071
 31
0.0
  0
LINE
  5
F3
330
1F
100
AcDbEntity
  8
0
100
AcDbLine
 10
-2010.912454133456
 20
304.1909390113071
 30
0.0
 11
-2009.721842339331
 21
305.4621422862572
 31
0.0
  0
LINE
  5
F4
330
1F
100
AcDbEntity
  8
0
100
AcDbLine
 10
-1453.639254167272
 20
-162.8998902180606
 30
0.0
 11
-1442.78205827342
 21
-164.814306788984
 31
0.0
  0
LINE
  5
F5
330
1F
100
AcDbEntity
  8
0
100
AcDbLine
 10
-1455.553670738195
 20
-152.0426943242083
 30
0.0
 11
-1453.639254167272
 21
-162.8998902180606
 31
0.0
  0
LINE
  5
F6
330
1F
100
AcDbEntity
  8
0
100
AcDbLine
 10
-1549.360082713438
 20
379.9599044745526
 30
0.0
 11
-1547.445666142514
 21
369.1027085807002
 31
0.0
  0
LINE
  5
F7
330
1F
100
AcDbEntity
  8
0
100
AcDbLine
 10
-1541.564452736184
 20
387.755534451806
 30
0.0
 11
-1549.360082713438
 21
379.9599044745526
 31
0.0
  0
LINE
  5
F8
330
1F
100
AcDbEntity
  8
0
100
AcDbLine
 10
-1499.357247186095
 20
418.9380543608203
 30
0.0
 11
-1510.38193282717
 21
418.9380543608203
 31
0.0
  0
LINE
  5
F9
330
1F
100
AcDbEntity
  8
0
100
AcDbLine
 10
-1510.38193282717
 20
418.9380543608203
 30
0.0
 11
-1518.177562804423
 21
411.1424243835668
 31
0.0
  0
LINE
  5
FA
330
1F
100
AcDbEntity
  8
0
100
AcDbLine
 10
-1455.258504621798
 20
418.9380543608203
 30
0.0
 11
-1455.258504621798
 21
429.9627400018946
 31
0.0
  0
LINE
  5
FB
330
1F
100
AcDbEntity
  8
0
100
AcDbLine
 10
-1455.258504621798
 20
418.9380543608203
 30
0.0
 11
-1466.283190262873
 21
418.9380543608203
 31
0.0
  0
LINE
  5
FC
330
1F
100
AcDbEntity
  8
0
100
AcDbLine
 10
-1455.258504621798
 20
628.4070815412307
 30
0.0
 11
-1455.258504621798
 21
639.4317671823048
 31
0.0
  0
LINE
  5
FD
330
1F
100
AcDbEntity
  8
0
100
AcDbLine
 10
-1466.283190262873
 20
639.4317671823048
 30
0.0
 11
-1455.258504621798
 21
639.4317671823048
 31
0.0
  0
LINE
  5
FE
330
1F
100
AcDbEntity
  8
0
100
AcDbLine
 10
-1675.752217443283
 20
639.4317671823048
 30
0.0
 11
-1683.547847420537
 21
631.6361372050512
 31
0.0
  0
LINE
  5
FF
330
1F
100
AcDbEntity
  8
0
100
AcDbLine
 10
-1664.727531802209
 20
639.4317671823048
 30
0.0
 11
-1675.752217443283
 21
639.4317671823048
 31
0.0
  0
LINE
  5
100
330
1F
100
AcDbEntity
  8
0
100
AcDbLine
 10
-2009.721842339331
 20
305.4621422862572
 30
0.0
 11
-2017.517472316585
 21
297.6665123090035
 31
0.0
  0
LINE
  5
101
330
1F
100
AcDbEntity
  8
0
100
AcDbLine
 10
-1148.458843685928
 20
-387.7555344518058
 30
0.0
 11
-1140.663213708675
 21
-379.9599044745527
 31
0.0
  0
LINE
  5
102
330
1F
100
AcDbEntity
  8
0
100
AcDbLine
 10
-1140.663213708675
 20
-379.9599044745527
 30
0.0
 11
-1142.577630279599
 21
-369.102708580701
 31
0.0
  0
LINE
  5
103
330
1F
100
AcDbEntity
  8
0
100
AcDbLine
 10
-1234.469625683917
 20
152.0426943242079
 30
0.0
 11
-1236.384042254841
 21
162.8998902180602
 31
0.0
  0
LINE
  5
104
330
1F
100
AcDbEntity
  8
0
100
AcDbLine
 10
-1236.384042254841
 20
162.8998902180602
 30
0.0
 11
-1247.241238148693
 21
164.8143067889834
 31
0.0
  0
LINE
  5
105
330
1F
100
AcDbEntity
  8
0
100
AcDbLine
 10
-1234.469625683917
 20
152.0426943242079
 30
0.0
 11
-1234.827795451183
 21
153.6044578913973
 31
0.0
  0
LINE
  5
106
330
1F
100
AcDbEntity
  8
0
100
AcDbLine
 10
-1234.827795451183
 20
153.6044578913973
 30
0.0
 11
-1235.342840487495
 21
155.1217316414352
 31
0.0
  0
LINE
  5
107
330
1F
100
AcDbEntity
  8
0
100
AcDbLine
 10
-1235.342840487495
 20
155.1217316414352
 30
0.0
 11
-1236.009426727179
 21
156.5788019235573
 31
0.0
  0
LINE
  5
108
330
1F
100
AcDbEntity
  8
0
100
AcDbLine
 10
-1236.009426727179
 20
156.5788019235573
 30
0.0
 11
-1236.820650667574
 21
157.9605785844236
 31
0.0
  0
LINE
  5
109
330
1F
100
AcDbEntity
  8
0
100
AcDbLine
 10
-1236.820650667574
 20
157.9605785844236
 30
0.0
 11
-1237.768110865175
 21
159.252751249334
 31
0.0
  0
LINE
  5
10A
330
1F
100
AcDbEntity
  8
0
100
AcDbLine
 10
-1237.768110865175
 20
159.252751249334
 30
0.0
 11
-1238.841994945217
 21
160.4419375276842
 31
0.0
  0
LINE
  5
10B
330
1F
100
AcDbEntity
  8
0
100
AcDbLine
 10
-1238.841994945217
 20
160.4419375276842
 30
0.0
 11
-1240.031181223567
 21
161.5158216077259
 31
0.0
  0
LINE
  5
10C
330
1F
100
AcDbEntity
  8
0
100
AcDbLine
 10
-1240.031181223567
 20
161.5158216077259
 30
0.0
 11
-1241.323353888477
 21
162.4632818053268
 31
0.0
  0
LINE
  5
10D
330
1F
100
AcDbEntity
  8
0
100
AcDbLine
 10
-1241.323353888477
 20
162.4632818053268
 30
0.0
 11
-1242.705130549343
 21
163.2745057457216
 31
0.0
  0
LINE
  5
10E
330
1F
100
AcDbEntity
  8
0
100
AcDbLine
 10
-1242.705130549343
 20
163.2745057457216
 30
0.0
 11
-1244.162200831466
 21
163.9410919854065
 31
0.0
  0
LINE
  5
10F
330
1F
100
AcDbEntity
  8
0
100
AcDbLine
 10
-1244.162200831466
 20
163.9410919854065
 30
0.0
 11
-1245.679474581503
 21
164.4561370217179
 31
0.0
  0
LINE
  5
110
330
1F
100
AcDbEntity
  8
0
100
AcDbLine
 10
-1245.679474581503
 20
164.4561370217179
 30
0.0
 11
-1247.241238148693
 21
164.8143067889834
 31
0.0
  0
LINE
  5
111
330
1F
100
AcDbEntity
  8
0
100
AcDbLine
 10
-1142.350455822688
 20
-370.7810885797693
 30
0.0
 11
-1142.577630279599
 21
-369.102708580701
 31
0.0
  0
LINE
  5
112
330
1F
100
AcDbEntity
  8
0
100
AcDbLine
 10
-1148.458843685928
 20
-387.7555344518058
 30
0.0
 11
-1147.310074046431
 21
-386.5109879598996
 31
0.0
  0
LINE
  5
113
330
1F
100
AcDbEntity
  8
0
100
AcDbLine
 10
-1147.310074046431
 20
-386.5109879598996
 30
0.0
 11
-1146.264428410393
 21
-385.1786243237329
 31
0.0
  0
LINE
  5
114
330
1F
100
AcDbEntity
  8
0
100
AcDbLine
 10
-1146.264428410393
 20
-385.1786243237329
 30
0.0
 11
-1145.328594381807
 21
-383.7669649008963
 31
0.0
  0
LINE
  5
115
330
1F
100
AcDbEntity
  8
0
100
AcDbLine
 10
-1145.328594381807
 20
-383.7669649008963
 30
0.0
 11
-1144.50855724591
 21
-382.2850381986271
 31
0.0
  0
LINE
  5
116
330
1F
100
AcDbEntity
  8
0
100
AcDbLine
 10
-1144.50855724591
 20
-382.2850381986271
 30
0.0
 11
-1143.809561689273
 21
-380.7423221304704
 31
0.0
  0
LINE
  5
117
330
1F
100
AcDbEntity
  8
0
100
AcDbLine
 10
-1143.809561689273
 20
-380.7423221304704
 30
0.0
 11
-1143.236078256522
 21
-379.1486833986668
 31
0.0
  0
LINE
  5
118
330
1F
100
AcDbEntity
  8
0
100
AcDbLine
 10
-1143.236078256522
 20
-379.1486833986668
 30
0.0
 11
-1142.791774758207
 21
-377.5143143899875
 31
0.0
  0
LINE
  5
119
330
1F
100
AcDbEntity
  8
0
100
AcDbLine
 10
-1142.791774758207
 20
-377.5143143899875
 30
0.0
 11
-1142.4794928127
 21
-375.8496679885986
 31
0.0
  0
LINE
  5
11A
330
1F
100
AcDbEntity
  8
0
100
AcDbLine
 10
-1142.4794928127
 20
-375.8496679885986
 30
0.0
 11
-1142.301229672142
 21
-374.1653907228655
 31
0.0
  0
LINE
  5
11B
330
1F
100
AcDbEntity
  8
0
100
AcDbLine
 10
-1142.301229672142
 20
-374.1653907228655
 30
0.0
 11
-1142.258125448682
 21
-372.4722546736756
 31
0.0
  0
LINE
  5
11C
330
1F
100
AcDbEntity
  8
0
100
AcDbLine
 10
-1142.258125448682
 20
-372.4722546736756
 30
0.0
 11
-1142.350455822688
 21
-370.7810885797693
 31
0.0
  0
LINE
  5
11D
330
1F
100
AcDbEntity
  8
0
100
AcDbLine
 10
-1171.845733617689
 20
-411.142424383566
 30
0.0
 11
-1173.11693689264
 21
-412.3330361776926
 31
0.0
  0
LINE
  5
11E
330
1F
100
AcDbEntity
  8
0
100
AcDbLine
 10
-1179.641363594943
 20
-418.9380543608203
 30
0.0
 11
-1171.845733617689
 21
-411.142424383566
 31
0.0
  0
LINE
  5
11F
330
1F
100
AcDbEntity
  8
0
100
AcDbLine
 10
-1190.666049236017
 20
-418.9380543608197
 30
0.0
 11
-1179.641363594943
 21
-418.9380543608203
 31
0.0
  0
LINE
  5
120
330
1F
100
AcDbEntity
  8
0
100
AcDbLine
 10
-1188.925283106647
 20
-418.8810675782226
 30
0.0
 11
-1190.666049236017
 21
-418.9380543608197
 31
0.0
  0
LINE
  5
121
330
1F
100
AcDbEntity
  8
0
100
AcDbLine
 10
-1187.191971205089
 20
-418.710351256583
 30
0.0
 11
-1188.925283106647
 21
-418.8810675782226
 31
0.0
  0
LINE
  5
122
330
1F
100
AcDbEntity
  8
0
100
AcDbLine
 10
-1185.473535839011
 20
-418.4266364293982
 30
0.0
 11
-1187.191971205089
 21
-418.710351256583
 31
0.0
  0
LINE
  5
123
330
1F
100
AcDbEntity
  8
0
100
AcDbLine
 10
-1183.777335612468
 20
-418.0311380071153
 30
0.0
 11
-1185.473535839011
 21
-418.4266364293982
 31
0.0
  0
LINE
  5
124
330
1F
100
AcDbEntity
  8
0
100
AcDbLine
 10
-1182.110633915235
 20
-417.5255495746973
 30
0.0
 11
-1183.777335612468
 21
-418.0311380071153
 31
0.0
  0
LINE
  5
125
330
1F
100
AcDbEntity
  8
0
100
AcDbLine
 10
-1180.480567819857
 20
-416.91203613943
 30
0.0
 11
-1182.110633915235
 21
-417.5255495746973
 31
0.0
  0
LINE
  5
126
330
1F
100
AcDbEntity
  8
0
100
AcDbLine
 10
-1178.894117519607
 20
-416.1932248600319
 30
0.0
 11
-1180.480567819857
 21
-416.91203613943
 31
0.0
  0
LINE
  5
127
330
1F
100
AcDbEntity
  8
0
100
AcDbLine
 10
-1177.358076438226
 20
-415.3721937967562
 30
0.0
 11
-1178.894117519607
 21
-416.1932248600319
 31
0.0
  0
LINE
  5
128
330
1F
100
AcDbEntity
  8
0
100
AcDbLine
 10
-1175.879022139443
 20
-414.4524587306632
 30
0.0
 11
-1177.358076438226
 21
-415.3721937967562
 31
0.0
  0
LINE
  5
129
330
1F
100
AcDbEntity
  8
0
100
AcDbLine
 10
-1174.463288160832
 20
-413.4379581085026
 30
0.0
 11
-1175.879022139443
 21
-414.4524587306632
 31
0.0
  0
LINE
  5
12A
330
1F
100
AcDbEntity
  8
0
100
AcDbLine
 10
-1173.11693689264
 20
-412.3330361776926
 30
0.0
 11
-1174.463288160832
 21
-413.4379581085026
 31
0.0
  0
LINE
  5
12B
330
1F
100
AcDbEntity
  8
0
100
AcDbLine
 10
-1234.764791800314
 20
-418.9380543608204
 30
0.0
 11
-1223.740106159239
 21
-418.9380543608207
 31
0.0
  0
LINE
  5
12C
330
1F
100
AcDbEntity
  8
0
100
AcDbLine
 10
-1223.740106159239
 20
-418.9380543608207
 30
0.0
 11
-1225.179116396391
 21
-419.03237207479
 31
0.0
  0
LINE
  5
12D
330
1F
100
AcDbEntity
  8
0
100
AcDbLine
 10
-1225.179116396391
 20
-419.03237207479
 30
0.0
 11
-1226.593504769418
 21
-419.3137114144628
 31
0.0
  0
LINE
  5
12E
330
1F
100
AcDbEntity
  8
0
100
AcDbLine
 10
-1226.593504769418
 20
-419.3137114144628
 30
0.0
 11
-1227.959070701112
 21
-419.7772585857342
 31
0.0
  0
LINE
  5
12F
330
1F
100
AcDbEntity
  8
0
100
AcDbLine
 10
-1227.959070701112
 20
-419.7772585857342
 30
0.0
 11
-1229.252448979777
 21
-420.4150821679866
 31
0.0
  0
LINE
  5
130
330
1F
100
AcDbEntity
  8
0
100
AcDbLine
 10
-1229.252448979777
 20
-420.4150821679866
 30
0.0
 11
-1230.451509544471
 21
-421.2162688228868
 31
0.0
  0
LINE
  5
131
330
1F
100
AcDbEntity
  8
0
100
AcDbLine
 10
-1230.451509544471
 20
-421.2162688228868
 30
0.0
 11
-1231.535736136493
 21
-422.1671100246411
 31
0.0
  0
LINE
  5
132
330
1F
100
AcDbEntity
  8
0
100
AcDbLine
 10
-1231.535736136493
 20
-422.1671100246411
 30
0.0
 11
-1232.486577338246
 21
-423.2513366166623
 31
0.0
  0
LINE
  5
133
330
1F
100
AcDbEntity
  8
0
100
AcDbLine
 10
-1232.486577338246
 20
-423.2513366166623
 30
0.0
 11
-1233.287763993147
 21
-424.4503971813568
 31
0.0
  0
LINE
  5
134
330
1F
100
AcDbEntity
  8
0
100
AcDbLine
 10
-1233.287763993147
 20
-424.4503971813568
 30
0.0
 11
-1233.925587575399
 21
-425.7437754600223
 31
0.0
  0
LINE
  5
135
330
1F
100
AcDbEntity
  8
0
100
AcDbLine
 10
-1233.925587575399
 20
-425.7437754600223
 30
0.0
 11
-1234.389134746671
 21
-427.109341391717
 31
0.0
  0
LINE
  5
136
330
1F
100
AcDbEntity
  8
0
100
AcDbLine
 10
-1234.389134746671
 20
-427.109341391717
 30
0.0
 11
-1234.670474086344
 21
-428.5237297647417
 31
0.0
  0
LINE
  5
137
330
1F
100
AcDbEntity
  8
0
100
AcDbLine
 10
-1234.670474086344
 20
-428.5237297647417
 30
0.0
 11
-1234.764791800314
 21
-429.9627400018938
 31
0.0
  0
LINE
  5
138
330
1F
100
AcDbEntity
  8
0
100
AcDbLine
 10
-1234.764791800314
 20
-628.4070815412296
 30
0.0
 11
-1234.764791800314
 21
-639.4317671823044
 31
0.0
  0
LINE
  5
139
330
1F
100
AcDbEntity
  8
0
100
AcDbLine
 10
-1234.670474086344
 20
-629.8460917783841
 30
0.0
 11
-1234.764791800314
 21
-628.4070815412296
 31
0.0
  0
LINE
  5
13A
330
1F
100
AcDbEntity
  8
0
100
AcDbLine
 10
-1234.389134746672
 20
-631.2604801514084
 30
0.0
 11
-1234.670474086344
 21
-629.8460917783841
 31
0.0
  0
LINE
  5
13B
330
1F
100
AcDbEntity
  8
0
100
AcDbLine
 10
-1233.925587575399
 20
-632.6260460831032
 30
0.0
 11
-1234.389134746672
 21
-631.2604801514084
 31
0.0
  0
LINE
  5
13C
330
1F
100
AcDbEntity
  8
0
100
AcDbLine
 10
-1233.287763993147
 20
-633.919424361767
 30
0.0
 11
-1233.925587575399
 21
-632.6260460831032
 31
0.0
  0
LINE
  5
13D
330
1F
100
AcDbEntity
  8
0
100
AcDbLine
 10
-1232.486577338247
 20
-635.1184849264614
 30
0.0
 11
-1233.287763993147
 21
-633.919424361767
 31
0.0
  0
LINE
  5
13E
330
1F
100
AcDbEntity
  8
0
100
AcDbLine
 10
-1231.535736136493
 20
-636.202711518484
 30
0.0
 11
-1232.486577338247
 21
-635.1184849264614
 31
0.0
  0
LINE
  5
13F
330
1F
100
AcDbEntity
  8
0
100
AcDbLine
 10
-1230.451509544471
 20
-637.153552720238
 30
0.0
 11
-1231.535736136493
 21
-636.202711518484
 31
0.0
  0
LINE
  5
140
330
1F
100
AcDbEntity
  8
0
100
AcDbLine
 10
-1229.252448979776
 20
-637.9547393751384
 30
0.0
 11
-1230.451509544471
 21
-637.153552720238
 31
0.0
  0
LINE
  5
141
330
1F
100
AcDbEntity
  8
0
100
AcDbLine
 10
-1227.959070701113
 20
-638.5925629573895
 30
0.0
 11
-1229.252448979776
 21
-637.9547393751384
 31
0.0
  0
LINE
  5
142
330
1F
100
AcDbEntity
  8
0
100
AcDbLine
 10
-1226.593504769418
 20
-639.056110128662
 30
0.0
 11
-1227.959070701113
 21
-638.5925629573895
 31
0.0
  0
LINE
  5
143
330
1F
100
AcDbEntity
  8
0
100
AcDbLine
 10
-1225.179116396392
 20
-639.3374494683343
 30
0.0
 11
-1226.593504769418
 21
-639.056110128662
 31
0.0
  0
LINE
  5
144
330
1F
100
AcDbEntity
  8
0
100
AcDbLine
 10
-1223.74010615924
 20
-639.4317671823044
 30
0.0
 11
-1225.179116396392
 21
-639.3374494683343
 31
0.0
  0
LINE
  5
145
330
1F
100
AcDbEntity
  8
0
100
AcDbLine
 10
-1223.74010615924
 20
-639.4317671823044
 30
0.0
 11
-1234.764791800314
 21
-639.4317671823044
 31
0.0
  0
LINE
  5
146
330
1F
100
AcDbEntity
  8
0
100
AcDbLine
 10
-1025.295764619904
 20
-639.431767182304
 30
0.0
 11
-1014.271078978829
 21
-639.4317671823044
 31
0.0
  0
LINE
  5
147
330
1F
100
AcDbEntity
  8
0
100
AcDbLine
 10
-1023.554998490533
 20
-639.3747803997069
 30
0.0
 11
-1025.295764619904
 21
-639.431767182304
 31
0.0
  0
LINE
  5
148
330
1F
100
AcDbEntity
  8
0
100
AcDbLine
 10
-1021.821686588978
 20
-639.2040640780666
 30
0.0
 11
-1023.554998490533
 21
-639.3747803997069
 31
0.0
  0
LINE
  5
149
330
1F
100
AcDbEntity
  8
0
100
AcDbLine
 10
-1020.103251222898
 20
-638.9203492508813
 30
0.0
 11
-1021.821686588978
 21
-639.2040640780666
 31
0.0
  0
LINE
  5
14A
330
1F
100
AcDbEntity
  8
0
100
AcDbLine
 10
-1018.407050996355
 20
-638.5248508286002
 30
0.0
 11
-1020.103251222898
 21
-638.9203492508813
 31
0.0
  0
LINE
  5
14B
330
1F
100
AcDbEntity
  8
0
100
AcDbLine
 10
-1016.740349299123
 20
-638.019262396182
 30
0.0
 11
-1018.407050996355
 21
-638.5248508286002
 31
0.0
  0
LINE
  5
14C
330
1F
100
AcDbEntity
  8
0
100
AcDbLine
 10
-1015.110283203744
 20
-637.4057489609144
 30
0.0
 11
-1016.740349299123
 21
-638.019262396182
 31
0.0
  0
LINE
  5
14D
330
1F
100
AcDbEntity
  8
0
100
AcDbLine
 10
-1013.523832903493
 20
-636.6869376815163
 30
0.0
 11
-1015.110283203744
 21
-637.4057489609144
 31
0.0
  0
LINE
  5
14E
330
1F
100
AcDbEntity
  8
0
100
AcDbLine
 10
-1011.987791822113
 20
-635.8659066182408
 30
0.0
 11
-1013.523832903493
 21
-636.6869376815163
 31
0.0
  0
LINE
  5
14F
330
1F
100
AcDbEntity
  8
0
100
AcDbLine
 10
-1010.508737523329
 20
-634.9461715521478
 30
0.0
 11
-1011.987791822113
 21
-635.8659066182408
 31
0.0
  0
LINE
  5
150
330
1F
100
AcDbEntity
  8
0
100
AcDbLine
 10
-1009.093003544719
 20
-633.931670929987
 30
0.0
 11
-1010.508737523329
 21
-634.9461715521478
 31
0.0
  0
LINE
  5
151
330
1F
100
AcDbEntity
  8
0
100
AcDbLine
 10
-1007.746652276526
 20
-632.8267489991766
 30
0.0
 11
-1009.093003544719
 21
-633.931670929987
 31
0.0
  0
LINE
  5
152
330
1F
100
AcDbEntity
  8
0
100
AcDbLine
 10
-1006.475449001577
 20
-631.6361372050508
 30
0.0
 11
-1007.746652276526
 21
-632.8267489991766
 31
0.0
  0
LINE
  5
153
330
1F
100
AcDbEntity
  8
0
100
AcDbLine
 10
-1014.271078978829
 20
-639.4317671823044
 30
0.0
 11
-1006.475449001577
 21
-631.6361372050508
 31
0.0
  0
LINE
  5
154
330
1F
100
AcDbEntity
  8
0
100
AcDbLine
 10
-680.3014540827814
 20
-305.4621422862568
 30
0.0
 11
-672.505824105527
 21
-297.6665123090031
 31
0.0
  0
LINE
  5
155
330
1F
100
AcDbEntity
  8
0
100
AcDbLine
 10
-679.1108422886568
 20
-304.1909390113071
 30
0.0
 11
-680.3014540827814
 21
-305.4621422862568
 31
0.0
  0
LINE
  5
156
330
1F
100
AcDbEntity
  8
0
100
AcDbLine
 10
-678.0059203578448
 20
-302.8445877431137
 30
0.0
 11
-679.1108422886568
 21
-304.1909390113071
 31
0.0
  0
LINE
  5
157
330
1F
100
AcDbEntity
  8
0
100
AcDbLine
 10
-676.991419735686
 20
-301.4288537645035
 30
0.0
 11
-678.0059203578448
 21
-302.8445877431137
 31
0.0
  0
LINE
  5
158
330
1F
100
AcDbEntity
  8
0
100
AcDbLine
 10
-676.0716846695914
 20
-299.9497994657199
 30
0.0
 11
-676.991419735686
 21
-301.4288537645035
 31
0.0
  0
LINE
  5
159
330
1F
100
AcDbEntity
  8
0
100
AcDbLine
 10
-675.250653606316
 20
-298.4137583843386
 30
0.0
 11
-676.0716846695914
 21
-299.9497994657199
 31
0.0
  0
LINE
  5
15A
330
1F
100
AcDbEntity
  8
0
100
AcDbLine
 10
-674.5318423269186
 20
-296.8273080840882
 30
0.0
 11
-675.250653606316
 21
-298.4137583843386
 31
0.0
  0
LINE
  5
15B
330
1F
100
AcDbEntity
  8
0
100
AcDbLine
 10
-673.9183288916507
 20
-295.1972419887103
 30
0.0
 11
-674.5318423269186
 21
-296.8273080840882
 31
0.0
  0
LINE
  5
15C
330
1F
100
AcDbEntity
  8
0
100
AcDbLine
 10
-673.4127404592316
 20
-293.5305402914777
 30
0.0
 11
-673.9183288916507
 21
-295.1972419887103
 31
0.0
  0
LINE
  5
15D
330
1F
100
AcDbEntity
  8
0
100
AcDbLine
 10
-673.0172420369494
 20
-291.8343400649351
 30
0.0
 11
-673.4127404592316
 21
-293.5305402914777
 31
0.0
  0
LINE
  5
15E
330
1F
100
AcDbEntity
  8
0
100
AcDbLine
 10
-672.7335272097655
 20
-290.1159046988564
 30
0.0
 11
-673.0172420369494
 21
-291.8343400649351
 31
0.0
  0
LINE
  5
15F
330
1F
100
AcDbEntity
  8
0
100
AcDbLine
 10
-672.5628108881257
 20
-288.3825927972996
 30
0.0
 11
-672.7335272097655
 21
-290.1159046988564
 31
0.0
  0
LINE
  5
160
330
1F
100
AcDbEntity
  8
0
100
AcDbLine
 10
-672.5058241055285
 20
-286.6418266679286
 30
0.0
 11
-672.5628108881257
 21
-288.3825927972996
 31
0.0
  0
LINE
  5
161
330
1F
100
AcDbEntity
  8
0
100
AcDbLine
 10
-1223.740106159239
 20
-418.9380543608207
 30
0.0
 11
-1190.666049236017
 21
-418.9380543608197
 31
0.0
  0
LINE
  5
162
330
1F
100
AcDbEntity
  8
0
100
AcDbLine
 10
-1234.764791800314
 20
-429.9627400018938
 30
0.0
 11
-1234.764791800314
 21
-628.4070815412296
 31
0.0
  0
LINE
  5
163
330
1F
100
AcDbEntity
  8
0
100
AcDbLine
 10
-1453.527960131885
 20
212.2129072776015
 30
0.0
 11
-1453.527960131886
 21
355.5338206115657
 31
0.0
  0
LINE
  5
164
330
1F
100
AcDbEntity
  8
0
100
AcDbLine
 10
-1442.670764238033
 20
199.2738050656043
 30
0.0
 11
-1444.157475546451
 21
199.6261621185002
 31
0.0
  0
LINE
  5
165
330
1F
100
AcDbEntity
  8
0
100
AcDbLine
 10
-1444.157475546451
 20
199.6261621185002
 30
0.0
 11
-1445.593228087777
 21
200.1487333073138
 31
0.0
  0
LINE
  5
166
330
1F
100
AcDbEntity
  8
0
100
AcDbLine
 10
-1445.593228087777
 20
200.1487333073138
 30
0.0
 11
-1446.9586057719
 21
200.8344517531809
 31
0.0
  0
LINE
  5
167
330
1F
100
AcDbEntity
  8
0
100
AcDbLine
 10
-1446.9586057719
 20
200.8344517531809
 30
0.0
 11
-1448.235144207926
 21
201.6740442904582
 31
0.0
  0
LINE
  5
168
330
1F
100
AcDbEntity
  8
0
100
AcDbLine
 10
-1448.235144207926
 20
201.6740442904582
 30
0.0
 11
-1449.405580403388
 21
202.656156870388
 31
0.0
  0
LINE
  5
169
330
1F
100
AcDbEntity
  8
0
100
AcDbLine
 10
-1449.405580403388
 20
202.656156870388
 30
0.0
 11
-1450.454086216608
 21
203.7675081051225
 31
0.0
  0
LINE
  5
16A
330
1F
100
AcDbEntity
  8
0
100
AcDbLine
 10
-1450.454086216608
 20
203.7675081051225
 30
0.0
 11
-1451.366482405155
 21
204.9930688757188
 31
0.0
  0
LINE
  5
16B
330
1F
100
AcDbEntity
  8
0
100
AcDbLine
 10
-1451.366482405155
 20
204.9930688757188
 30
0.0
 11
-1452.130430375783
 21
206.3162655751857
 31
0.0
  0
LINE
  5
16C
330
1F
100
AcDbEntity
  8
0
100
AcDbLine
 10
-1452.130430375783
 20
206.3162655751857
 30
0.0
 11
-1452.735599042727
 21
207.7192042380829
 31
0.0
  0
LINE
  5
16D
330
1F
100
AcDbEntity
  8
0
100
AcDbLine
 10
-1452.735599042727
 20
207.7192042380829
 30
0.0
 11
-1453.173804537926
 21
209.1829125257129
 31
0.0
  0
LINE
  5
16E
330
1F
100
AcDbEntity
  8
0
100
AcDbLine
 10
-1453.173804537926
 20
209.1829125257129
 30
0.0
 11
-1453.439120883788
 21
210.6875962944563
 31
0.0
  0
LINE
  5
16F
330
1F
100
AcDbEntity
  8
0
100
AcDbLine
 10
-1453.439120883788
 20
210.6875962944563
 30
0.0
 11
-1453.527960131885
 21
212.2129072776015
 31
0.0
  0
LINE
  5
170
330
1F
100
AcDbEntity
  8
0
100
AcDbLine
 10
-1400.489232010388
 20
383.9678031186924
 30
0.0
 11
-1400.927437505586
 21
382.50409483106
 31
0.0
  0
LINE
  5
171
330
1F
100
AcDbEntity
  8
0
100
AcDbLine
 10
-1400.927437505586
 20
382.50409483106
 30
0.0
 11
-1401.532606172531
 21
381.1011561681624
 31
0.0
  0
LINE
  5
172
330
1F
100
AcDbEntity
  8
0
100
AcDbLine
 10
-1401.532606172531
 20
381.1011561681624
 30
0.0
 11
-1402.296554143158
 21
379.7779594686975
 31
0.0
  0
LINE
  5
173
330
1F
100
AcDbEntity
  8
0
100
AcDbLine
 10
-1402.296554143158
 20
379.7779594686975
 30
0.0
 11
-1403.208950331705
 21
378.5523986981008
 31
0.0
  0
LINE
  5
174
330
1F
100
AcDbEntity
  8
0
100
AcDbLine
 10
-1403.208950331705
 20
378.5523986981008
 30
0.0
 11
-1404.257456144925
 21
377.4410474633655
 31
0.0
  0
LINE
  5
175
330
1F
100
AcDbEntity
  8
0
100
AcDbLine
 10
-1404.257456144925
 20
377.4410474633655
 30
0.0
 11
-1405.427892340388
 21
376.4589348834369
 31
0.0
  0
LINE
  5
176
330
1F
100
AcDbEntity
  8
0
100
AcDbLine
 10
-1405.427892340388
 20
376.4589348834369
 30
0.0
 11
-1406.704430776413
 21
375.6193423461604
 31
0.0
  0
LINE
  5
177
330
1F
100
AcDbEntity
  8
0
100
AcDbLine
 10
-1406.704430776413
 20
375.6193423461604
 30
0.0
 11
-1408.069808460536
 21
374.9336239002926
 31
0.0
  0
LINE
  5
178
330
1F
100
AcDbEntity
  8
0
100
AcDbLine
 10
-1408.069808460536
 20
374.9336239002926
 30
0.0
 11
-1409.505561001861
 21
374.4110527114785
 31
0.0
  0
LINE
  5
179
330
1F
100
AcDbEntity
  8
0
100
AcDbLine
 10
-1409.505561001861
 20
374.4110527114785
 30
0.0
 11
-1410.992272310279
 21
374.0586956585814
 31
0.0
  0
LINE
  5
17A
330
1F
100
AcDbEntity
  8
0
100
AcDbLine
 10
-1400.135076416427
 20
386.9977978705794
 30
0.0
 11
-1400.223915664524
 21
385.472486887435
 31
0.0
  0
LINE
  5
17B
330
1F
100
AcDbEntity
  8
0
100
AcDbLine
 10
-1400.135076416427
 20
386.9977978705794
 30
0.0
 11
-1400.135076416428
 21
375.9731122295049
 31
0.0
  0
LINE
  5
17C
330
1F
100
AcDbEntity
  8
0
100
AcDbLine
 10
-1400.135076416428
 20
375.9731122295049
 30
0.0
 11
-1410.992272310279
 21
374.0586956585814
 31
0.0
  0
LINE
  5
17D
330
1F
100
AcDbEntity
  8
0
100
AcDbLine
 10
-1400.223915664524
 20
385.472486887435
 30
0.0
 11
-1400.489232010388
 21
383.9678031186924
 31
0.0
  0
LINE
  5
17E
330
1F
100
AcDbEntity
  8
0
100
AcDbLine
 10
-1442.670764238033
 20
199.2738050656043
 30
0.0
 11
-1453.527960131887
 21
201.1882216365274
 31
0.0
  0
LINE
  5
17F
330
1F
100
AcDbEntity
  8
0
100
AcDbLine
 10
-1448.235144207926
 20
366.0726835987082
 30
0.0
 11
-1449.405580403389
 21
365.0905710187796
 31
0.0
  0
LINE
  5
180
330
1F
100
AcDbEntity
  8
0
100
AcDbLine
 10
-1449.405580403389
 20
365.0905710187796
 30
0.0
 11
-1450.454086216608
 21
363.9792197840447
 31
0.0
  0
LINE
  5
181
330
1F
100
AcDbEntity
  8
0
100
AcDbLine
 10
-1450.454086216608
 20
363.9792197840447
 30
0.0
 11
-1451.366482405156
 21
362.7536590134484
 31
0.0
  0
LINE
  5
182
330
1F
100
AcDbEntity
  8
0
100
AcDbLine
 10
-1451.366482405156
 20
362.7536590134484
 30
0.0
 11
-1452.130430375783
 21
361.4304623139823
 31
0.0
  0
LINE
  5
183
330
1F
100
AcDbEntity
  8
0
100
AcDbLine
 10
-1452.130430375783
 20
361.4304623139823
 30
0.0
 11
-1452.735599042727
 21
360.0275236510859
 31
0.0
  0
LINE
  5
184
330
1F
100
AcDbEntity
  8
0
100
AcDbLine
 10
-1452.735599042727
 20
360.0275236510859
 30
0.0
 11
-1453.173804537926
 21
358.5638153634535
 31
0.0
  0
LINE
  5
185
330
1F
100
AcDbEntity
  8
0
100
AcDbLine
 10
-1453.173804537926
 20
358.5638153634535
 30
0.0
 11
-1453.439120883789
 21
357.05913159471
 31
0.0
  0
LINE
  5
186
330
1F
100
AcDbEntity
  8
0
100
AcDbLine
 10
-1453.439120883789
 20
357.05913159471
 30
0.0
 11
-1453.527960131886
 21
355.5338206115657
 31
0.0
  0
LINE
  5
187
330
1F
100
AcDbEntity
  8
0
100
AcDbLine
 10
-1410.992272310279
 20
374.0586956585814
 30
0.0
 11
-1442.670764238034
 21
368.4729228235629
 31
0.0
  0
LINE
  5
188
330
1F
100
AcDbEntity
  8
0
100
AcDbLine
 10
-1247.241238148693
 20
164.8143067889834
 30
0.0
 11
-1442.670764238033
 21
199.2738050656043
 31
0.0
  0
LINE
  5
189
330
1F
100
AcDbEntity
  8
0
100
AcDbLine
 10
-1442.670764238034
 20
368.4729228235629
 30
0.0
 11
-1453.527960131886
 21
366.5585062526406
 31
0.0
  0
LINE
  5
18A
330
1F
100
AcDbEntity
  8
0
100
AcDbLine
 10
-1442.670764238034
 20
368.4729228235629
 30
0.0
 11
-1444.157475546452
 21
368.1205657706674
 31
0.0
  0
LINE
  5
18B
330
1F
100
AcDbEntity
  8
0
100
AcDbLine
 10
-1444.157475546452
 20
368.1205657706674
 30
0.0
 11
-1445.593228087777
 21
367.597994581853
 31
0.0
  0
LINE
  5
18C
330
1F
100
AcDbEntity
  8
0
100
AcDbLine
 10
-1445.593228087777
 20
367.597994581853
 30
0.0
 11
-1446.9586057719
 21
366.9122761359858
 31
0.0
  0
LINE
  5
18D
330
1F
100
AcDbEntity
  8
0
100
AcDbLine
 10
-1446.9586057719
 20
366.9122761359858
 30
0.0
 11
-1448.235144207926
 21
366.0726835987082
 31
0.0
  0
LINE
  5
18E
330
1F
100
AcDbEntity
  8
0
100
AcDbLine
 10
-1400.135076416427
 20
1345.011648211056
 30
0.0
 11
-1400.135076416427
 21
386.9977978705794
 31
0.0
  0
LINE
  5
18F
330
1F
100
AcDbEntity
  8
0
100
AcDbLine
 10
-672.5058241055285
 20
1345.011648211055
 30
0.0
 11
-1400.135076416427
 21
1345.011648211056
 31
0.0
  0
LINE
  5
190
330
1F
100
AcDbEntity
  8
0
100
AcDbLine
 10
-672.5058241055285
 20
1345.011648211055
 30
0.0
 11
-672.5058241055285
 21
1333.986962569983
 31
0.0
  0
LINE
  5
191
330
1F
100
AcDbEntity
  8
0
100
AcDbLine
 10
-1006.475449001577
 20
-631.6361372050508
 30
0.0
 11
-680.3014540827814
 21
-305.4621422862568
 31
0.0
  0
LINE
  5
192
330
1F
100
AcDbEntity
  8
0
100
AcDbLine
 10
-1171.845733617689
 20
-411.142424383566
 30
0.0
 11
-1148.458843685928
 21
-387.7555344518058
 31
0.0
  0
LINE
  5
193
330
1F
100
AcDbEntity
  8
0
100
AcDbLine
 10
-1142.577630279599
 20
-369.102708580701
 30
0.0
 11
-1234.469625683917
 21
152.0426943242079
 31
0.0
  0
LINE
  5
194
330
1F
100
AcDbEntity
  8
0
100
AcDbLine
 10
-1453.527960131887
 20
201.1882216365274
 30
0.0
 11
-1453.527960131885
 21
212.2129072776015
 31
0.0
  0
LINE
  5
195
330
1F
100
AcDbEntity
  8
0
100
AcDbLine
 10
-1234.764791800314
 20
-418.9380543608204
 30
0.0
 11
-1234.764791800314
 21
-429.9627400018938
 31
0.0
  0
LINE
  5
196
330
1F
100
AcDbEntity
  8
0
100
AcDbLine
 10
-1453.527960131886
 20
355.5338206115657
 30
0.0
 11
-1453.527960131886
 21
366.5585062526406
 31
0.0
  0
LINE
  5
197
330
1F
100
AcDbEntity
  8
0
100
AcDbLine
 10
-2017.517472316585
 20
297.6665123090035
 30
0.0
 11
-2017.517472316585
 21
286.6418266679292
 31
0.0
  0
LINE
  5
198
330
1F
100
AcDbEntity
  8
0
100
AcDbLine
 10
-2017.517472316585
 20
286.6418266679292
 30
0.0
 11
-2017.517472316584
 21
-1345.011648211056
 31
0.0
  0
LINE
  5
199
330
1F
100
AcDbEntity
  8
0
100
AcDbLine
 10
672.5058241055274
 20
-1345.011648211056
 30
0.0
 11
672.5058241055274
 21
286.6418266679291
 31
0.0
  0
LINE
  5
19A
330
1F
100
AcDbEntity
  8
0
100
AcDbLine
 10
672.5058241055274
 20
297.6665123090039
 30
0.0
 11
11.02468564107368
 21
297.6665123090039
 31
0.0
  0
LINE
  5
19B
330
1F
100
AcDbEntity
  8
0
100
AcDbLine
 10
11.02468564107368
 20
297.6665123090039
 30
0.0
 11
11.02468564107371
 21
-1345.011648211056
 31
0.0
  0
LINE
  5
19C
330
1F
100
AcDbEntity
  8
0
100
AcDbLine
 10
11.02468564107371
 20
-1345.011648211056
 30
0.0
 11
672.5058241055274
 21
-1345.011648211056
 31
0.0
  0
LINE
  5
19D
330
1F
100
AcDbEntity
  8
0
100
AcDbLine
 10
672.5058241055274
 20
297.6665123090039
 30
0.0
 11
672.5058241055274
 21
683.530509746602
 31
0.0
  0
LINE
  5
19E
330
1F
100
AcDbEntity
  8
0
100
AcDbLine
 10
672.5058241055274
 20
1267.838848723536
 30
0.0
 11
11.02468564107368
 21
1267.838848723536
 31
0.0
  0
LINE
  5
19F
330
1F
100
AcDbEntity
  8
0
100
AcDbLine
 10
11.02468564107368
 20
1267.838848723536
 30
0.0
 11
11.02468564107368
 21
297.6665123090039
 31
0.0
  0
LINE
  5
1A0
330
1F
100
AcDbEntity
  8
0
100
AcDbLine
 10
-2017.517472316584
 20
1345.011648211055
 30
0.0
 11
-2017.517472316584
 21
683.5305097466016
 31
0.0
  0
LINE
  5
1A1
330
1F
100
AcDbEntity
  8
0
100
AcDbLine
 10
-2017.517472316584
 20
683.5305097466016
 30
0.0
 11
-1548.968332570929
 21
683.5305097466016
 31
0.0
  0
LINE
  5
1A2
330
1F
100
AcDbEntity
  8
0
100
AcDbLine
 10
-1548.968332570929
 20
683.5305097466016
 30
0.0
 11
-1548.968332570929
 21
1345.011648211055
 31
0.0
  0
LINE
  5
1A3
330
1F
100
AcDbEntity
  8
0
100
AcDbLine
 10
-1548.968332570929
 20
1345.011648211055
 30
0.0
 11
-2017.517472316584
 21
1345.011648211055
 31
0.0
  0
LINE
  5
1A4
330
1F
100
AcDbEntity
  8
0
100
AcDbLine
 10
-672.5058241055285
 20
-683.5305097466024
 30
0.0
 11
-870.9501656448645
 21
-683.5305097466024
 31
0.0
  0
LINE
  5
1A5
330
1F
100
AcDbEntity
  8
0
100
AcDbLine
 10
-870.9501656448645
 20
-683.5305097466024
 30
0.0
 11
-870.9501656448645
 21
-1345.011648211056
 31
0.0
  0
LINE
  5
1A6
330
1F
100
AcDbEntity
  8
0
100
AcDbLine
 10
-870.9501656448645
 20
-1345.011648211056
 30
0.0
 11
-672.5058241055285
 21
-1345.011648211056
 31
0.0
  0
LINE
  5
1A7
330
1F
100
AcDbEntity
  8
0
100
AcDbLine
 10
-870.9501656448645
 20
-683.5305097466024
 30
0.0
 11
-1201.690734877091
 21
-683.5305097466024
 31
0.0
  0
LINE
  5
1A8
330
1F
100
AcDbEntity
  8
0
100
AcDbLine
 10
-1201.690734877091
 20
-683.5305097466024
 30
0.0
 11
-1201.690734877091
 21
-1345.011648211056
 31
0.0
  0
LINE
  5
1A9
330
1F
100
AcDbEntity
  8
0
100
AcDbLine
 10
-1201.690734877091
 20
-1345.011648211056
 30
0.0
 11
-870.9501656448645
 21
-1345.011648211056
 31
0.0
  0
LINE
  5
1AA
330
1F
100
AcDbEntity
  8
0
100
AcDbLine
 10
-672.5058241055285
 20
-1345.011648211056
 30
0.0
 11
-11.02468564107504
 21
-1345.011648211056
 31
0.0
  0
LINE
  5
1AB
330
1F
100
AcDbEntity
  8
0
100
AcDbLine
 10
-672.5058241055285
 20
297.6665123090043
 30
0.0
 11
-672.5058241055285
 21
-286.6418266679286
 31
0.0
  0
LINE
  5
1AC
330
1F
100
AcDbEntity
  8
0
100
AcDbLine
 10
-11.02468564107491
 20
297.6665123090043
 30
0.0
 11
-672.5058241055285
 21
297.6665123090043
 31
0.0
  0
LINE
  5
1AD
330
1F
100
AcDbEntity
  8
0
100
AcDbLine
 10
-11.02468564107504
 20
-1345.011648211056
 30
0.0
 11
-11.02468564107491
 21
297.6665123090043
 31
0.0
  0
LINE
  5
1AE
330
1F
100
AcDbEntity
  8
0
100
AcDbLine
 10
-11.02468564107491
 20
1267.838848723538
 30
0.0
 11
-672.5058241055284
 21
1267.838848723538
 31
0.0
  0
LINE
  5
1AF
330
1F
100
AcDbEntity
  8
0
100
AcDbLine
 10
-11.02468564107491
 20
297.6665123090043
 30
0.0
 11
-11.02468564107491
 21
1267.838848723538
 31
0.0
  0
LINE
  5
1B0
330
1F
100
AcDbEntity
  8
0
100
AcDbLine
 10
1518.177562804421
 20
-411.1424243835658
 30
0.0
 11
1541.564452736183
 21
-387.7555344518056
 31
0.0
  0
LINE
  5
1B1
330
1F
100
AcDbEntity
  8
0
100
AcDbLine
 10
1547.445666142512
 20
-369.102708580701
 30
0.0
 11
1455.553670738194
 21
152.042694324208
 31
0.0
  0
LINE
  5
1B2
330
1F
100
AcDbEntity
  8
0
100
AcDbLine
 10
1236.495336290224
 20
201.1882216365272
 30
0.0
 11
1236.495336290225
 21
212.2129072776013
 31
0.0
  0
LINE
  5
1B3
330
1F
100
AcDbEntity
  8
0
100
AcDbLine
 10
1247.352532184077
 20
368.4729228235627
 30
0.0
 11
1236.495336290224
 21
366.5585062526404
 31
0.0
  0
LINE
  5
1B4
330
1F
100
AcDbEntity
  8
0
100
AcDbLine
 10
1247.352532184077
 20
368.4729228235627
 30
0.0
 11
1245.865820875658
 21
368.1205657706672
 31
0.0
  0
LINE
  5
1B5
330
1F
100
AcDbEntity
  8
0
100
AcDbLine
 10
1245.865820875658
 20
368.1205657706672
 30
0.0
 11
1244.430068334333
 21
367.5979945818523
 31
0.0
  0
LINE
  5
1B6
330
1F
100
AcDbEntity
  8
0
100
AcDbLine
 10
1244.430068334333
 20
367.5979945818523
 30
0.0
 11
1243.064690650211
 21
366.9122761359853
 31
0.0
  0
LINE
  5
1B7
330
1F
100
AcDbEntity
  8
0
100
AcDbLine
 10
1243.064690650211
 20
366.9122761359853
 30
0.0
 11
1241.788152214186
 21
366.072683598708
 31
0.0
  0
LINE
  5
1B8
330
1F
100
AcDbEntity
  8
0
100
AcDbLine
 10
1241.788152214186
 20
366.072683598708
 30
0.0
 11
1240.617716018722
 21
365.0905710187794
 31
0.0
  0
LINE
  5
1B9
330
1F
100
AcDbEntity
  8
0
100
AcDbLine
 10
1240.617716018722
 20
365.0905710187794
 30
0.0
 11
1239.569210205504
 21
363.9792197840441
 31
0.0
  0
LINE
  5
1BA
330
1F
100
AcDbEntity
  8
0
100
AcDbLine
 10
1239.569210205504
 20
363.9792197840441
 30
0.0
 11
1238.656814016955
 21
362.7536590134482
 31
0.0
  0
LINE
  5
1BB
330
1F
100
AcDbEntity
  8
0
100
AcDbLine
 10
1238.656814016955
 20
362.7536590134482
 30
0.0
 11
1237.892866046328
 21
361.4304623139817
 31
0.0
  0
LINE
  5
1BC
330
1F
100
AcDbEntity
  8
0
100
AcDbLine
 10
1237.892866046328
 20
361.4304623139817
 30
0.0
 11
1237.287697379383
 21
360.0275236510857
 31
0.0
  0
LINE
  5
1BD
330
1F
100
AcDbEntity
  8
0
100
AcDbLine
 10
1237.287697379383
 20
360.0275236510857
 30
0.0
 11
1236.849491884186
 21
358.5638153634533
 31
0.0
  0
LINE
  5
1BE
330
1F
100
AcDbEntity
  8
0
100
AcDbLine
 10
1236.849491884186
 20
358.5638153634533
 30
0.0
 11
1236.584175538323
 21
357.0591315947098
 31
0.0
  0
LINE
  5
1BF
330
1F
100
AcDbEntity
  8
0
100
AcDbLine
 10
1236.584175538323
 20
357.0591315947098
 30
0.0
 11
1236.495336290224
 21
355.5338206115655
 31
0.0
  0
LINE
  5
1C0
330
1F
100
AcDbEntity
  8
0
100
AcDbLine
 10
1236.495336290224
 20
355.5338206115655
 30
0.0
 11
1236.495336290224
 21
366.5585062526404
 31
0.0
  0
LINE
  5
1C1
330
1F
100
AcDbEntity
  8
0
100
AcDbLine
 10
1148.458843685927
 20
387.755534451806
 30
0.0
 11
1140.663213708674
 21
379.9599044745524
 31
0.0
  0
LINE
  5
1C2
330
1F
100
AcDbEntity
  8
0
100
AcDbLine
 10
1140.663213708674
 20
379.9599044745524
 30
0.0
 11
1142.577630279596
 21
369.1027085806998
 31
0.0
  0
LINE
  5
1C3
330
1F
100
AcDbEntity
  8
0
100
AcDbLine
 10
1234.469625683915
 20
-152.0426943242083
 30
0.0
 11
1236.384042254839
 21
-162.8998902180608
 31
0.0
  0
LINE
  5
1C4
330
1F
100
AcDbEntity
  8
0
100
AcDbLine
 10
1236.384042254839
 20
-162.8998902180608
 30
0.0
 11
1247.241238148691
 21
-164.814306788984
 31
0.0
  0
LINE
  5
1C5
330
1F
100
AcDbEntity
  8
0
100
AcDbLine
 10
1234.469625683915
 20
-152.0426943242083
 30
0.0
 11
1234.827795451181
 21
-153.6044578913977
 31
0.0
  0
LINE
  5
1C6
330
1F
100
AcDbEntity
  8
0
100
AcDbLine
 10
1234.827795451181
 20
-153.6044578913977
 30
0.0
 11
1235.342840487492
 21
-155.1217316414352
 31
0.0
  0
LINE
  5
1C7
330
1F
100
AcDbEntity
  8
0
100
AcDbLine
 10
1235.342840487492
 20
-155.1217316414352
 30
0.0
 11
1236.009426727177
 21
-156.5788019235581
 31
0.0
  0
LINE
  5
1C8
330
1F
100
AcDbEntity
  8
0
100
AcDbLine
 10
1236.009426727177
 20
-156.5788019235581
 30
0.0
 11
1236.820650667572
 21
-157.9605785844236
 31
0.0
  0
LINE
  5
1C9
330
1F
100
AcDbEntity
  8
0
100
AcDbLine
 10
1236.820650667572
 20
-157.9605785844236
 30
0.0
 11
1237.768110865174
 21
-159.2527512493348
 31
0.0
  0
LINE
  5
1CA
330
1F
100
AcDbEntity
  8
0
100
AcDbLine
 10
1237.768110865174
 20
-159.2527512493348
 30
0.0
 11
1238.841994945215
 21
-160.441937527684
 31
0.0
  0
LINE
  5
1CB
330
1F
100
AcDbEntity
  8
0
100
AcDbLine
 10
1238.841994945215
 20
-160.441937527684
 30
0.0
 11
1240.031181223564
 21
-161.5158216077263
 31
0.0
  0
LINE
  5
1CC
330
1F
100
AcDbEntity
  8
0
100
AcDbLine
 10
1240.031181223564
 20
-161.5158216077263
 30
0.0
 11
1241.323353888476
 21
-162.4632818053278
 31
0.0
  0
LINE
  5
1CD
330
1F
100
AcDbEntity
  8
0
100
AcDbLine
 10
1241.323353888476
 20
-162.4632818053278
 30
0.0
 11
1242.705130549341
 21
-163.2745057457222
 31
0.0
  0
LINE
  5
1CE
330
1F
100
AcDbEntity
  8
0
100
AcDbLine
 10
1242.705130549341
 20
-163.2745057457222
 30
0.0
 11
1244.162200831465
 21
-163.9410919854072
 31
0.0
  0
LINE
  5
1CF
330
1F
100
AcDbEntity
  8
0
100
AcDbLine
 10
1244.162200831465
 20
-163.9410919854072
 30
0.0
 11
1245.679474581503
 21
-164.4561370217189
 31
0.0
  0
LINE
  5
1D0
330
1F
100
AcDbEntity
  8
0
100
AcDbLine
 10
1245.679474581503
 20
-164.4561370217189
 30
0.0
 11
1247.241238148691
 21
-164.814306788984
 31
0.0
  0
LINE
  5
1D1
330
1F
100
AcDbEntity
  8
0
100
AcDbLine
 10
1402.296554143156
 20
-379.7779594686977
 30
0.0
 11
1403.208950331705
 21
-378.5523986981009
 31
0.0
  0
LINE
  5
1D2
330
1F
100
AcDbEntity
  8
0
100
AcDbLine
 10
1403.208950331705
 20
-378.5523986981009
 30
0.0
 11
1404.257456144923
 21
-377.4410474633661
 31
0.0
  0
LINE
  5
1D3
330
1F
100
AcDbEntity
  8
0
100
AcDbLine
 10
1404.257456144923
 20
-377.4410474633661
 30
0.0
 11
1405.427892340387
 21
-376.4589348834371
 31
0.0
  0
LINE
  5
1D4
330
1F
100
AcDbEntity
  8
0
100
AcDbLine
 10
1405.427892340387
 20
-376.4589348834371
 30
0.0
 11
1406.704430776412
 21
-375.6193423461598
 31
0.0
  0
LINE
  5
1D5
330
1F
100
AcDbEntity
  8
0
100
AcDbLine
 10
1406.704430776412
 20
-375.6193423461598
 30
0.0
 11
1408.069808460534
 21
-374.9336239002931
 31
0.0
  0
LINE
  5
1D6
330
1F
100
AcDbEntity
  8
0
100
AcDbLine
 10
1408.069808460534
 20
-374.9336239002931
 30
0.0
 11
1409.505561001861
 21
-374.4110527114783
 31
0.0
  0
LINE
  5
1D7
330
1F
100
AcDbEntity
  8
0
100
AcDbLine
 10
1409.505561001861
 20
-374.4110527114783
 30
0.0
 11
1410.992272310278
 21
-374.0586956585819
 31
0.0
  0
LINE
  5
1D8
330
1F
100
AcDbEntity
  8
0
100
AcDbLine
 10
1400.135076416425
 20
-386.9977978705796
 30
0.0
 11
1400.223915664522
 21
-385.4724868874357
 31
0.0
  0
LINE
  5
1D9
330
1F
100
AcDbEntity
  8
0
100
AcDbLine
 10
1400.135076416425
 20
-386.9977978705796
 30
0.0
 11
1400.135076416425
 21
-375.9731122295055
 31
0.0
  0
LINE
  5
1DA
330
1F
100
AcDbEntity
  8
0
100
AcDbLine
 10
1400.135076416425
 20
-375.9731122295055
 30
0.0
 11
1410.992272310278
 21
-374.0586956585819
 31
0.0
  0
LINE
  5
1DB
330
1F
100
AcDbEntity
  8
0
100
AcDbLine
 10
1401.532606172529
 20
-381.1011561681634
 30
0.0
 11
1402.296554143156
 21
-379.7779594686977
 31
0.0
  0
LINE
  5
1DC
330
1F
100
AcDbEntity
  8
0
100
AcDbLine
 10
1400.927437505584
 20
-382.5040948310606
 30
0.0
 11
1401.532606172529
 21
-381.1011561681634
 31
0.0
  0
LINE
  5
1DD
330
1F
100
AcDbEntity
  8
0
100
AcDbLine
 10
1400.489232010387
 20
-383.9678031186922
 30
0.0
 11
1400.927437505584
 21
-382.5040948310606
 31
0.0
  0
LINE
  5
1DE
330
1F
100
AcDbEntity
  8
0
100
AcDbLine
 10
1400.223915664522
 20
-385.4724868874357
 30
0.0
 11
1400.489232010387
 21
-383.9678031186922
 31
0.0
  0
LINE
  5
1DF
330
1F
100
AcDbEntity
  8
0
100
AcDbLine
 10
1442.670764238032
 20
-199.2738050656037
 30
0.0
 11
1453.527960131884
 21
-201.1882216365272
 31
0.0
  0
LINE
  5
1E0
330
1F
100
AcDbEntity
  8
0
100
AcDbLine
 10
1448.235144207924
 20
-366.0726835987087
 30
0.0
 11
1449.405580403386
 21
-365.0905710187798
 31
0.0
  0
LINE
  5
1E1
330
1F
100
AcDbEntity
  8
0
100
AcDbLine
 10
1449.405580403386
 20
-365.0905710187798
 30
0.0
 11
1450.454086216606
 21
-363.9792197840445
 31
0.0
  0
LINE
  5
1E2
330
1F
100
AcDbEntity
  8
0
100
AcDbLine
 10
672.7335272097644
 20
290.1159046988564
 30
0.0
 11
673.017242036949
 21
291.8343400649347
 31
0.0
  0
LINE
  5
1E3
330
1F
100
AcDbEntity
  8
0
100
AcDbLine
 10
672.5628108881244
 20
288.3825927972994
 30
0.0
 11
672.7335272097644
 21
290.1159046988564
 31
0.0
  0
LINE
  5
1E4
330
1F
100
AcDbEntity
  8
0
100
AcDbLine
 10
672.5058241055274
 20
286.6418266679291
 30
0.0
 11
672.5628108881244
 21
288.3825927972994
 31
0.0
  0
LINE
  5
1E5
330
1F
100
AcDbEntity
  8
0
100
AcDbLine
 10
1223.740106159238
 20
418.9380543608199
 30
0.0
 11
1190.666049236015
 21
418.9380543608199
 31
0.0
  0
LINE
  5
1E6
330
1F
100
AcDbEntity
  8
0
100
AcDbLine
 10
1234.764791800313
 20
429.962740001894
 30
0.0
 11
1234.764791800313
 21
628.407081541231
 31
0.0
  0
LINE
  5
1E7
330
1F
100
AcDbEntity
  8
0
100
AcDbLine
 10
1453.527960131884
 20
-212.2129072776013
 30
0.0
 11
1453.527960131884
 21
-355.5338206115659
 31
0.0
  0
LINE
  5
1E8
330
1F
100
AcDbEntity
  8
0
100
AcDbLine
 10
1442.670764238032
 20
-199.2738050656037
 30
0.0
 11
1444.15747554645
 21
-199.6261621185
 31
0.0
  0
LINE
  5
1E9
330
1F
100
AcDbEntity
  8
0
100
AcDbLine
 10
1444.15747554645
 20
-199.6261621185
 30
0.0
 11
1445.593228087775
 21
-200.1487333073148
 31
0.0
  0
LINE
  5
1EA
330
1F
100
AcDbEntity
  8
0
100
AcDbLine
 10
1445.593228087775
 20
-200.1487333073148
 30
0.0
 11
1446.958605771899
 21
-200.8344517531815
 31
0.0
  0
LINE
  5
1EB
330
1F
100
AcDbEntity
  8
0
100
AcDbLine
 10
1446.958605771899
 20
-200.8344517531815
 30
0.0
 11
1448.235144207924
 21
-201.6740442904588
 31
0.0
  0
LINE
  5
1EC
330
1F
100
AcDbEntity
  8
0
100
AcDbLine
 10
1448.235144207924
 20
-201.6740442904588
 30
0.0
 11
1449.405580403386
 21
-202.6561568703878
 31
0.0
  0
LINE
  5
1ED
330
1F
100
AcDbEntity
  8
0
100
AcDbLine
 10
1449.405580403386
 20
-202.6561568703878
 30
0.0
 11
1450.454086216606
 21
-203.7675081051227
 31
0.0
  0
LINE
  5
1EE
330
1F
100
AcDbEntity
  8
0
100
AcDbLine
 10
1450.454086216606
 20
-203.7675081051227
 30
0.0
 11
1451.366482405154
 21
-204.9930688757194
 31
0.0
  0
LINE
  5
1EF
330
1F
100
AcDbEntity
  8
0
100
AcDbLine
 10
1451.366482405154
 20
-204.9930688757194
 30
0.0
 11
1452.130430375781
 21
-206.3162655751854
 31
0.0
  0
LINE
  5
1F0
330
1F
100
AcDbEntity
  8
0
100
AcDbLine
 10
1452.130430375781
 20
-206.3162655751854
 30
0.0
 11
1452.735599042726
 21
-207.7192042380823
 31
0.0
  0
LINE
  5
1F1
330
1F
100
AcDbEntity
  8
0
100
AcDbLine
 10
1452.735599042726
 20
-207.7192042380823
 30
0.0
 11
1453.173804537924
 21
-209.1829125257139
 31
0.0
  0
LINE
  5
1F2
330
1F
100
AcDbEntity
  8
0
100
AcDbLine
 10
1453.173804537924
 20
-209.1829125257139
 30
0.0
 11
1453.439120883787
 21
-210.6875962944573
 31
0.0
  0
LINE
  5
1F3
330
1F
100
AcDbEntity
  8
0
100
AcDbLine
 10
1453.439120883787
 20
-210.6875962944573
 30
0.0
 11
1453.527960131884
 21
-212.2129072776013
 31
0.0
  0
LINE
  5
1F4
330
1F
100
AcDbEntity
  8
0
100
AcDbLine
 10
1007.746652276525
 20
632.8267489991766
 30
0.0
 11
1009.093003544718
 21
633.9316709299878
 31
0.0
  0
LINE
  5
1F5
330
1F
100
AcDbEntity
  8
0
100
AcDbLine
 10
1006.475449001575
 20
631.6361372050516
 30
0.0
 11
1007.746652276525
 21
632.8267489991766
 31
0.0
  0
LINE
  5
1F6
330
1F
100
AcDbEntity
  8
0
100
AcDbLine
 10
1014.271078978828
 20
639.4317671823052
 30
0.0
 11
1006.475449001575
 21
631.6361372050516
 31
0.0
  0
LINE
  5
1F7
330
1F
100
AcDbEntity
  8
0
100
AcDbLine
 10
680.301454082781
 20
305.4621422862572
 30
0.0
 11
672.5058241055274
 21
297.6665123090039
 31
0.0
  0
LINE
  5
1F8
330
1F
100
AcDbEntity
  8
0
100
AcDbLine
 10
679.110842288656
 20
304.1909390113071
 30
0.0
 11
680.301454082781
 21
305.4621422862572
 31
0.0
  0
LINE
  5
1F9
330
1F
100
AcDbEntity
  8
0
100
AcDbLine
 10
678.005920357844
 20
302.8445877431138
 30
0.0
 11
679.110842288656
 21
304.1909390113071
 31
0.0
  0
LINE
  5
1FA
330
1F
100
AcDbEntity
  8
0
100
AcDbLine
 10
676.9914197356848
 20
301.4288537645033
 30
0.0
 11
678.005920357844
 21
302.8445877431138
 31
0.0
  0
LINE
  5
1FB
330
1F
100
AcDbEntity
  8
0
100
AcDbLine
 10
676.071684669591
 20
299.9497994657197
 30
0.0
 11
676.9914197356848
 21
301.4288537645033
 31
0.0
  0
LINE
  5
1FC
330
1F
100
AcDbEntity
  8
0
100
AcDbLine
 10
675.2506536063148
 20
298.413758384339
 30
0.0
 11
676.071684669591
 21
299.9497994657197
 31
0.0
  0
LINE
  5
1FD
330
1F
100
AcDbEntity
  8
0
100
AcDbLine
 10
674.5318423269174
 20
296.8273080840886
 30
0.0
 11
675.2506536063148
 21
298.413758384339
 31
0.0
  0
LINE
  5
1FE
330
1F
100
AcDbEntity
  8
0
100
AcDbLine
 10
673.9183288916499
 20
295.1972419887107
 30
0.0
 11
674.5318423269174
 21
296.8273080840886
 31
0.0
  0
LINE
  5
1FF
330
1F
100
AcDbEntity
  8
0
100
AcDbLine
 10
673.4127404592316
 20
293.5305402914781
 30
0.0
 11
673.9183288916499
 21
295.1972419887107
 31
0.0
  0
LINE
  5
200
330
1F
100
AcDbEntity
  8
0
100
AcDbLine
 10
673.017242036949
 20
291.8343400649347
 30
0.0
 11
673.4127404592316
 21
293.5305402914781
 31
0.0
  0
LINE
  5
201
330
1F
100
AcDbEntity
  8
0
100
AcDbLine
 10
1225.17911639639
 20
639.3374494683359
 30
0.0
 11
1226.593504769416
 21
639.0561101286628
 31
0.0
  0
LINE
  5
202
330
1F
100
AcDbEntity
  8
0
100
AcDbLine
 10
1223.740106159238
 20
639.4317671823052
 30
0.0
 11
1225.17911639639
 21
639.3374494683359
 31
0.0
  0
LINE
  5
203
330
1F
100
AcDbEntity
  8
0
100
AcDbLine
 10
1223.740106159238
 20
639.4317671823052
 30
0.0
 11
1234.764791800313
 21
639.4317671823052
 31
0.0
  0
LINE
  5
204
330
1F
100
AcDbEntity
  8
0
100
AcDbLine
 10
1025.295764619903
 20
639.4317671823052
 30
0.0
 11
1014.271078978828
 21
639.4317671823052
 31
0.0
  0
LINE
  5
205
330
1F
100
AcDbEntity
  8
0
100
AcDbLine
 10
1023.554998490532
 20
639.3747803997072
 30
0.0
 11
1025.295764619903
 21
639.4317671823052
 31
0.0
  0
LINE
  5
206
330
1F
100
AcDbEntity
  8
0
100
AcDbLine
 10
1021.821686588975
 20
639.2040640780674
 30
0.0
 11
1023.554998490532
 21
639.3747803997072
 31
0.0
  0
LINE
  5
207
330
1F
100
AcDbEntity
  8
0
100
AcDbLine
 10
1020.103251222897
 20
638.9203492508829
 30
0.0
 11
1021.821686588975
 21
639.2040640780674
 31
0.0
  0
LINE
  5
208
330
1F
100
AcDbEntity
  8
0
100
AcDbLine
 10
1018.407050996354
 20
638.5248508286002
 30
0.0
 11
1020.103251222897
 21
638.9203492508829
 31
0.0
  0
LINE
  5
209
330
1F
100
AcDbEntity
  8
0
100
AcDbLine
 10
1016.74034929912
 20
638.019262396182
 30
0.0
 11
1018.407050996354
 21
638.5248508286002
 31
0.0
  0
LINE
  5
20A
330
1F
100
AcDbEntity
  8
0
100
AcDbLine
 10
1015.110283203744
 20
637.4057489609152
 30
0.0
 11
1016.74034929912
 21
638.019262396182
 31
0.0
  0
LINE
  5
20B
330
1F
100
AcDbEntity
  8
0
100
AcDbLine
 10
1013.523832903492
 20
636.6869376815177
 30
0.0
 11
1015.110283203744
 21
637.4057489609152
 31
0.0
  0
LINE
  5
20C
330
1F
100
AcDbEntity
  8
0
100
AcDbLine
 10
1011.987791822112
 20
635.8659066182416
 30
0.0
 11
1013.523832903492
 21
636.6869376815177
 31
0.0
  0
LINE
  5
20D
330
1F
100
AcDbEntity
  8
0
100
AcDbLine
 10
1010.508737523328
 20
634.946171552147
 30
0.0
 11
1011.987791822112
 21
635.8659066182416
 31
0.0
  0
LINE
  5
20E
330
1F
100
AcDbEntity
  8
0
100
AcDbLine
 10
1009.093003544718
 20
633.9316709299878
 30
0.0
 11
1010.508737523328
 21
634.946171552147
 31
0.0
  0
LINE
  5
20F
330
1F
100
AcDbEntity
  8
0
100
AcDbLine
 10
1234.389134746671
 20
427.1093413917159
 30
0.0
 11
1234.670474086343
 21
428.5237297647417
 31
0.0
  0
LINE
  5
210
330
1F
100
AcDbEntity
  8
0
100
AcDbLine
 10
1234.670474086343
 20
428.5237297647417
 30
0.0
 11
1234.764791800313
 21
429.962740001894
 31
0.0
  0
LINE
  5
211
330
1F
100
AcDbEntity
  8
0
100
AcDbLine
 10
1234.764791800313
 20
418.9380543608199
 30
0.0
 11
1234.764791800313
 21
429.962740001894
 31
0.0
  0
LINE
  5
212
330
1F
100
AcDbEntity
  8
0
100
AcDbLine
 10
1234.764791800313
 20
628.407081541231
 30
0.0
 11
1234.764791800313
 21
639.4317671823052
 31
0.0
  0
LINE
  5
213
330
1F
100
AcDbEntity
  8
0
100
AcDbLine
 10
1234.670474086343
 20
629.8460917783834
 30
0.0
 11
1234.764791800313
 21
628.407081541231
 31
0.0
  0
LINE
  5
214
330
1F
100
AcDbEntity
  8
0
100
AcDbLine
 10
1234.389134746671
 20
631.2604801514092
 30
0.0
 11
1234.670474086343
 21
629.8460917783834
 31
0.0
  0
LINE
  5
215
330
1F
100
AcDbEntity
  8
0
100
AcDbLine
 10
1233.925587575397
 20
632.6260460831032
 30
0.0
 11
1234.389134746671
 21
631.2604801514092
 31
0.0
  0
LINE
  5
216
330
1F
100
AcDbEntity
  8
0
100
AcDbLine
 10
1233.287763993146
 20
633.9194243617677
 30
0.0
 11
1233.925587575397
 21
632.6260460831032
 31
0.0
  0
LINE
  5
217
330
1F
100
AcDbEntity
  8
0
100
AcDbLine
 10
1232.486577338245
 20
635.118484926463
 30
0.0
 11
1233.287763993146
 21
633.9194243617677
 31
0.0
  0
LINE
  5
218
330
1F
100
AcDbEntity
  8
0
100
AcDbLine
 10
1231.535736136492
 20
636.2027115184849
 30
0.0
 11
1232.486577338245
 21
635.118484926463
 31
0.0
  0
LINE
  5
219
330
1F
100
AcDbEntity
  8
0
100
AcDbLine
 10
1230.45150954447
 20
637.153552720238
 30
0.0
 11
1231.535736136492
 21
636.2027115184849
 31
0.0
  0
LINE
  5
21A
330
1F
100
AcDbEntity
  8
0
100
AcDbLine
 10
1229.252448979775
 20
637.9547393751384
 30
0.0
 11
1230.45150954447
 21
637.153552720238
 31
0.0
  0
LINE
  5
21B
330
1F
100
AcDbEntity
  8
0
100
AcDbLine
 10
1227.959070701111
 20
638.5925629573904
 30
0.0
 11
1229.252448979775
 21
637.9547393751384
 31
0.0
  0
LINE
  5
21C
330
1F
100
AcDbEntity
  8
0
100
AcDbLine
 10
1226.593504769416
 20
639.0561101286628
 30
0.0
 11
1227.959070701111
 21
638.5925629573904
 31
0.0
  0
LINE
  5
21D
330
1F
100
AcDbEntity
  8
0
100
AcDbLine
 10
1175.879022139442
 20
414.4524587306624
 30
0.0
 11
1177.358076438225
 21
415.3721937967562
 31
0.0
  0
LINE
  5
21E
330
1F
100
AcDbEntity
  8
0
100
AcDbLine
 10
1174.46328816083
 20
413.4379581085033
 30
0.0
 11
1175.879022139442
 21
414.4524587306624
 31
0.0
  0
LINE
  5
21F
330
1F
100
AcDbEntity
  8
0
100
AcDbLine
 10
1173.116936892638
 20
412.3330361776912
 30
0.0
 11
1174.46328816083
 21
413.4379581085033
 31
0.0
  0
LINE
  5
220
330
1F
100
AcDbEntity
  8
0
100
AcDbLine
 10
1234.764791800313
 20
418.9380543608199
 30
0.0
 11
1223.740106159238
 21
418.9380543608199
 31
0.0
  0
LINE
  5
221
330
1F
100
AcDbEntity
  8
0
100
AcDbLine
 10
1223.740106159238
 20
418.9380543608199
 30
0.0
 11
1225.17911639639
 21
419.0323720747892
 31
0.0
  0
LINE
  5
222
330
1F
100
AcDbEntity
  8
0
100
AcDbLine
 10
1225.17911639639
 20
419.0323720747892
 30
0.0
 11
1226.593504769416
 21
419.3137114144623
 31
0.0
  0
LINE
  5
223
330
1F
100
AcDbEntity
  8
0
100
AcDbLine
 10
1226.593504769416
 20
419.3137114144623
 30
0.0
 11
1227.959070701111
 21
419.7772585857347
 31
0.0
  0
LINE
  5
224
330
1F
100
AcDbEntity
  8
0
100
AcDbLine
 10
1227.959070701111
 20
419.7772585857347
 30
0.0
 11
1229.252448979775
 21
420.4150821679868
 31
0.0
  0
LINE
  5
225
330
1F
100
AcDbEntity
  8
0
100
AcDbLine
 10
1229.252448979775
 20
420.4150821679868
 30
0.0
 11
1230.45150954447
 21
421.2162688228871
 31
0.0
  0
LINE
  5
226
330
1F
100
AcDbEntity
  8
0
100
AcDbLine
 10
1230.45150954447
 20
421.2162688228871
 30
0.0
 11
1231.535736136492
 21
422.1671100246403
 31
0.0
  0
LINE
  5
227
330
1F
100
AcDbEntity
  8
0
100
AcDbLine
 10
1231.535736136492
 20
422.1671100246403
 30
0.0
 11
1232.486577338245
 21
423.2513366166622
 31
0.0
  0
LINE
  5
228
330
1F
100
AcDbEntity
  8
0
100
AcDbLine
 10
1232.486577338245
 20
423.2513366166622
 30
0.0
 11
1233.287763993146
 21
424.4503971813574
 31
0.0
  0
LINE
  5
229
330
1F
100
AcDbEntity
  8
0
100
AcDbLine
 10
1233.287763993146
 20
424.4503971813574
 30
0.0
 11
1233.925587575397
 21
425.7437754600219
 31
0.0
  0
LINE
  5
22A
330
1F
100
AcDbEntity
  8
0
100
AcDbLine
 10
1233.925587575397
 20
425.7437754600219
 30
0.0
 11
1234.389134746671
 21
427.1093413917159
 31
0.0
  0
LINE
  5
22B
330
1F
100
AcDbEntity
  8
0
100
AcDbLine
 10
1143.236078256521
 20
379.1486833986662
 30
0.0
 11
1142.791774758206
 21
377.5143143899869
 31
0.0
  0
LINE
  5
22C
330
1F
100
AcDbEntity
  8
0
100
AcDbLine
 10
1142.791774758206
 20
377.5143143899869
 30
0.0
 11
1142.479492812698
 21
375.8496679885986
 31
0.0
  0
LINE
  5
22D
330
1F
100
AcDbEntity
  8
0
100
AcDbLine
 10
1142.479492812698
 20
375.8496679885986
 30
0.0
 11
1142.30122967214
 21
374.1653907228659
 31
0.0
  0
LINE
  5
22E
330
1F
100
AcDbEntity
  8
0
100
AcDbLine
 10
1142.30122967214
 20
374.1653907228659
 30
0.0
 11
1142.25812544868
 21
372.4722546736759
 31
0.0
  0
LINE
  5
22F
330
1F
100
AcDbEntity
  8
0
100
AcDbLine
 10
1142.25812544868
 20
372.4722546736759
 30
0.0
 11
1142.350455822687
 21
370.7810885797689
 31
0.0
  0
LINE
  5
230
330
1F
100
AcDbEntity
  8
0
100
AcDbLine
 10
1171.845733617687
 20
411.1424243835663
 30
0.0
 11
1173.116936892638
 21
412.3330361776912
 31
0.0
  0
LINE
  5
231
330
1F
100
AcDbEntity
  8
0
100
AcDbLine
 10
1179.641363594942
 20
418.9380543608199
 30
0.0
 11
1171.845733617687
 21
411.1424243835663
 31
0.0
  0
LINE
  5
232
330
1F
100
AcDbEntity
  8
0
100
AcDbLine
 10
1190.666049236015
 20
418.9380543608199
 30
0.0
 11
1179.641363594942
 21
418.9380543608199
 31
0.0
  0
LINE
  5
233
330
1F
100
AcDbEntity
  8
0
100
AcDbLine
 10
1188.925283106646
 20
418.8810675782228
 30
0.0
 11
1190.666049236015
 21
418.9380543608199
 31
0.0
  0
LINE
  5
234
330
1F
100
AcDbEntity
  8
0
100
AcDbLine
 10
1187.191971205087
 20
418.710351256583
 30
0.0
 11
1188.925283106646
 21
418.8810675782228
 31
0.0
  0
LINE
  5
235
330
1F
100
AcDbEntity
  8
0
100
AcDbLine
 10
1185.47353583901
 20
418.4266364293982
 30
0.0
 11
1187.191971205087
 21
418.710351256583
 31
0.0
  0
LINE
  5
236
330
1F
100
AcDbEntity
  8
0
100
AcDbLine
 10
1183.777335612466
 20
418.0311380071157
 30
0.0
 11
1185.47353583901
 21
418.4266364293982
 31
0.0
  0
LINE
  5
237
330
1F
100
AcDbEntity
  8
0
100
AcDbLine
 10
1182.110633915234
 20
417.5255495746973
 30
0.0
 11
1183.777335612466
 21
418.0311380071157
 31
0.0
  0
LINE
  5
238
330
1F
100
AcDbEntity
  8
0
100
AcDbLine
 10
1180.480567819855
 20
416.9120361394299
 30
0.0
 11
1182.110633915234
 21
417.5255495746973
 31
0.0
  0
LINE
  5
239
330
1F
100
AcDbEntity
  8
0
100
AcDbLine
 10
1178.894117519606
 20
416.1932248600325
 30
0.0
 11
1180.480567819855
 21
416.9120361394299
 31
0.0
  0
LINE
  5
23A
330
1F
100
AcDbEntity
  8
0
100
AcDbLine
 10
1177.358076438225
 20
415.3721937967562
 30
0.0
 11
1178.894117519606
 21
416.1932248600325
 31
0.0
  0
LINE
  5
23B
330
1F
100
AcDbEntity
  8
0
100
AcDbLine
 10
1142.350455822687
 20
370.7810885797689
 30
0.0
 11
1142.577630279596
 21
369.1027085806998
 31
0.0
  0
LINE
  5
23C
330
1F
100
AcDbEntity
  8
0
100
AcDbLine
 10
1148.458843685927
 20
387.755534451806
 30
0.0
 11
1147.31007404643
 21
386.5109879598996
 31
0.0
  0
LINE
  5
23D
330
1F
100
AcDbEntity
  8
0
100
AcDbLine
 10
1147.31007404643
 20
386.5109879598996
 30
0.0
 11
1146.264428410392
 21
385.1786243237329
 31
0.0
  0
LINE
  5
23E
330
1F
100
AcDbEntity
  8
0
100
AcDbLine
 10
1146.264428410392
 20
385.1786243237329
 30
0.0
 11
1145.328594381806
 21
383.7669649008951
 31
0.0
  0
LINE
  5
23F
330
1F
100
AcDbEntity
  8
0
100
AcDbLine
 10
1145.328594381806
 20
383.7669649008951
 30
0.0
 11
1144.508557245907
 21
382.2850381986267
 31
0.0
  0
LINE
  5
240
330
1F
100
AcDbEntity
  8
0
100
AcDbLine
 10
1144.508557245907
 20
382.2850381986267
 30
0.0
 11
1143.809561689271
 21
380.7423221304704
 31
0.0
  0
LINE
  5
241
330
1F
100
AcDbEntity
  8
0
100
AcDbLine
 10
1143.809561689271
 20
380.7423221304704
 30
0.0
 11
1143.236078256521
 21
379.1486833986662
 31
0.0
  0
LINE
  5
242
330
1F
100
AcDbEntity
  8
0
100
AcDbLine
 10
1464.844180025719
 20
-639.3374494683343
 30
0.0
 11
1463.429791652693
 21
-639.056110128662
 31
0.0
  0
LINE
  5
243
330
1F
100
AcDbEntity
  8
0
100
AcDbLine
 10
1466.283190262872
 20
-639.4317671823044
 30
0.0
 11
1464.844180025719
 21
-639.3374494683343
 31
0.0
  0
LINE
  5
244
330
1F
100
AcDbEntity
  8
0
100
AcDbLine
 10
2013.031876686426
 20
-301.4288537645033
 30
0.0
 11
2012.017376064267
 21
-302.8445877431134
 31
0.0
  0
LINE
  5
245
330
1F
100
AcDbEntity
  8
0
100
AcDbLine
 10
2013.95161175252
 20
-299.9497994657197
 30
0.0
 11
2013.031876686426
 21
-301.4288537645033
 31
0.0
  0
LINE
  5
246
330
1F
100
AcDbEntity
  8
0
100
AcDbLine
 10
2015.491454095193
 20
-296.8273080840882
 30
0.0
 11
2014.772642815795
 21
-298.4137583843386
 31
0.0
  0
LINE
  5
247
330
1F
100
AcDbEntity
  8
0
100
AcDbLine
 10
2016.104967530462
 20
-295.1972419887103
 30
0.0
 11
2015.491454095193
 21
-296.8273080840882
 31
0.0
  0
LINE
  5
248
330
1F
100
AcDbEntity
  8
0
100
AcDbLine
 10
2017.460485533985
 20
-288.3825927972994
 30
0.0
 11
2017.289769212346
 21
-290.1159046988564
 31
0.0
  0
LINE
  5
249
330
1F
100
AcDbEntity
  8
0
100
AcDbLine
 10
2017.517472316582
 20
-286.6418266679286
 30
0.0
 11
2017.460485533985
 21
-288.3825927972994
 31
0.0
  0
LINE
  5
24A
330
1F
100
AcDbEntity
  8
0
100
AcDbLine
 10
2017.517472316582
 20
-286.6418266679286
 30
0.0
 11
2017.517472316584
 21
-297.6665123090031
 31
0.0
  0
LINE
  5
24B
330
1F
100
AcDbEntity
  8
0
100
AcDbLine
 10
1466.283190262872
 20
-418.9380543608207
 30
0.0
 11
1499.357247186093
 21
-418.9380543608195
 31
0.0
  0
LINE
  5
24C
330
1F
100
AcDbEntity
  8
0
100
AcDbLine
 10
1455.258504621797
 20
-429.9627400018936
 30
0.0
 11
1455.258504621797
 21
-628.4070815412296
 31
0.0
  0
LINE
  5
24D
330
1F
100
AcDbEntity
  8
0
100
AcDbLine
 10
1236.495336290225
 20
212.2129072776013
 30
0.0
 11
1236.495336290224
 21
355.5338206115655
 31
0.0
  0
LINE
  5
24E
330
1F
100
AcDbEntity
  8
0
100
AcDbLine
 10
1247.352532184077
 20
199.2738050656041
 30
0.0
 11
1245.86582087566
 21
199.6261621185
 31
0.0
  0
LINE
  5
24F
330
1F
100
AcDbEntity
  8
0
100
AcDbLine
 10
1245.86582087566
 20
199.6261621185
 30
0.0
 11
1244.430068334333
 21
200.1487333073136
 31
0.0
  0
LINE
  5
250
330
1F
100
AcDbEntity
  8
0
100
AcDbLine
 10
1457.536719083864
 20
-635.1184849264614
 30
0.0
 11
1456.735532428964
 21
-633.919424361767
 31
0.0
  0
LINE
  5
251
330
1F
100
AcDbEntity
  8
0
100
AcDbLine
 10
1458.487560285619
 20
-636.202711518484
 30
0.0
 11
1457.536719083864
 21
-635.1184849264614
 31
0.0
  0
LINE
  5
252
330
1F
100
AcDbEntity
  8
0
100
AcDbLine
 10
1459.57178687764
 20
-637.153552720238
 30
0.0
 11
1458.487560285619
 21
-636.202711518484
 31
0.0
  0
LINE
  5
253
330
1F
100
AcDbEntity
  8
0
100
AcDbLine
 10
1460.770847442336
 20
-637.9547393751384
 30
0.0
 11
1459.57178687764
 21
-637.153552720238
 31
0.0
  0
LINE
  5
254
330
1F
100
AcDbEntity
  8
0
100
AcDbLine
 10
1462.064225720999
 20
-638.5925629573895
 30
0.0
 11
1460.770847442336
 21
-637.9547393751384
 31
0.0
  0
LINE
  5
255
330
1F
100
AcDbEntity
  8
0
100
AcDbLine
 10
1463.429791652693
 20
-639.056110128662
 30
0.0
 11
1462.064225720999
 21
-638.5925629573895
 31
0.0
  0
LINE
  5
256
330
1F
100
AcDbEntity
  8
0
100
AcDbLine
 10
1460.770847442334
 20
-420.4150821679863
 30
0.0
 11
1459.57178687764
 21
-421.2162688228866
 31
0.0
  0
LINE
  5
257
330
1F
100
AcDbEntity
  8
0
100
AcDbLine
 10
1459.57178687764
 20
-421.2162688228866
 30
0.0
 11
1458.487560285619
 21
-422.1671100246411
 31
0.0
  0
LINE
  5
258
330
1F
100
AcDbEntity
  8
0
100
AcDbLine
 10
1458.487560285619
 20
-422.1671100246411
 30
0.0
 11
1457.536719083864
 21
-423.2513366166622
 31
0.0
  0
LINE
  5
259
330
1F
100
AcDbEntity
  8
0
100
AcDbLine
 10
1457.536719083864
 20
-423.2513366166622
 30
0.0
 11
1456.735532428964
 21
-424.4503971813565
 31
0.0
  0
LINE
  5
25A
330
1F
100
AcDbEntity
  8
0
100
AcDbLine
 10
1456.735532428964
 20
-424.4503971813565
 30
0.0
 11
1456.097708846712
 21
-425.7437754600223
 31
0.0
  0
LINE
  5
25B
330
1F
100
AcDbEntity
  8
0
100
AcDbLine
 10
1456.097708846712
 20
-425.7437754600223
 30
0.0
 11
1455.634161675441
 21
-427.1093413917168
 31
0.0
  0
LINE
  5
25C
330
1F
100
AcDbEntity
  8
0
100
AcDbLine
 10
1455.634161675441
 20
-427.1093413917168
 30
0.0
 11
1455.352822335767
 21
-428.5237297647417
 31
0.0
  0
LINE
  5
25D
330
1F
100
AcDbEntity
  8
0
100
AcDbLine
 10
1455.352822335767
 20
-428.5237297647417
 30
0.0
 11
1455.258504621797
 21
-429.9627400018936
 31
0.0
  0
LINE
  5
25E
330
1F
100
AcDbEntity
  8
0
100
AcDbLine
 10
1455.258504621797
 20
-418.9380543608203
 30
0.0
 11
1455.258504621797
 21
-429.9627400018936
 31
0.0
  0
LINE
  5
25F
330
1F
100
AcDbEntity
  8
0
100
AcDbLine
 10
1455.258504621797
 20
-628.4070815412296
 30
0.0
 11
1455.258504621797
 21
-639.4317671823044
 31
0.0
  0
LINE
  5
260
330
1F
100
AcDbEntity
  8
0
100
AcDbLine
 10
1455.352822335767
 20
-629.8460917783841
 30
0.0
 11
1455.258504621797
 21
-628.4070815412296
 31
0.0
  0
LINE
  5
261
330
1F
100
AcDbEntity
  8
0
100
AcDbLine
 10
1455.634161675439
 20
-631.2604801514084
 30
0.0
 11
1455.352822335767
 21
-629.8460917783841
 31
0.0
  0
LINE
  5
262
330
1F
100
AcDbEntity
  8
0
100
AcDbLine
 10
1456.097708846712
 20
-632.6260460831032
 30
0.0
 11
1455.634161675439
 21
-631.2604801514084
 31
0.0
  0
LINE
  5
263
330
1F
100
AcDbEntity
  8
0
100
AcDbLine
 10
1456.735532428964
 20
-633.919424361767
 30
0.0
 11
1456.097708846712
 21
-632.6260460831032
 31
0.0
  0
LINE
  5
264
330
1F
100
AcDbEntity
  8
0
100
AcDbLine
 10
1466.283190262872
 20
-639.4317671823044
 30
0.0
 11
1455.258504621797
 21
-639.4317671823044
 31
0.0
  0
LINE
  5
265
330
1F
100
AcDbEntity
  8
0
100
AcDbLine
 10
1466.283190262872
 20
-418.9380543608207
 30
0.0
 11
1464.844180025719
 21
-419.03237207479
 31
0.0
  0
LINE
  5
266
330
1F
100
AcDbEntity
  8
0
100
AcDbLine
 10
1464.844180025719
 20
-419.03237207479
 30
0.0
 11
1463.429791652693
 21
-419.3137114144627
 31
0.0
  0
LINE
  5
267
330
1F
100
AcDbEntity
  8
0
100
AcDbLine
 10
1463.429791652693
 20
-419.3137114144627
 30
0.0
 11
1462.064225720999
 21
-419.777258585734
 31
0.0
  0
LINE
  5
268
330
1F
100
AcDbEntity
  8
0
100
AcDbLine
 10
1462.064225720999
 20
-419.777258585734
 30
0.0
 11
1460.770847442334
 21
-420.4150821679863
 31
0.0
  0
LINE
  5
269
330
1F
100
AcDbEntity
  8
0
100
AcDbLine
 10
1506.245960809644
 20
-418.0311380071153
 30
0.0
 11
1504.549760583099
 21
-418.4266364293982
 31
0.0
  0
LINE
  5
26A
330
1F
100
AcDbEntity
  8
0
100
AcDbLine
 10
1507.912662506876
 20
-417.5255495746973
 30
0.0
 11
1506.245960809644
 21
-418.0311380071153
 31
0.0
  0
LINE
  5
26B
330
1F
100
AcDbEntity
  8
0
100
AcDbLine
 10
1509.542728602254
 20
-416.9120361394299
 30
0.0
 11
1507.912662506876
 21
-417.5255495746973
 31
0.0
  0
LINE
  5
26C
330
1F
100
AcDbEntity
  8
0
100
AcDbLine
 10
1511.129178902504
 20
-416.1932248600317
 30
0.0
 11
1509.542728602254
 21
-416.9120361394299
 31
0.0
  0
LINE
  5
26D
330
1F
100
AcDbEntity
  8
0
100
AcDbLine
 10
1512.665219983885
 20
-415.3721937967562
 30
0.0
 11
1511.129178902504
 21
-416.1932248600317
 31
0.0
  0
LINE
  5
26E
330
1F
100
AcDbEntity
  8
0
100
AcDbLine
 10
1514.144274282668
 20
-414.4524587306632
 30
0.0
 11
1512.665219983885
 21
-415.3721937967562
 31
0.0
  0
LINE
  5
26F
330
1F
100
AcDbEntity
  8
0
100
AcDbLine
 10
1515.56000826128
 20
-413.4379581085024
 30
0.0
 11
1514.144274282668
 21
-414.4524587306632
 31
0.0
  0
LINE
  5
270
330
1F
100
AcDbEntity
  8
0
100
AcDbLine
 10
1516.906359529472
 20
-412.3330361776923
 30
0.0
 11
1515.56000826128
 21
-413.4379581085024
 31
0.0
  0
LINE
  5
271
330
1F
100
AcDbEntity
  8
0
100
AcDbLine
 10
1455.258504621797
 20
-418.9380543608203
 30
0.0
 11
1466.283190262872
 21
-418.9380543608207
 31
0.0
  0
LINE
  5
272
330
1F
100
AcDbEntity
  8
0
100
AcDbLine
 10
1452.735599042726
 20
-360.0275236510849
 30
0.0
 11
1453.173804537924
 21
-358.5638153634537
 31
0.0
  0
LINE
  5
273
330
1F
100
AcDbEntity
  8
0
100
AcDbLine
 10
1453.173804537924
 20
-358.5638153634537
 30
0.0
 11
1453.439120883787
 21
-357.0591315947103
 31
0.0
  0
LINE
  5
274
330
1F
100
AcDbEntity
  8
0
100
AcDbLine
 10
1453.439120883787
 20
-357.0591315947103
 30
0.0
 11
1453.527960131884
 21
-355.5338206115659
 31
0.0
  0
LINE
  5
275
330
1F
100
AcDbEntity
  8
0
100
AcDbLine
 10
1453.527960131884
 20
-355.5338206115659
 30
0.0
 11
1453.527960131884
 21
-366.5585062526404
 31
0.0
  0
LINE
  5
276
330
1F
100
AcDbEntity
  8
0
100
AcDbLine
 10
1410.992272310278
 20
-374.0586956585819
 30
0.0
 11
1442.670764238032
 21
-368.4729228235635
 31
0.0
  0
LINE
  5
277
330
1F
100
AcDbEntity
  8
0
100
AcDbLine
 10
1247.241238148691
 20
-164.814306788984
 30
0.0
 11
1442.670764238032
 21
-199.2738050656037
 31
0.0
  0
LINE
  5
278
330
1F
100
AcDbEntity
  8
0
100
AcDbLine
 10
1442.670764238032
 20
-368.4729228235635
 30
0.0
 11
1453.527960131884
 21
-366.5585062526404
 31
0.0
  0
LINE
  5
279
330
1F
100
AcDbEntity
  8
0
100
AcDbLine
 10
1442.670764238032
 20
-368.4729228235635
 30
0.0
 11
1444.15747554645
 21
-368.1205657706676
 31
0.0
  0
LINE
  5
27A
330
1F
100
AcDbEntity
  8
0
100
AcDbLine
 10
1444.15747554645
 20
-368.1205657706676
 30
0.0
 11
1445.593228087775
 21
-367.5979945818527
 31
0.0
  0
LINE
  5
27B
330
1F
100
AcDbEntity
  8
0
100
AcDbLine
 10
1445.593228087775
 20
-367.5979945818527
 30
0.0
 11
1446.958605771899
 21
-366.912276135986
 31
0.0
  0
LINE
  5
27C
330
1F
100
AcDbEntity
  8
0
100
AcDbLine
 10
1446.958605771899
 20
-366.912276135986
 30
0.0
 11
1448.235144207924
 21
-366.0726835987087
 31
0.0
  0
LINE
  5
27D
330
1F
100
AcDbEntity
  8
0
100
AcDbLine
 10
1400.135076416425
 20
-1345.011648211056
 30
0.0
 11
1400.135076416425
 21
-386.9977978705796
 31
0.0
  0
LINE
  5
27E
330
1F
100
AcDbEntity
  8
0
100
AcDbLine
 10
672.5058241055274
 20
-1345.011648211056
 30
0.0
 11
1400.135076416425
 21
-1345.011648211056
 31
0.0
  0
LINE
  5
27F
330
1F
100
AcDbEntity
  8
0
100
AcDbLine
 10
1006.475449001575
 20
631.6361372050516
 30
0.0
 11
680.301454082781
 21
305.4621422862572
 31
0.0
  0
LINE
  5
280
330
1F
100
AcDbEntity
  8
0
100
AcDbLine
 10
1171.845733617687
 20
411.1424243835663
 30
0.0
 11
1148.458843685927
 21
387.755534451806
 31
0.0
  0
LINE
  5
281
330
1F
100
AcDbEntity
  8
0
100
AcDbLine
 10
1142.577630279596
 20
369.1027085806998
 30
0.0
 11
1234.469625683915
 21
-152.0426943242083
 31
0.0
  0
LINE
  5
282
330
1F
100
AcDbEntity
  8
0
100
AcDbLine
 10
1452.130430375781
 20
-361.4304623139822
 30
0.0
 11
1452.735599042726
 21
-360.0275236510849
 31
0.0
  0
LINE
  5
283
330
1F
100
AcDbEntity
  8
0
100
AcDbLine
 10
1451.366482405154
 20
-362.7536590134478
 30
0.0
 11
1452.130430375781
 21
-361.4304623139822
 31
0.0
  0
LINE
  5
284
330
1F
100
AcDbEntity
  8
0
100
AcDbLine
 10
1450.454086216606
 20
-363.9792197840445
 30
0.0
 11
1451.366482405154
 21
-362.7536590134478
 31
0.0
  0
LINE
  5
285
330
1F
100
AcDbEntity
  8
0
100
AcDbLine
 10
1547.672840599423
 20
-370.7810885797693
 30
0.0
 11
1547.445666142512
 21
-369.102708580701
 31
0.0
  0
LINE
  5
286
330
1F
100
AcDbEntity
  8
0
100
AcDbLine
 10
1549.360082713436
 20
-379.9599044745527
 30
0.0
 11
1547.445666142512
 21
-369.102708580701
 31
0.0
  0
LINE
  5
287
330
1F
100
AcDbEntity
  8
0
100
AcDbLine
 10
1541.564452736183
 20
-387.7555344518056
 30
0.0
 11
1549.360082713436
 21
-379.9599044745527
 31
0.0
  0
LINE
  5
288
330
1F
100
AcDbEntity
  8
0
100
AcDbLine
 10
1541.564452736183
 20
-387.7555344518056
 30
0.0
 11
1542.71322237568
 21
-386.5109879598996
 31
0.0
  0
LINE
  5
289
330
1F
100
AcDbEntity
  8
0
100
AcDbLine
 10
1542.71322237568
 20
-386.5109879598996
 30
0.0
 11
1543.758868011719
 21
-385.1786243237329
 31
0.0
  0
LINE
  5
28A
330
1F
100
AcDbEntity
  8
0
100
AcDbLine
 10
1543.758868011719
 20
-385.1786243237329
 30
0.0
 11
1544.694702040304
 21
-383.7669649008963
 31
0.0
  0
LINE
  5
28B
330
1F
100
AcDbEntity
  8
0
100
AcDbLine
 10
1544.694702040304
 20
-383.7669649008963
 30
0.0
 11
1545.514739176202
 21
-382.2850381986271
 31
0.0
  0
LINE
  5
28C
330
1F
100
AcDbEntity
  8
0
100
AcDbLine
 10
1545.514739176202
 20
-382.2850381986271
 30
0.0
 11
1546.213734732839
 21
-380.7423221304704
 31
0.0
  0
LINE
  5
28D
330
1F
100
AcDbEntity
  8
0
100
AcDbLine
 10
1546.213734732839
 20
-380.7423221304704
 30
0.0
 11
1546.787218165589
 21
-379.1486833986666
 31
0.0
  0
LINE
  5
28E
330
1F
100
AcDbEntity
  8
0
100
AcDbLine
 10
1546.787218165589
 20
-379.1486833986666
 30
0.0
 11
1547.231521663904
 21
-377.5143143899873
 31
0.0
  0
LINE
  5
28F
330
1F
100
AcDbEntity
  8
0
100
AcDbLine
 10
1547.231521663904
 20
-377.5143143899873
 30
0.0
 11
1547.543803609411
 21
-375.8496679885986
 31
0.0
  0
LINE
  5
290
330
1F
100
AcDbEntity
  8
0
100
AcDbLine
 10
1547.543803609411
 20
-375.8496679885986
 30
0.0
 11
1547.72206674997
 21
-374.1653907228655
 31
0.0
  0
LINE
  5
291
330
1F
100
AcDbEntity
  8
0
100
AcDbLine
 10
1547.72206674997
 20
-374.1653907228655
 30
0.0
 11
1547.76517097343
 21
-372.4722546736755
 31
0.0
  0
LINE
  5
292
330
1F
100
AcDbEntity
  8
0
100
AcDbLine
 10
1547.76517097343
 20
-372.4722546736755
 30
0.0
 11
1547.672840599423
 21
-370.7810885797693
 31
0.0
  0
LINE
  5
293
330
1F
100
AcDbEntity
  8
0
100
AcDbLine
 10
2017.006054385162
 20
-291.8343400649351
 30
0.0
 11
2016.61055596288
 21
-293.5305402914777
 31
0.0
  0
LINE
  5
294
330
1F
100
AcDbEntity
  8
0
100
AcDbLine
 10
2017.289769212346
 20
-290.1159046988564
 30
0.0
 11
2017.006054385162
 21
-291.8343400649351
 31
0.0
  0
LINE
  5
295
330
1F
100
AcDbEntity
  8
0
100
AcDbLine
 10
1279.031024111831
 20
374.0586956585812
 30
0.0
 11
1247.352532184077
 21
368.4729228235627
 31
0.0
  0
LINE
  5
296
330
1F
100
AcDbEntity
  8
0
100
AcDbLine
 10
1442.782058273418
 20
164.8143067889832
 30
0.0
 11
1247.352532184077
 21
199.2738050656041
 31
0.0
  0
LINE
  5
297
330
1F
100
AcDbEntity
  8
0
100
AcDbLine
 10
1289.888220005684
 20
1345.011648211056
 30
0.0
 11
1289.888220005684
 21
386.9977978705792
 31
0.0
  0
LINE
  5
298
330
1F
100
AcDbEntity
  8
0
100
AcDbLine
 10
2017.517472316582
 20
1345.011648211055
 30
0.0
 11
1289.888220005684
 21
1345.011648211056
 31
0.0
  0
LINE
  5
299
330
1F
100
AcDbEntity
  8
0
100
AcDbLine
 10
2017.517472316582
 20
1345.011648211055
 30
0.0
 11
2017.517472316582
 21
-286.6418266679286
 31
0.0
  0
LINE
  5
29A
330
1F
100
AcDbEntity
  8
0
100
AcDbLine
 10
2016.61055596288
 20
-293.5305402914777
 30
0.0
 11
2016.104967530462
 21
-295.1972419887103
 31
0.0
  0
LINE
  5
29B
330
1F
100
AcDbEntity
  8
0
100
AcDbLine
 10
2014.772642815795
 20
-298.4137583843386
 30
0.0
 11
2013.95161175252
 21
-299.9497994657197
 31
0.0
  0
LINE
  5
29C
330
1F
100
AcDbEntity
  8
0
100
AcDbLine
 10
2012.017376064267
 20
-302.8445877431134
 30
0.0
 11
2010.912454133455
 21
-304.1909390113071
 31
0.0
  0
LINE
  5
29D
330
1F
100
AcDbEntity
  8
0
100
AcDbLine
 10
2010.912454133455
 20
-304.1909390113071
 30
0.0
 11
2009.72184233933
 21
-305.4621422862568
 31
0.0
  0
LINE
  5
29E
330
1F
100
AcDbEntity
  8
0
100
AcDbLine
 10
1683.547847420536
 20
-631.6361372050508
 30
0.0
 11
2009.72184233933
 21
-305.4621422862568
 31
0.0
  0
LINE
  5
29F
330
1F
100
AcDbEntity
  8
0
100
AcDbLine
 10
1683.547847420536
 20
-631.6361372050508
 30
0.0
 11
1682.276644145586
 21
-632.8267489991766
 31
0.0
  0
LINE
  5
2A0
330
1F
100
AcDbEntity
  8
0
100
AcDbLine
 10
1682.276644145586
 20
-632.8267489991766
 30
0.0
 11
1680.930292877392
 21
-633.931670929987
 31
0.0
  0
LINE
  5
2A1
330
1F
100
AcDbEntity
  8
0
100
AcDbLine
 10
1680.930292877392
 20
-633.931670929987
 30
0.0
 11
1679.514558898783
 21
-634.9461715521478
 31
0.0
  0
LINE
  5
2A2
330
1F
100
AcDbEntity
  8
0
100
AcDbLine
 10
1679.514558898783
 20
-634.9461715521478
 30
0.0
 11
1678.035504599998
 21
-635.8659066182408
 31
0.0
  0
LINE
  5
2A3
330
1F
100
AcDbEntity
  8
0
100
AcDbLine
 10
1678.035504599998
 20
-635.8659066182408
 30
0.0
 11
1676.499463518618
 21
-636.6869376815163
 31
0.0
  0
LINE
  5
2A4
330
1F
100
AcDbEntity
  8
0
100
AcDbLine
 10
1676.499463518618
 20
-636.6869376815163
 30
0.0
 11
1674.913013218367
 21
-637.4057489609144
 31
0.0
  0
LINE
  5
2A5
330
1F
100
AcDbEntity
  8
0
100
AcDbLine
 10
1674.913013218367
 20
-637.4057489609144
 30
0.0
 11
1673.282947122989
 21
-638.019262396182
 31
0.0
  0
LINE
  5
2A6
330
1F
100
AcDbEntity
  8
0
100
AcDbLine
 10
1673.282947122989
 20
-638.019262396182
 30
0.0
 11
1671.616245425757
 21
-638.5248508286002
 31
0.0
  0
LINE
  5
2A7
330
1F
100
AcDbEntity
  8
0
100
AcDbLine
 10
1671.616245425757
 20
-638.5248508286002
 30
0.0
 11
1669.920045199214
 21
-638.9203492508813
 31
0.0
  0
LINE
  5
2A8
330
1F
100
AcDbEntity
  8
0
100
AcDbLine
 10
1669.920045199214
 20
-638.9203492508813
 30
0.0
 11
1668.201609833133
 21
-639.2040640780666
 31
0.0
  0
LINE
  5
2A9
330
1F
100
AcDbEntity
  8
0
100
AcDbLine
 10
1668.201609833133
 20
-639.2040640780666
 30
0.0
 11
1666.468297931579
 21
-639.3747803997069
 31
0.0
  0
LINE
  5
2AA
330
1F
100
AcDbEntity
  8
0
100
AcDbLine
 10
1666.468297931579
 20
-639.3747803997069
 30
0.0
 11
1664.727531802208
 21
-639.431767182304
 31
0.0
  0
LINE
  5
2AB
330
1F
100
AcDbEntity
  8
0
100
AcDbLine
 10
1499.357247186093
 20
-418.9380543608195
 30
0.0
 11
1510.381932827168
 21
-418.9380543608203
 31
0.0
  0
LINE
  5
2AC
330
1F
100
AcDbEntity
  8
0
100
AcDbLine
 10
1510.381932827168
 20
-418.9380543608203
 30
0.0
 11
1518.177562804421
 21
-411.1424243835658
 31
0.0
  0
LINE
  5
2AD
330
1F
100
AcDbEntity
  8
0
100
AcDbLine
 10
1455.553670738194
 20
152.042694324208
 30
0.0
 11
1453.63925416727
 21
162.8998902180601
 31
0.0
  0
LINE
  5
2AE
330
1F
100
AcDbEntity
  8
0
100
AcDbLine
 10
1453.63925416727
 20
162.8998902180601
 30
0.0
 11
1442.782058273418
 21
164.8143067889832
 31
0.0
  0
LINE
  5
2AF
330
1F
100
AcDbEntity
  8
0
100
AcDbLine
 10
1244.430068334333
 20
200.1487333073136
 30
0.0
 11
1243.064690650211
 21
200.8344517531807
 31
0.0
  0
LINE
  5
2B0
330
1F
100
AcDbEntity
  8
0
100
AcDbLine
 10
1243.064690650211
 20
200.8344517531807
 30
0.0
 11
1241.788152214186
 21
201.674044290458
 31
0.0
  0
LINE
  5
2B1
330
1F
100
AcDbEntity
  8
0
100
AcDbLine
 10
1241.788152214186
 20
201.674044290458
 30
0.0
 11
1240.617716018724
 21
202.6561568703878
 31
0.0
  0
LINE
  5
2B2
330
1F
100
AcDbEntity
  8
0
100
AcDbLine
 10
1240.617716018724
 20
202.6561568703878
 30
0.0
 11
1239.569210205504
 21
203.7675081051223
 31
0.0
  0
LINE
  5
2B3
330
1F
100
AcDbEntity
  8
0
100
AcDbLine
 10
1239.569210205504
 20
203.7675081051223
 30
0.0
 11
1238.656814016955
 21
204.9930688757186
 31
0.0
  0
LINE
  5
2B4
330
1F
100
AcDbEntity
  8
0
100
AcDbLine
 10
1238.656814016955
 20
204.9930688757186
 30
0.0
 11
1237.892866046328
 21
206.3162655751854
 31
0.0
  0
LINE
  5
2B5
330
1F
100
AcDbEntity
  8
0
100
AcDbLine
 10
1237.892866046328
 20
206.3162655751854
 30
0.0
 11
1237.287697379383
 21
207.7192042380827
 31
0.0
  0
LINE
  5
2B6
330
1F
100
AcDbEntity
  8
0
100
AcDbLine
 10
1237.287697379383
 20
207.7192042380827
 30
0.0
 11
1236.849491884186
 21
209.1829125257127
 31
0.0
  0
LINE
  5
2B7
330
1F
100
AcDbEntity
  8
0
100
AcDbLine
 10
1236.849491884186
 20
209.1829125257127
 30
0.0
 11
1236.584175538323
 21
210.6875962944561
 31
0.0
  0
LINE
  5
2B8
330
1F
100
AcDbEntity
  8
0
100
AcDbLine
 10
1236.584175538323
 20
210.6875962944561
 30
0.0
 11
1236.495336290225
 21
212.2129072776013
 31
0.0
  0
LINE
  5
2B9
330
1F
100
AcDbEntity
  8
0
100
AcDbLine
 10
1289.888220005683
 20
375.9731122295043
 30
0.0
 11
1279.031024111831
 21
374.0586956585812
 31
0.0
  0
LINE
  5
2BA
330
1F
100
AcDbEntity
  8
0
100
AcDbLine
 10
1289.888220005684
 20
386.9977978705792
 30
0.0
 11
1289.888220005683
 21
375.9731122295043
 31
0.0
  0
LINE
  5
2BB
330
1F
100
AcDbEntity
  8
0
100
AcDbLine
 10
1289.799380757587
 20
385.4724868874349
 30
0.0
 11
1289.534064411724
 21
383.9678031186922
 31
0.0
  0
LINE
  5
2BC
330
1F
100
AcDbEntity
  8
0
100
AcDbLine
 10
1247.352532184077
 20
199.2738050656041
 30
0.0
 11
1236.495336290224
 21
201.1882216365272
 31
0.0
  0
LINE
  5
2BD
330
1F
100
AcDbEntity
  8
0
100
AcDbLine
 10
1289.534064411724
 20
383.9678031186922
 30
0.0
 11
1289.095858916525
 21
382.5040948310598
 31
0.0
  0
LINE
  5
2BE
330
1F
100
AcDbEntity
  8
0
100
AcDbLine
 10
1289.095858916525
 20
382.5040948310598
 30
0.0
 11
1288.49069024958
 21
381.1011561681622
 31
0.0
  0
LINE
  5
2BF
330
1F
100
AcDbEntity
  8
0
100
AcDbLine
 10
1288.49069024958
 20
381.1011561681622
 30
0.0
 11
1287.726742278953
 21
379.7779594686973
 31
0.0
  0
LINE
  5
2C0
330
1F
100
AcDbEntity
  8
0
100
AcDbLine
 10
1287.726742278953
 20
379.7779594686973
 30
0.0
 11
1286.814346090406
 21
378.5523986981005
 31
0.0
  0
LINE
  5
2C1
330
1F
100
AcDbEntity
  8
0
100
AcDbLine
 10
1286.814346090406
 20
378.5523986981005
 30
0.0
 11
1285.765840277186
 21
377.4410474633653
 31
0.0
  0
LINE
  5
2C2
330
1F
100
AcDbEntity
  8
0
100
AcDbLine
 10
1285.765840277186
 20
377.4410474633653
 30
0.0
 11
1284.595404081723
 21
376.4589348834367
 31
0.0
  0
LINE
  5
2C3
330
1F
100
AcDbEntity
  8
0
100
AcDbLine
 10
1284.595404081723
 20
376.4589348834367
 30
0.0
 11
1283.318865645698
 21
375.6193423461602
 31
0.0
  0
LINE
  5
2C4
330
1F
100
AcDbEntity
  8
0
100
AcDbLine
 10
1283.318865645698
 20
375.6193423461602
 30
0.0
 11
1281.953487961575
 21
374.9336239002923
 31
0.0
  0
LINE
  5
2C5
330
1F
100
AcDbEntity
  8
0
100
AcDbLine
 10
1281.953487961575
 20
374.9336239002923
 30
0.0
 11
1280.51773542025
 21
374.4110527114783
 31
0.0
  0
LINE
  5
2C6
330
1F
100
AcDbEntity
  8
0
100
AcDbLine
 10
1280.51773542025
 20
374.4110527114783
 30
0.0
 11
1279.031024111831
 21
374.0586956585812
 31
0.0
  0
LINE
  5
2C7
330
1F
100
AcDbEntity
  8
0
100
AcDbLine
 10
1289.888220005684
 20
386.9977978705792
 30
0.0
 11
1289.799380757587
 21
385.4724868874349
 31
0.0
  0
LINE
  5
2C8
330
1F
100
AcDbEntity
  8
0
100
AcDbLine
 10
1501.098013315464
 20
-418.8810675782223
 30
0.0
 11
1499.357247186093
 21
-418.9380543608195
 31
0.0
  0
LINE
  5
2C9
330
1F
100
AcDbEntity
  8
0
100
AcDbLine
 10
1502.831325217022
 20
-418.710351256583
 30
0.0
 11
1501.098013315464
 21
-418.8810675782223
 31
0.0
  0
LINE
  5
2CA
330
1F
100
AcDbEntity
  8
0
100
AcDbLine
 10
1504.549760583099
 20
-418.4266364293982
 30
0.0
 11
1502.831325217022
 21
-418.710351256583
 31
0.0
  0
LINE
  5
2CB
330
1F
100
AcDbEntity
  8
0
100
AcDbLine
 10
1518.177562804421
 20
-411.1424243835658
 30
0.0
 11
1516.906359529472
 21
-412.3330361776923
 31
0.0
  0
LINE
  5
2CC
330
1F
100
AcDbEntity
  8
0
100
AcDbLine
 10
1675.752217443283
 20
-639.4317671823044
 30
0.0
 11
1683.547847420536
 21
-631.6361372050508
 31
0.0
  0
LINE
  5
2CD
330
1F
100
AcDbEntity
  8
0
100
AcDbLine
 10
2009.72184233933
 20
-305.4621422862568
 30
0.0
 11
2017.517472316584
 21
-297.6665123090031
 31
0.0
  0
LINE
  5
2CE
330
1F
100
AcDbEntity
  8
0
100
AcDbLine
 10
1664.727531802208
 20
-639.431767182304
 30
0.0
 11
1675.752217443283
 21
-639.4317671823044
 31
0.0
  0
LINE
  5
2CF
330
1F
100
AcDbEntity
  8
0
100
AcDbLine
 10
1451.181301476894
 20
160.441937527684
 30
0.0
 11
1449.992115198543
 21
161.5158216077259
 31
0.0
  0
LINE
  5
2D0
330
1F
100
AcDbEntity
  8
0
100
AcDbLine
 10
1449.992115198543
 20
161.5158216077259
 30
0.0
 11
1448.699942533634
 21
162.4632818053266
 31
0.0
  0
LINE
  5
2D1
330
1F
100
AcDbEntity
  8
0
100
AcDbLine
 10
1448.699942533634
 20
162.4632818053266
 30
0.0
 11
1447.318165872768
 21
163.2745057457214
 31
0.0
  0
LINE
  5
2D2
330
1F
100
AcDbEntity
  8
0
100
AcDbLine
 10
1447.318165872768
 20
163.2745057457214
 30
0.0
 11
1445.861095590645
 21
163.9410919854063
 31
0.0
  0
LINE
  5
2D3
330
1F
100
AcDbEntity
  8
0
100
AcDbLine
 10
1445.861095590645
 20
163.9410919854063
 30
0.0
 11
1444.343821840608
 21
164.4561370217177
 31
0.0
  0
LINE
  5
2D4
330
1F
100
AcDbEntity
  8
0
100
AcDbLine
 10
1444.343821840608
 20
164.4561370217177
 30
0.0
 11
1442.782058273418
 21
164.8143067889832
 31
0.0
  0
LINE
  5
2D5
330
1F
100
AcDbEntity
  8
0
100
AcDbLine
 10
1454.680455934616
 20
155.1217316414352
 30
0.0
 11
1454.013869694932
 21
156.5788019235573
 31
0.0
  0
LINE
  5
2D6
330
1F
100
AcDbEntity
  8
0
100
AcDbLine
 10
1454.013869694932
 20
156.5788019235573
 30
0.0
 11
1453.202645754538
 21
157.9605785844236
 31
0.0
  0
LINE
  5
2D7
330
1F
100
AcDbEntity
  8
0
100
AcDbLine
 10
1453.202645754538
 20
157.9605785844236
 30
0.0
 11
1452.255185556935
 21
159.252751249334
 31
0.0
  0
LINE
  5
2D8
330
1F
100
AcDbEntity
  8
0
100
AcDbLine
 10
1452.255185556935
 20
159.252751249334
 30
0.0
 11
1451.181301476894
 21
160.441937527684
 31
0.0
  0
LINE
  5
2D9
330
1F
100
AcDbEntity
  8
0
100
AcDbLine
 10
1455.195500970929
 20
153.6044578913973
 30
0.0
 11
1454.680455934616
 21
155.1217316414352
 31
0.0
  0
LINE
  5
2DA
330
1F
100
AcDbEntity
  8
0
100
AcDbLine
 10
1453.527960131884
 20
-201.1882216365272
 30
0.0
 11
1453.527960131884
 21
-212.2129072776013
 31
0.0
  0
LINE
  5
2DB
330
1F
100
AcDbEntity
  8
0
100
AcDbLine
 10
1455.553670738194
 20
152.042694324208
 30
0.0
 11
1455.195500970929
 21
153.6044578913973
 31
0.0
  0
LINE
  5
2DC
330
1F
100
AcDbEntity
  8
0
100
AcDbLine
 10
-672.5058241055284
 20
1267.838848723538
 30
0.0
 11
-672.5058241055285
 21
297.6665123090043
 31
0.0
  0
LINE
  5
2DD
330
1F
100
AcDbEntity
  8
0
100
AcDbLine
 10
-672.505824105527
 20
-297.6665123090031
 30
0.0
 11
-672.5058241055285
 21
-683.5305097466024
 31
0.0
  0
LINE
  5
2DE
330
1F
100
AcDbEntity
  8
0
100
AcDbLine
 10
-672.5058241055285
 20
-286.6418266679286
 30
0.0
 11
-672.505824105527
 21
-297.6665123090031
 31
0.0
  0
LINE
  5
2DF
330
1F
100
AcDbEntity
  8
0
100
AcDbLine
 10
672.5058241055274
 20
286.6418266679291
 30
0.0
 11
672.5058241055274
 21
297.6665123090039
 31
0.0
  0
LINE
  5
2E0
330
1F
100
AcDbEntity
  8
0
100
AcDbLine
 10
-1414.467167749824
 20
1345.011648211056
 30
0.0
 11
-1548.968332570929
 21
1345.011648211055
 31
0.0
  0
LINE
  5
2E1
330
1F
100
AcDbEntity
  8
0
100
AcDbLine
 10
-1414.467167749824
 20
1345.011648211056
 30
0.0
 11
-1414.467167749824
 21
683.5305097466016
 31
0.0
  0
LINE
  5
2E2
330
1F
100
AcDbEntity
  8
0
100
AcDbLine
 10
-1414.467167749824
 20
683.5305097466016
 30
0.0
 11
-1548.968332570929
 21
683.5305097466016
 31
0.0
  0
LINE
  5
2E3
330
1F
100
AcDbEntity
  8
0
100
AcDbLine
 10
-672.5058241055285
 20
1333.986962569983
 30
0.0
 11
-672.5058241055284
 21
1267.838848723538
 31
0.0
  0
LINE
  5
2E4
330
1F
100
AcDbEntity
  8
0
100
AcDbLine
 10
-11.02468564107491
 20
1267.838848723538
 30
0.0
 11
-11.02468564107491
 21
1333.986962569983
 31
0.0
  0
LINE
  5
2E5
330
1F
100
AcDbEntity
  8
0
100
AcDbLine
 10
-11.02468564107491
 20
1333.986962569983
 30
0.0
 11
-672.5058241055285
 21
1333.986962569983
 31
0.0
  0
LINE
  5
2E6
330
1F
100
AcDbEntity
  8
0
100
AcDbLine
 10
11.02468564107368
 20
1267.838848723536
 30
0.0
 11
11.02468564107371
 21
1333.986962569983
 31
0.0
  0
LINE
  5
2E7
330
1F
100
AcDbEntity
  8
0
100
AcDbLine
 10
11.02468564107371
 20
1333.986962569983
 30
0.0
 11
672.5058241055274
 21
1333.986962569983
 31
0.0
  0
LINE
  5
2E8
330
1F
100
AcDbEntity
  8
0
100
AcDbLine
 10
-672.5058241055285
 20
-683.5305097466024
 30
0.0
 11
-672.5058241055285
 21
-1345.011648211056
 31
0.0
  0
LINE
  5
2E9
330
1F
100
AcDbEntity
  8
0
100
AcDbLine
 10
-424.4503971813584
 20
-573.2836533358602
 30
0.0
 11
-589.8206817974719
 21
-573.2836533358602
 31
0.0
  0
LINE
  5
2EA
330
1F
100
AcDbEntity
  8
0
100
AcDbLine
 10
-424.4503971813584
 20
-1234.764791800314
 30
0.0
 11
-589.8206817974719
 21
-1234.764791800314
 31
0.0
  0
LINE
  5
2EB
330
1F
100
AcDbEntity
  8
0
100
AcDbLine
 10
-589.8206817974719
 20
-1234.764791800314
 30
0.0
 11
-589.8206817974719
 21
-573.2836533358602
 31
0.0
  0
LINE
  5
2EC
330
1F
100
AcDbEntity
  8
0
100
AcDbLine
 10
-424.4503971813584
 20
-573.2836533358602
 30
0.0
 11
-424.4503971813584
 21
-1234.764791800314
 31
0.0
  0
LINE
  5
2ED
330
1F
100
AcDbEntity
  8
0
100
AcDbLine
 10
-259.0801125652449
 20
-573.2836533358604
 30
0.0
 11
-93.70982794913151
 21
-573.2836533358604
 31
0.0
  0
LINE
  5
2EE
330
1F
100
AcDbEntity
  8
0
100
AcDbLine
 10
-259.0801125652449
 20
-1234.764791800314
 30
0.0
 11
-93.70982794913151
 21
-1234.764791800314
 31
0.0
  0
LINE
  5
2EF
330
1F
100
AcDbEntity
  8
0
100
AcDbLine
 10
-93.70982794913151
 20
-1234.764791800314
 30
0.0
 11
-93.70982794913151
 21
-573.2836533358604
 31
0.0
  0
LINE
  5
2F0
330
1F
100
AcDbEntity
  8
0
100
AcDbLine
 10
-259.0801125652449
 20
-573.2836533358604
 30
0.0
 11
-259.0801125652449
 21
-1234.764791800314
 31
0.0
  0
LINE
  5
2F1
330
1F
100
AcDbEntity
  8
0
100
AcDbLine
 10
424.4503971813576
 20
-573.2836533358604
 30
0.0
 11
589.8206817974708
 21
-573.2836533358604
 31
0.0
  0
LINE
  5
2F2
330
1F
100
AcDbEntity
  8
0
100
AcDbLine
 10
589.8206817974708
 20
-1234.764791800314
 30
0.0
 11
589.8206817974708
 21
-573.2836533358604
 31
0.0
  0
LINE
  5
2F3
330
1F
100
AcDbEntity
  8
0
100
AcDbLine
 10
424.4503971813576
 20
-1234.764791800314
 30
0.0
 11
589.8206817974708
 21
-1234.764791800314
 31
0.0
  0
LINE
  5
2F4
330
1F
100
AcDbEntity
  8
0
100
AcDbLine
 10
93.70982794913031
 20
-1234.764791800314
 30
0.0
 11
93.70982794913031
 21
-573.2836533358604
 31
0.0
  0
LINE
  5
2F5
330
1F
100
AcDbEntity
  8
0
100
AcDbLine
 10
424.4503971813576
 20
-573.2836533358604
 30
0.0
 11
424.4503971813576
 21
-1234.764791800314
 31
0.0
  0
LINE
  5
2F6
330
1F
100
AcDbEntity
  8
0
100
AcDbLine
 10
259.0801125652443
 20
-1234.764791800314
 30
0.0
 11
93.70982794913031
 21
-1234.764791800314
 31
0.0
  0
LINE
  5
2F7
330
1F
100
AcDbEntity
  8
0
100
AcDbLine
 10
259.0801125652443
 20
-573.2836533358604
 30
0.0
 11
93.70982794913031
 21
-573.2836533358604
 31
0.0
  0
LINE
  5
2F8
330
1F
100
AcDbEntity
  8
0
100
AcDbLine
 10
259.0801125652443
 20
-573.2836533358604
 30
0.0
 11
259.0801125652443
 21
-1234.764791800314
 31
0.0
  0
LINE
  5
2F9
330
1F
100
AcDbEntity
  8
0
100
AcDbLine
 10
1275.556128672287
 20
683.530509746602
 30
0.0
 11
1141.054963851182
 21
683.530509746602
 31
0.0
  0
LINE
  5
2FA
330
1F
100
AcDbEntity
  8
0
100
AcDbLine
 10
1141.054963851182
 20
683.530509746602
 30
0.0
 11
1141.054963851182
 21
1345.011648211055
 31
0.0
  0
LINE
  5
2FB
330
1F
100
AcDbEntity
  8
0
100
AcDbLine
 10
1275.556128672287
 20
1345.011648211056
 30
0.0
 11
1141.054963851182
 21
1345.011648211055
 31
0.0
  0
LINE
  5
2FC
330
1F
100
AcDbEntity
  8
0
100
AcDbLine
 10
1275.556128672287
 20
1345.011648211056
 30
0.0
 11
1275.556128672287
 21
683.530509746602
 31
0.0
  0
LINE
  5
2FD
330
1F
100
AcDbEntity
  8
0
100
AcDbLine
 10
672.5058241055274
 20
683.530509746602
 30
0.0
 11
1141.054963851182
 21
683.530509746602
 31
0.0
  0
LINE
  5
2FE
330
1F
100
AcDbEntity
  8
0
100
AcDbLine
 10
672.5058241055274
 20
1345.011648211055
 30
0.0
 11
672.5058241055274
 21
1333.986962569983
 31
0.0
  0
LINE
  5
2FF
330
1F
100
AcDbEntity
  8
0
100
AcDbLine
 10
1141.054963851182
 20
1345.011648211055
 30
0.0
 11
672.5058241055274
 21
1345.011648211055
 31
0.0
  0
LINE
  5
300
330
1F
100
AcDbEntity
  8
0
100
AcDbLine
 10
672.5058241055274
 20
1267.838848723536
 30
0.0
 11
672.5058241055274
 21
683.530509746602
 31
0.0
  0
LINE
  5
301
330
1F
100
AcDbEntity
  8
0
100
AcDbLine
 10
672.5058241055274
 20
1333.986962569983
 30
0.0
 11
672.5058241055274
 21
1267.838848723536
 31
0.0
  0
LINE
  5
302
330
1F
100
AcDbEntity
  8
0
100
AcDbLine
 10
1488.33256154502
 20
-683.5305097466024
 30
0.0
 11
1488.33256154502
 21
-1345.011648211056
 31
0.0
  0
LINE
  5
303
330
1F
100
AcDbEntity
  8
0
100
AcDbLine
 10
1488.33256154502
 20
-1345.011648211056
 30
0.0
 11
1819.073130777247
 21
-1345.011648211056
 31
0.0
  0
LINE
  5
304
330
1F
100
AcDbEntity
  8
0
100
AcDbLine
 10
1819.073130777247
 20
-683.5305097466024
 30
0.0
 11
1488.33256154502
 21
-683.5305097466024
 31
0.0
  0
LINE
  5
305
330
1F
100
AcDbEntity
  8
0
100
AcDbLine
 10
1819.073130777247
 20
-683.5305097466024
 30
0.0
 11
1819.073130777247
 21
-1345.011648211056
 31
0.0
  0
LINE
  5
306
330
1F
100
AcDbEntity
  8
0
100
AcDbLine
 10
2017.517472316582
 20
-683.5305097466024
 30
0.0
 11
2017.517472316582
 21
-1345.011648211056
 31
0.0
  0
LINE
  5
307
330
1F
100
AcDbEntity
  8
0
100
AcDbLine
 10
2017.517472316582
 20
-683.5305097466024
 30
0.0
 11
1819.073130777247
 21
-683.5305097466024
 31
0.0
  0
LINE
  5
308
330
1F
100
AcDbEntity
  8
0
100
AcDbLine
 10
1819.073130777247
 20
-1345.011648211056
 30
0.0
 11
2017.517472316582
 21
-1345.011648211056
 31
0.0
  0
LINE
  5
309
330
1F
100
AcDbEntity
  8
0
100
AcDbLine
 10
-1664.727531802209
 20
639.4317671823048
 30
0.0
 11
-1466.283190262873
 21
639.4317671823048
 31
0.0
  0
LINE
  5
30A
330
1F
100
AcDbEntity
  8
0
100
AcDbLine
 10
-1025.295764619904
 20
-639.431767182304
 30
0.0
 11
-1223.74010615924
 21
-639.4317671823044
 31
0.0
  0
LINE
  5
30B
330
1F
100
AcDbEntity
  8
0
100
AcDbLine
 10
1025.295764619903
 20
639.4317671823052
 30
0.0
 11
1223.740106159238
 21
639.4317671823052
 31
0.0
  0
LINE
  5
30C
330
1F
100
AcDbEntity
  8
0
100
AcDbLine
 10
1664.727531802208
 20
-639.431767182304
 30
0.0
 11
1466.283190262872
 21
-639.4317671823044
 31
0.0
  0
LINE
  5
30D
330
1F
100
AcDbEntity
  8
0
100
AcDbLine
 10
-1289.888220005685
 20
-1345.011648211056
 30
0.0
 11
-1280.18649664154
 21
-1345.011648211056
 31
0.0
  0
LINE
  5
30E
330
1F
100
AcDbEntity
  8
0
100
AcDbLine
 10
-1400.135076416427
 20
1345.011648211056
 30
0.0
 11
-1414.467167749824
 21
1345.011648211056
 31
0.0
  0
LINE
  5
30F
330
1F
100
AcDbEntity
  8
0
100
AcDbLine
 10
1400.135076416425
 20
-1345.011648211056
 30
0.0
 11
1409.836799780571
 21
-1345.011648211056
 31
0.0
  0
LINE
  5
310
330
1F
100
AcDbEntity
  8
0
100
AcDbLine
 10
1289.888220005684
 20
1345.011648211056
 30
0.0
 11
1280.186496641538
 21
1345.011648211055
 31
0.0
  0
ENDSEC
  0
SECTION
  2
OBJECTS
  0
DICTIONARY
  5
C
330
0
100
AcDbDictionary
  3
ACAD_GROUP
350
D
  3
ACAD_LAYOUT
350
1A
  3
ACAD_MATERIAL
350
43
  3
ACAD_MLEADERSTYLE
350
333
  3
ACAD_MLINESTYLE
350
17
  3
ACAD_PLOTSETTINGS
350
19
  3
ACAD_SCALELIST
350
47
  3
ACAD_VISUALSTYLE
350
2A
  3
ACDBHEADERROUNDTRIPXREC
350
311
  3
ACDBVARIABLEDICTIONARY
350
331
  0
DICTIONARY
  5
338
330
8
100
AcDbDictionary
280
     1
  3
ACAD_XREC_ROUNDTRIP
360
339
  0
DICTIONARY
  5
D
102
{ACAD_REACTORS
330
C
102
}
330
C
100
AcDbDictionary
  0
DICTIONARY
  5
1A
102
{ACAD_REACTORS
330
C
102
}
330
C
100
AcDbDictionary
  0
DICTIONARY
  5
43
102
{ACAD_REACTORS
330
C
102
}
330
C
100
AcDbDictionary
  3
BYBLOCK
350
45
  3
BYLAYER
350
44
  3
GLOBAL
350
46
  0
DICTIONARY
  5
333
102
{ACAD_REACTORS
330
C
102
}
330
C
100
AcDbDictionary
  0
DICTIONARY
  5
17
102
{ACAD_REACTORS
330
C
102
}
330
C
100
AcDbDictionary
  3
STANDARD
350
18
  0
DICTIONARY
  5
19
102
{ACAD_REACTORS
330
C
102
}
330
C
100
AcDbDictionary
  0
DICTIONARY
  5
47
102
{ACAD_REACTORS
330
C
102
}
330
C
100
AcDbDictionary
  3
A0
350
48
  3
A1
350
49
  3
A2
350
4A
  3
A3
350
4B
  3
A4
350
4C
  3
A5
350
4D
  3
A6
350
4E
  3
A7
350
4F
  3
A8
350
50
  3
A9
350
51
  3
B0
350
52
  3
B1
350
53
  3
B2
350
54
  3
B3
350
55
  3
B4
350
56
  3
B5
350
57
  3
B6
350
58
  3
B7
350
59
  3
B8
350
5A
  3
B9
350
5B
  3
C0
350
5C
  3
C1
350
5D
  3
C2
350
5E
  3
C3
350
5F
  3
C4
350
60
  3
C5
350
61
  3
C6
350
62
  3
C7
350
63
  3
C8
350
64
  3
C9
350
65
  3
D0
350
66
  3
D1
350
67
  3
D2
350
68
  0
DICTIONARY
  5
2A
102
{ACAD_REACTORS
330
C
102
}
330
C
100
AcDbDictionary
  3
2DWIREFRAME
350
2F
  3
BASIC
350
32
  3
BRIGHTEN
350
36
  3
COLORCHANGE
350
3A
  3
CONCEPTUAL
350
34
  3
DIM
350
35
  3
EDGECOLOROFF
350
3D
  3
FACEPATTERN
350
39
  3
FLAT
350
2B
  3
FLATWITHEDGES
350
2C
  3
GOURAUD
350
2D
  3
GOURAUDWITHEDGES
350
2E
  3
HIDDEN
350
31
  3
JITTEROFF
350
3B
  3
LINEPATTERN
350
38
  3
OVERHANGOFF
350
3C
  3
REALISTIC
350
33
  3
SHADED
350
42
  3
SHADED_WITH_EDGES
350
41
  3
SHADES_OF_GRAY
350
3E
  3
SKETCHY
350
3F
  3
THICKEN
350
37
  3
WIREFRAME
350
30
  3
X-RAY
350
40
  0
DICTIONARY
  5
311
102
{ACAD_REACTORS
330
C
102
}
330
C
100
AcDbDictionary
  3
CEPSNTYPE
350
31A
  3
DIMSTYLEDATA
350
330
  3
FINGERPRINTGUID
350
31B
  3
HYPERLINKBASE
350
314
  3
INSUNITS
350
319
  3
LAYOUTDICT
350
316
  3
LWETCUNION
350
318
  3
PLOTSETDICT
350
317
  3
PSVPSCALE
350
31D
  3
PUCSBASE
350
320
  3
PUCSORGBACK
350
326
  3
PUCSORGBOTTOM
350
322
  3
PUCSORGFRONT
350
325
  3
PUCSORGLEFT
350
323
  3
PUCSORGRIGHT
350
324
  3
PUCSORGTOP
350
321
  3
PUCSORTHOREF
350
31E
  3
PUCSORTHOVIEW
350
31F
  3
STYLESHEET
350
315
  3
TSTACKALIGN
350
312
  3
TSTACKSIZE
350
313
  3
UCSBASE
350
329
  3
UCSORGBACK
350
32F
  3
UCSORGBOTTOM
350
32B
  3
UCSORGFRONT
350
32E
  3
UCSORGLEFT
350
32C
  3
UCSORGRIGHT
350
32D
  3
UCSORGTOP
350
32A
  3
UCSORTHOREF
350
327
  3
UCSORTHOVIEW
350
328
  3
VERSIONGUID
350
31C
  0
DICTIONARY
  5
331
102
{ACAD_REACTORS
330
C
102
}
330
C
100
AcDbDictionary
  3
CANNOSCALE
350
33A
  3
DIMASSOC
350
336
  3
HIDETEXT
350
337
  3
MSLTSCALE
350
33B
  0
XRECORD
  5
339
102
{ACAD_REACTORS
330
338
102
}
330
338
100
AcDbXrecord
102
VTR_0.000_0.000_1.000_1.000_GRIDDISPLAY
 70
     3
102
VTR_0.000_0.000_1.000_1.000_GRIDMAJOR
 70
     5
102
VTR_0.000_0.000_1.000_1.000_DEFAULTLIGHTING
280
     1
102
VTR_0.000_0.000_1.000_1.000_DEFAULTLIGHTINGTYPE
 70
     1
102
VTR_0.000_0.000_1.000_1.000_BRIGHTNESS
141
0.0
102
VTR_0.000_0.000_1.000_1.000_CONTRAST
142
0.0
  0
MATERIAL
  5
45
102
{ACAD_REACTORS
330
43
102
}
102
{ACAD_XDICTIONARY
360
33E
102
}
330
43
100
AcDbMaterial
  1
BYBLOCK
  0
MATERIAL
  5
44
102
{ACAD_REACTORS
330
43
102
}
102
{ACAD_XDICTIONARY
360
33C
102
}
330
43
100
AcDbMaterial
  1
BYLAYER
  0
MATERIAL
  5
46
102
{ACAD_REACTORS
330
43
102
}
102
{ACAD_XDICTIONARY
360
340
102
}
330
43
100
AcDbMaterial
  1
GLOBAL
  0
MLINESTYLE
  5
18
102
{ACAD_REACTORS
330
17
102
}
330
17
100
AcDbMlineStyle
  2
Standard
 70
     0
  3

 62
   256
 51
90.0
 52
90.0
 71
     2
 49
0.5
 62
   256
  6
BYLAYER
 49
-0.5
 62
   256
  6
BYLAYER
  0
ACAD_PROXY_OBJECT
  5
48
102
{ACAD_REACTORS
330
47
102
}
330
47
100
AcDbProxyObject
 90
      499
 91
      503
 93
       41
310
903313A31580
  0
ACAD_PROXY_OBJECT
  5
49
102
{ACAD_REACTORS
330
47
102
}
330
47
100
AcDbProxyObject
 90
      499
 91
      503
 93
      105
310
903313A324000000000000004000
  0
ACAD_PROXY_OBJECT
  5
4A
102
{ACAD_REACTORS
330
47
102
}
330
47
100
AcDbProxyObject
 90
      499
 91
      503
 93
      105
310
903313A344000000000000104000
  0
ACAD_PROXY_OBJECT
  5
4B
102
{ACAD_REACTORS
330
47
102
}
330
47
100
AcDbProxyObject
 90
      499
 91
      503
 93
      105
310
903313A354000000000000144000
  0
ACAD_PROXY_OBJECT
  5
4C
102
{ACAD_REACTORS
330
47
102
}
330
47
100
AcDbProxyObject
 90
      499
 91
      503
 93
      105
310
903313A384000000000000204000
  0
ACAD_PROXY_OBJECT
  5
4D
102
{ACAD_REACTORS
330
47
102
}
330
47
100
AcDbProxyObject
 90
      499
 91
      503
 93
      113
310
904313A31304000000000000244000
  0
ACAD_PROXY_OBJECT
  5
4E
102
{ACAD_REACTORS
330
47
102
}
330
47
100
AcDbProxyObject
 90
      499
 91
      503
 93
      113
310
904313A31364000000000000304000
  0
ACAD_PROXY_OBJECT
  5
4F
102
{ACAD_REACTORS
330
47
102
}
330
47
100
AcDbProxyObject
 90
      499
 91
      503
 93
      113
310
904313A32304000000000000344000
  0
ACAD_PROXY_OBJECT
  5
50
102
{ACAD_REACTORS
330
47
102
}
330
47
100
AcDbProxyObject
 90
      499
 91
      503
 93
      113
310
904313A333040000000000003E4000
  0
ACAD_PROXY_OBJECT
  5
51
102
{ACAD_REACTORS
330
47
102
}
330
47
100
AcDbProxyObject
 90
      499
 91
      503
 93
      113
310
904313A34304000000000000444000
  0
ACAD_PROXY_OBJECT
  5
52
102
{ACAD_REACTORS
330
47
102
}
330
47
100
AcDbProxyObject
 90
      499
 91
      503
 93
      113
310
904313A35304000000000000494000
  0
ACAD_PROXY_OBJECT
  5
53
102
{ACAD_REACTORS
330
47
102
}
330
47
100
AcDbProxyObject
 90
      499
 91
      503
 93
      121
310
905313A3130304000000000000594000
  0
ACAD_PROXY_OBJECT
  5
54
102
{ACAD_REACTORS
330
47
102
}
330
47
100
AcDbProxyObject
 90
      499
 91
      503
 93
      105
310
903323A310000000000000010100
  0
ACAD_PROXY_OBJECT
  5
55
102
{ACAD_REACTORS
330
47
102
}
330
47
100
AcDbProxyObject
 90
      499
 91
      503
 93
      105
310
903343A310000000000000410100
  0
ACAD_PROXY_OBJECT
  5
56
102
{ACAD_REACTORS
330
47
102
}
330
47
100
AcDbProxyObject
 90
      499
 91
      503
 93
      105
310
903383A310000000000000810100
  0
ACAD_PROXY_OBJECT
  5
57
102
{ACAD_REACTORS
330
47
102
}
330
47
100
AcDbProxyObject
 90
      499
 91
      503
 93
      113
310
90431303A310000000000000910100
  0
ACAD_PROXY_OBJECT
  5
58
102
{ACAD_REACTORS
330
47
102
}
330
47
100
AcDbProxyObject
 90
      499
 91
      503
 93
      121
310
9053130303A310000000000001650100
  0
ACAD_PROXY_OBJECT
  5
59
102
{ACAD_REACTORS
330
47
102
}
330
47
100
AcDbProxyObject
 90
      499
 91
      503
 93
      257
310
90E312F31323822203D2031272D3022000000000000200FC000000000000284000
  0
ACAD_PROXY_OBJECT
  5
5A
102
{ACAD_REACTORS
330
47
102
}
330
47
100
AcDbProxyObject
 90
      499
 91
      503
 93
      249
310
90D312F363422203D2031272D3022000000000000240FC000000000000284000
  0
ACAD_PROXY_OBJECT
  5
5B
102
{ACAD_REACTORS
330
47
102
}
330
47
100
AcDbProxyObject
 90
      499
 91
      503
 93
      249
310
90D312F333222203D2031272D3022000000000000280FC000000000000284000
  0
ACAD_PROXY_OBJECT
  5
5C
102
{ACAD_REACTORS
330
47
102
}
330
47
100
AcDbProxyObject
 90
      499
 91
      503
 93
      249
310
90D312F313622203D2031272D30220000000000002C0FC000000000000284000
  0
ACAD_PROXY_OBJECT
  5
5D
102
{ACAD_REACTORS
330
47
102
}
330
47
100
AcDbProxyObject
 90
      499
 91
      503
 93
      249
310
90D332F333222203D2031272D30220000000000002E0FC000000000000284000
  0
ACAD_PROXY_OBJECT
  5
5E
102
{ACAD_REACTORS
330
47
102
}
330
47
100
AcDbProxyObject
 90
      499
 91
      503
 93
      241
310
90C312F3822203D2031272D3022000000000000300FC000000000000284000
  0
ACAD_PROXY_OBJECT
  5
5F
102
{ACAD_REACTORS
330
47
102
}
330
47
100
AcDbProxyObject
 90
      499
 91
      503
 93
      249
310
90D332F313622203D2031272D3022000000000000320FC000000000000284000
  0
ACAD_PROXY_OBJECT
  5
60
102
{ACAD_REACTORS
330
47
102
}
330
47
100
AcDbProxyObject
 90
      499
 91
      503
 93
      241
310
90C312F3422203D2031272D3022000000000000340FC000000000000284000
  0
ACAD_PROXY_OBJECT
  5
61
102
{ACAD_REACTORS
330
47
102
}
330
47
100
AcDbProxyObject
 90
      499
 91
      503
 93
      241
310
90C332F3822203D2031272D3022000000000000360FC000000000000284000
  0
ACAD_PROXY_OBJECT
  5
62
102
{ACAD_REACTORS
330
47
102
}
330
47
100
AcDbProxyObject
 90
      499
 91
      503
 93
      241
310
90C312F3222203D2031272D3022000000000000380FC000000000000284000
  0
ACAD_PROXY_OBJECT
  5
63
102
{ACAD_REACTORS
330
47
102
}
330
47
100
AcDbProxyObject
 90
      499
 91
      503
 93
      241
310
90C332F3422203D2031272D30220000000000003A0FC000000000000284000
  0
ACAD_PROXY_OBJECT
  5
64
102
{ACAD_REACTORS
330
47
102
}
330
47
100
AcDbProxyObject
 90
      499
 91
      503
 93
      161
310
90A3122203D2031272D30224000000000000284000
  0
ACAD_PROXY_OBJECT
  5
65
102
{ACAD_REACTORS
330
47
102
}
330
47
100
AcDbProxyObject
 90
      499
 91
      503
 93
      257
310
90E312D312F3222203D2031272D30220000000000003E0FC000000000000284000
  0
ACAD_PROXY_OBJECT
  5
66
102
{ACAD_REACTORS
330
47
102
}
330
47
100
AcDbProxyObject
 90
      499
 91
      503
 93
      225
310
90A3322203D2031272D302200000000000002100000000000000284000
  0
ACAD_PROXY_OBJECT
  5
67
102
{ACAD_REACTORS
330
47
102
}
330
47
100
AcDbProxyObject
 90
      499
 91
      503
 93
      225
310
90A3622203D2031272D302200000000000006100000000000000284000
  0
ACAD_PROXY_OBJECT
  5
68
102
{ACAD_REACTORS
330
47
102
}
330
47
100
AcDbProxyObject
 90
      499
 91
      503
 93
      249
310
90D31272D3022203D2031272D30220000000000000A100000000000000284000
  0
ACAD_PROXY_OBJECT
  5
2F
102
{ACAD_REACTORS
330
2A
102
}
330
2A
100
AcDbProxyObject
 90
      499
 91
      501
 93
      436
310
42CC9915DA5C99599C985B595049028333333333333E33F0000000000000F90107901411070040501600405405064090741402480A0340
1001
ACAD
1000
AcDbSavedByObjectVersion
1070
     0
  0
ACAD_PROXY_OBJECT
  5
32
102
{ACAD_REACTORS
330
2A
102
}
330
2A
100
AcDbProxyObject
 90
      499
 91
      501
 93
      388
310
4150985CDA58D07406404333333333333E33F0000000000000F90107A41107004050150841D405064090741402480A0350
1001
ACAD
1000
AcDbSavedByObjectVersion
1070
     0
  0
ACAD_PROXY_OBJECT
  5
36
102
{ACAD_REACTORS
330
2A
102
}
330
2A
100
AcDbProxyObject
 90
      499
 91
      501
 93
      428
310
42109C9A59DA1D195B90C409028333333333333E33F0000000000000F9010790141107004050150841D405064090741402480A029950
1001
ACAD
1000
AcDbSavedByObjectVersion
1070
     0
  0
ACAD_PROXY_OBJECT
  5
3A
102
{ACAD_REACTORS
330
2A
102
}
330
2A
100
AcDbProxyObject
 90
      499
 91
      501
 93
      452
310
42D0DBDB1BDC90DA185B99D95104090240C333333333333E33F0000000000000F90108901411070040501508421405064090741402480A0350
1001
ACAD
1000
AcDbSavedByObjectVersion
1070
     0
  0
ACAD_PROXY_OBJECT
  5
34
102
{ACAD_REACTORS
330
2A
102
}
330
2A
100
AcDbProxyObject
 90
      499
 91
      501
 93
      500
310
4290DBDB98D95C1D1D585B10940D028333333333333E33F0000000000000F90107902409070040501000000000018199010841D405064090740C02480A0340
1001
ACAD
1000
AcDbSavedByObjectVersion
1070
     0
  0
ACAD_PROXY_OBJECT
  5
35
102
{ACAD_REACTORS
330
2A
102
}
330
2A
100
AcDbProxyObject
 90
      499
 91
      501
 93
      412
310
40D11A5B50B409028333333333333E33F0000000000000F9010790141107004050150841D405064090741402480A02677FFFFFD0
1001
ACAD
1000
AcDbSavedByObjectVersion
1070
     0
  0
ACAD_PROXY_OBJECT
  5
3D
102
{ACAD_REACTORS
330
2A
102
}
330
2A
100
AcDbProxyObject
 90
      499
 91
      501
 93
      452
310
43115919D950DBDB1BDC93D999916409028333333333333E33F0000000000000F9010790141107004050150841D405064090741402480A0350
1001
ACAD
1000
AcDbSavedByObjectVersion
1070
     0
  0
ACAD_PROXY_OBJECT
  5
39
102
{ACAD_REACTORS
330
2A
102
}
330
2A
100
AcDbProxyObject
 90
      499
 91
      501
 93
      444
310
42D19858D95C185D1D195C9B90F409028333333333333E33F0000000000000F9010790141107004050150841D405064090741402480A0350
1001
ACAD
1000
AcDbSavedByObjectVersion
1070
     0
  0
ACAD_PROXY_OBJECT
  5
2B
102
{ACAD_REACTORS
330
2A
102
}
330
2A
100
AcDbProxyObject
 90
      499
 91
      501
 93
      380
310
41119B185D240901404333333333333E33F0000000000000F9010740A907004050150841D405064090741402480A1B50
1001
ACAD
1000
AcDbSavedByObjectVersion
1070
     0
  0
ACAD_PROXY_OBJECT
  5
2C
102
{ACAD_REACTORS
330
2A
102
}
330
2A
100
AcDbProxyObject
 90
      499
 91
      501
 93
      468
310
43519B185D15DA5D1A115919D95CD0140901404333333333333E33F0000000000000F90107409019070040501600405405064090741402480A1B50
1001
ACAD
1000
AcDbSavedByObjectVersion
1070
     0
  0
ACAD_PROXY_OBJECT
  5
2D
102
{ACAD_REACTORS
330
2A
102
}
330
2A
100
AcDbProxyObject
 90
      499
 91
      501
 93
      404
310
41D1DBDD5C985D5910240902404333333333333E33F0000000000000F9010740A9070040501641D405064090741402480A1B50
1001
ACAD
1000
AcDbSavedByObjectVersion
1070
     0
  0
ACAD_PROXY_OBJECT
  5
2E
102
{ACAD_REACTORS
330
2A
102
}
330
2A
100
AcDbProxyObject
 90
      499
 91
      501
 93
      492
310
4411DBDD5C985D5915DA5D1A115919D95CD0340902404333333333333E33F0000000000000F90107409019070040501600405405064090741402480A1B50
1001
ACAD
1000
AcDbSavedByObjectVersion
1070
     0
  0
ACAD_PROXY_OBJECT
  5
31
102
{ACAD_REACTORS
330
2A
102
}
330
2A
100
AcDbProxyObject
 90
      499
 91
      501
 93
      476
310
41921A5919195B90640502408333333333333E33F0000000000000F901079024090700405020000000000001110200405405064090740C02480A0340
1001
ACAD
1000
AcDbSavedByObjectVersion
1070
     0
  0
ACAD_PROXY_OBJECT
  5
3B
102
{ACAD_REACTORS
330
2A
102
}
330
2A
100
AcDbProxyObject
 90
      499
 91
      501
 93
      428
310
42529A5D1D195C93D999914409028333333333333E33F0000000000000F9010790141107004050150A41D405064090741402480A0350
1001
ACAD
1000
AcDbSavedByObjectVersion
1070
     0
  0
ACAD_PROXY_OBJECT
  5
38
102
{ACAD_REACTORS
330
2A
102
}
330
2A
100
AcDbProxyObject
 90
      499
 91
      501
 93
      444
310
42D31A5B995C185D1D195C9B90E409028333333333333E33F0000000000000F9010790141107004050750841D405064090741402483A0350
1001
ACAD
1000
AcDbSavedByObjectVersion
1070
     0
  0
ACAD_PROXY_OBJECT
  5
3C
102
{ACAD_REACTORS
330
2A
102
}
330
2A
100
AcDbProxyObject
 90
      499
 91
      501
 93
      444
310
42D3DD995C9A185B99D3D999915409028333333333333E33F0000000000000F9010790141107004050150941D405064090741402480A0350
1001
ACAD
1000
AcDbSavedByObjectVersion
1070
     0
  0
ACAD_PROXY_OBJECT
  5
33
102
{ACAD_REACTORS
330
2A
102
}
330
2A
100
AcDbProxyObject
 90
      499
 91
      501
 93
      428
310
425499585B1A5CDD1A58D08409038333333333333E33F0000000000000F9010740A907004050150800405405064090740C02480A1B40
1001
ACAD
1000
AcDbSavedByObjectVersion
1070
     0
  0
ACAD_PROXY_OBJECT
  5
42
102
{ACAD_REACTORS
330
2A
102
}
330
2A
100
AcDbProxyObject
 90
      499
 91
      501
 93
      420
310
4194DA1859195911B40902404333333333333E33F0000000000000F9010740A41107004050150800405405064090840C02480A0B40
1001
ACAD
1000
AcDbSavedByObjectVersion
1070
     0
  0
ACAD_PROXY_OBJECT
  5
41
102
{ACAD_REACTORS
330
2A
102
}
330
2A
100
AcDbProxyObject
 90
      499
 91
      501
 93
      516
310
4454DA18591959081DDA5D1A08195919D95CD1A40902404333333333333E33F0000000000000F901074090142907004050250800405405064090740C02480A0B40
1001
ACAD
1000
AcDbSavedByObjectVersion
1070
     0
  0
ACAD_PROXY_OBJECT
  5
3E
102
{ACAD_REACTORS
330
2A
102
}
330
2A
100
AcDbProxyObject
 90
      499
 91
      501
 93
      532
310
4394DA1859195CC81BD98811DC985E5174090240C333333333333E33F0000000000000F901079024090741D01000000000000111010841D405064090740C02480A0340
1001
ACAD
1000
AcDbSavedByObjectVersion
1070
     0
  0
ACAD_PROXY_OBJECT
  5
3F
102
{ACAD_REACTORS
330
2A
102
}
330
2A
100
AcDbProxyObject
 90
      499
 91
      501
 93
      476
310
41D4DAD95D18DA1E51840502408333333333333E33F0000000000000F901079024090741D01000000000000111010B41D405064090741802480A0340
1001
ACAD
1000
AcDbSavedByObjectVersion
1070
     0
  0
ACAD_PROXY_OBJECT
  5
37
102
{ACAD_REACTORS
330
2A
102
}
330
2A
100
AcDbProxyObject
 90
      499
 91
      501
 93
      412
310
41D51A1A58DAD95B90D409028333333333333E33F0000000000000F9010790141107004050150C41D405064090741402480A0350
1001
ACAD
1000
AcDbSavedByObjectVersion
1070
     0
  0
ACAD_PROXY_OBJECT
  5
30
102
{ACAD_REACTORS
330
2A
102
}
330
2A
100
AcDbProxyObject
 90
      499
 91
      501
 93
      420
310
4255DA5C99599C985B595059028333333333333E33F0000000000000F90107901411070040501600405405064090740C02480A0340
1001
ACAD
1000
AcDbSavedByObjectVersion
1070
     0
  0
ACAD_PROXY_OBJECT
  5
40
102
{ACAD_REACTORS
330
2A
102
}
330
2A
100
AcDbProxyObject
 90
      499
 91
      501
 93
      404
310
41560B54985E51940902404000000000000E03F0000000000000F9010740501907004050150841D405064090740C02480A1B40
1001
ACAD
1000
AcDbSavedByObjectVersion
1070
     0
  0
XRECORD
  5
31A
102
{ACAD_REACTORS
330
311
102
}
330
311
100
AcDbXrecord
 90
        0
  0
XRECORD
  5
330
102
{ACAD_REACTORS
330
311
102
}
330
311
100
AcDbXrecord
1000
DSTYLE
1002
{
1070
   171
 70
     2
1070
   143
 40
25.4
1070
   274
 70
     2
1070
    41
 40
0.18
1070
   141
 40
0.09
1070
   271
 70
     4
1070
    43
 40
0.38
1070
   278
 70
    46
1070
    44
 40
0.18
1070
    42
 40
0.0625
1070
   147
 40
0.09
1070
    77
 70
     0
1070
   272
 70
     4
1070
    73
 70
     1
1070
   172
 70
     0
1070
    74
 70
     1
1070
   283
 70
     1
1070
   340
340
11
1070
   140
 40
0.18
1070
   284
 70
     0
1070
    78
 70
     0
1002
}
  0
XRECORD
  5
31B
102
{ACAD_REACTORS
330
311
102
}
330
311
100
AcDbXrecord
  1
{B511285C-0879-4EFE-8780-53E0343B33C5}
  0
XRECORD
  5
314
102
{ACAD_REACTORS
330
311
102
}
330
311
100
AcDbXrecord
  1

  0
XRECORD
  5
319
102
{ACAD_REACTORS
330
311
102
}
330
311
100
AcDbXrecord
 90
        4
  0
XRECORD
  5
316
102
{ACAD_REACTORS
330
311
102
}
330
311
100
AcDbXrecord
340
1A
  0
XRECORD
  5
318
102
{ACAD_REACTORS
330
311
102
}
330
311
100
AcDbXrecord
 90
    10781
  0
XRECORD
  5
317
102
{ACAD_REACTORS
330
311
102
}
330
311
100
AcDbXrecord
340
19
  0
XRECORD
  5
31D
102
{ACAD_REACTORS
330
311
102
}
330
311
100
AcDbXrecord
 40
0.0
  0
XRECORD
  5
320
102
{ACAD_REACTORS
330
311
102
}
330
311
100
AcDbXrecord
340
0
  0
XRECORD
  5
326
102
{ACAD_REACTORS
330
311
102
}
330
311
100
AcDbXrecord
 10
0.0
 20
0.0
 30
0.0
  0
XRECORD
  5
322
102
{ACAD_REACTORS
330
311
102
}
330
311
100
AcDbXrecord
 10
0.0
 20
0.0
 30
0.0
  0
XRECORD
  5
325
102
{ACAD_REACTORS
330
311
102
}
330
311
100
AcDbXrecord
 10
0.0
 20
0.0
 30
0.0
  0
XRECORD
  5
323
102
{ACAD_REACTORS
330
311
102
}
330
311
100
AcDbXrecord
 10
0.0
 20
0.0
 30
0.0
  0
XRECORD
  5
324
102
{ACAD_REACTORS
330
311
102
}
330
311
100
AcDbXrecord
 10
0.0
 20
0.0
 30
0.0
  0
XRECORD
  5
321
102
{ACAD_REACTORS
330
311
102
}
330
311
100
AcDbXrecord
 10
0.0
 20
0.0
 30
0.0
  0
XRECORD
  5
31E
102
{ACAD_REACTORS
330
311
102
}
330
311
100
AcDbXrecord
340
0
  0
XRECORD
  5
31F
102
{ACAD_REACTORS
330
311
102
}
330
311
100
AcDbXrecord
 70
     0
  0
XRECORD
  5
315
102
{ACAD_REACTORS
330
311
102
}
330
311
100
AcDbXrecord
  1

  0
XRECORD
  5
312
102
{ACAD_REACTORS
330
311
102
}
330
311
100
AcDbXrecord
 90
        1
  0
XRECORD
  5
313
102
{ACAD_REACTORS
330
311
102
}
330
311
100
AcDbXrecord
 90
       70
  0
XRECORD
  5
329
102
{ACAD_REACTORS
330
311
102
}
330
311
100
AcDbXrecord
340
0
  0
XRECORD
  5
32F
102
{ACAD_REACTORS
330
311
102
}
330
311
100
AcDbXrecord
 10
0.0
 20
0.0
 30
0.0
  0
XRECORD
  5
32B
102
{ACAD_REACTORS
330
311
102
}
330
311
100
AcDbXrecord
 10
0.0
 20
0.0
 30
0.0
  0
XRECORD
  5
32E
102
{ACAD_REACTORS
330
311
102
}
330
311
100
AcDbXrecord
 10
0.0
 20
0.0
 30
0.0
  0
XRECORD
  5
32C
102
{ACAD_REACTORS
330
311
102
}
330
311
100
AcDbXrecord
 10
0.0
 20
0.0
 30
0.0
  0
XRECORD
  5
32D
102
{ACAD_REACTORS
330
311
102
}
330
311
100
AcDbXrecord
 10
0.0
 20
0.0
 30
0.0
  0
XRECORD
  5
32A
102
{ACAD_REACTORS
330
311
102
}
330
311
100
AcDbXrecord
 10
0.0
 20
0.0
 30
0.0
  0
XRECORD
  5
327
102
{ACAD_REACTORS
330
311
102
}
330
311
100
AcDbXrecord
340
0
  0
XRECORD
  5
328
102
{ACAD_REACTORS
330
311
102
}
330
311
100
AcDbXrecord
 70
     0
  0
XRECORD
  5
31C
102
{ACAD_REACTORS
330
311
102
}
330
311
100
AcDbXrecord
  1
{FAEB1C32-E019-11D5-929B-00C0DF256EC4}
  0
DICTIONARYVAR
  5
33A
102
{ACAD_REACTORS
330
331
102
}
330
331
100
DictionaryVariables
280
     0
  1
1:1
  0
DICTIONARYVAR
  5
336
102
{ACAD_REACTORS
330
331
102
}
330
331
100
DictionaryVariables
280
     0
  1
2
  0
DICTIONARYVAR
  5
337
102
{ACAD_REACTORS
330
331
102
}
330
331
100
DictionaryVariables
280
     0
  1
1
  0
DICTIONARYVAR
  5
33B
102
{ACAD_REACTORS
330
331
102
}
330
331
100
DictionaryVariables
280
     0
  1
1
  0
DICTIONARY
  5
33E
330
45
100
AcDbDictionary
280
     1
  3
ACAD_XREC_ROUNDTRIP
360
33F
  0
DICTIONARY
  5
33C
330
44
100
AcDbDictionary
280
     1
  3
ACAD_XREC_ROUNDTRIP
360
33D
  0
DICTIONARY
  5
340
330
46
100
AcDbDictionary
280
     1
  3
ACAD_XREC_ROUNDTRIP
360
341
  0
XRECORD
  5
33F
102
{ACAD_REACTORS
330
33E
102
}
330
33E
100
AcDbXrecord
102
MATERIAL
148
0.0
149
0.0
149
0.0
 93
        0
 94
      127
282
     0
 72
     1
 77
     1
171
     1
175
     1
179
     1
273
     0
  0
XRECORD
  5
33D
102
{ACAD_REACTORS
330
33C
102
}
330
33C
100
AcDbXrecord
102
MATERIAL
148
0.0
149
0.0
149
0.0
 93
        0
 94
      127
282
     0
 72
     1
 77
     1
171
     1
175
     1
179
     1
273
     0
  0
XRECORD
  5
341
102
{ACAD_REACTORS
330
340
102
}
330
340
100
AcDbXrecord
102
MATERIAL
148
0.0
149
0.0
149
0.0
 93
        0
 94
      127
282
     0
 72
     1
 77
     1
171
     1
175
     1
179
     1
273
     0
  0
ENDSEC
  0
EOF
