0
SECTION
2
HEADER
9
$INSUNITS
70
4
9
$ACADVER
1
AC1014
9
$HANDSEED
5
FFFF
0
ENDSEC
0
SECTION
2
TABLES
0
TABLE
2
VPORT
5
8
100
AcDbSymbolTable
0
ENDTAB
0
TABLE
2
LTYPE
5
5
100
AcDbSymbolTable
0
LTYPE
5
14
100
AcDbSymbolTableRecord
100
AcDbLinetypeTableRecord
2
BYBLOCK
70
0
0
LTYPE
5
15
100
AcDbSymbolTableRecord
100
AcDbLinetypeTableRecord
2
BYLAYER
70
0
0
ENDTAB
0
TABLE
2
LAYER
5
2
100
AcDbSymbolTable
70
2
0
LAYER
5
50
100
AcDbSymbolTableRecord
100
AcDbLayerTableRecord
2
0
70
0
6
CONTINUOUS
0
ENDTAB
0
TABLE
2
STYLE
5
3
100
AcDbSymbolTable
70
1
0
STYLE
5
11
100
AcDbSymbolTableRecord
100
AcDbTextStyleTableRecord
2
STANDARD
70
0
0
ENDTAB
0
TABLE
2
VIEW
5
6
100
AcDbSymbolTable
70
0
0
ENDTAB
0
TABLE
2
UCS
5
7
100
AcDbSymbolTable
70
0
0
ENDTAB
0
TABLE
2
APPID
5
9
100
AcDbSymbolTable
70
2
0
APPID
5
12
100
AcDbSymbolTableRecord
100
AcDbRegAppTableRecord
2
ACAD
70
0
0
ENDTAB
0
TABLE
2
DIMSTYLE
5
A
100
AcDbSymbolTable
70
1
0
ENDTAB
0
TABLE
2
BLOCK_RECORD
5
1
100
AcDbSymbolTable
70
1
0
BLOCK_RECORD
5
1F
100
AcDbSymbolTableRecord
100
AcDbBlockTableRecord
2
*MODEL_SPACE
0
BLOCK_RECORD
5
1B
100
AcDbSymbolTableRecord
100
AcDbBlockTableRecord
2
*PAPER_SPACE
0
ENDTAB
0
ENDSEC
0
SECTION
2
BLOCKS
0
BLOCK
5
20
100
AcDbEntity
100
AcDbBlockBegin
2
*MODEL_SPACE
0
ENDBLK
5
21
100
AcDbEntity
100
AcDbBlockEnd
0
BLOCK
5
1C
100
AcDbEntity
100
AcDbBlockBegin
2
*PAPER_SPACE
0
ENDBLK
5
1D
100
AcDbEntity
100
AcDbBlockEnd
0
ENDSEC
0
SECTION
2
ENTITIES
0
LWPOLYLINE
5
100
100
AcDbEntity
8
0
100
AcDbPolyline
90
4
70
1
43
0.0
10
-150
20
80
10
-180
20
80
10
-180
20
77
10
-150
20
77
0
LINE
5
101
100
AcDbEntity
8
0
100
AcDbLine
10
-80
20
3.0000000000000004
30
0
11
-80
21
0
31
0
0
LINE
5
102
100
AcDbEntity
8
0
100
AcDbLine
10
-270
20
80
30
0
11
-250
21
120
31
0
0
LINE
5
103
100
AcDbEntity
8
0
100
AcDbLine
10
-250
20
158.92276569454546
30
0
11
-250
21
121.0000018030405
31
0
0
LINE
5
104
100
AcDbEntity
8
0
100
AcDbLine
10
-195.00000290572643
20
40.000000596046448
30
0
11
-5
21
40.000000596046448
31
0
0
LINE
5
105
100
AcDbEntity
8
0
100
AcDbLine
10
-80
20
163
30
0
11
-80
21
160
31
0
0
LWPOLYLINE
5
106
100
AcDbEntity
8
0
100
AcDbPolyline
90
4
70
1
43
0.0
10
-180
20
157
10
-150
20
157
10
-150
20
160
10
-180
20
160
0
LWPOLYLINE
5
107
100
AcDbEntity
8
0
100
AcDbPolyline
90
4
70
1
43
0.0
10
-180
20
40
10
-180
20
43
10
-150
20
43
10
-150
20
40
0
LINE
5
108
100
AcDbEntity
8
0
100
AcDbLine
10
-30
20
160
30
0
11
-30
21
163
31
0
0
LINE
5
109
100
AcDbEntity
8
0
100
AcDbLine
10
-240
20
80
30
0
11
-240
21
70
31
0
0
LINE
5
110
100
AcDbEntity
8
0
100
AcDbLine
10
-30
20
160
30
0
11
0
21
160
31
0
0
LINE
5
111
100
AcDbEntity
8
0
100
AcDbLine
10
-205
20
120
30
0
11
-200
21
120
31
0
0
LINE
5
112
100
AcDbEntity
8
0
100
AcDbLine
10
-200
20
160
30
0
11
-80
21
160
31
0
0
LINE
5
113
100
AcDbEntity
8
0
100
AcDbLine
10
-200
20
78.994716088547833
30
0
11
-200
21
41.000000610947609
31
0
0
LWPOLYLINE
5
114
100
AcDbEntity
8
0
100
AcDbPolyline
90
4
70
1
43
0.0
10
-180
20
123
10
-150
20
123
10
-150
20
120
10
-180
20
120
0
LINE
5
115
100
AcDbEntity
8
0
100
AcDbLine
10
-245
20
70
30
0
11
-245
21
50
31
0
0
LINE
5
116
100
AcDbEntity
8
0
100
AcDbLine
10
-270
20
40
30
0
11
-250
21
0
31
0
0
LINE
5
117
100
AcDbEntity
8
0
100
AcDbLine
10
-200
20
80
30
0
11
-240
21
80
31
0
0
LINE
5
118
100
AcDbEntity
8
0
100
AcDbLine
10
-240
20
70
30
0
11
-245
21
70
31
0
0
LINE
5
119
100
AcDbEntity
8
0
100
AcDbLine
10
-240
20
40
30
0
11
-200
21
40
31
0
0
LINE
5
120
100
AcDbEntity
8
0
100
AcDbLine
10
-250
20
40
30
0
11
-270
21
40
31
0
0
LINE
5
121
100
AcDbEntity
8
0
100
AcDbLine
10
-200
20
40
30
0
11
-250
21
40
31
0
0
LINE
5
122
100
AcDbEntity
8
0
100
AcDbLine
10
-205
20
120
30
0
11
-250
21
120
31
0
0
LINE
5
123
100
AcDbEntity
8
0
100
AcDbLine
10
-195
20
120
30
0
11
-5
21
120
31
0
0
LWPOLYLINE
5
124
100
AcDbEntity
8
0
100
AcDbPolyline
90
4
70
1
43
0.0
10
-205
20
150
10
-200
20
150
10
-200
20
130
10
-205
20
130
0
LINE
5
125
100
AcDbEntity
8
0
100
AcDbLine
10
-195
20
80
30
0
11
-5
21
80
31
0
0
LINE
5
126
100
AcDbEntity
8
0
100
AcDbLine
10
-240
20
50
30
0
11
-240
21
40
31
0
0
LINE
5
127
100
AcDbEntity
8
0
100
AcDbLine
10
-250
20
80
30
0
11
-270
21
80
31
0
0
LINE
5
128
100
AcDbEntity
8
0
100
AcDbLine
10
-250
20
120
30
0
11
-200
21
120
31
0
0
LINE
5
129
100
AcDbEntity
8
0
100
AcDbLine
10
-250
20
160
30
0
11
-205
21
160
31
0
0
LINE
5
130
100
AcDbEntity
8
0
100
AcDbLine
10
-30
20
0
30
0
11
-30
21
3.0000000000000004
31
0
0
LINE
5
131
100
AcDbEntity
8
0
100
AcDbLine
10
0
20
160
30
0
11
0
21
0
31
0
0
LINE
5
132
100
AcDbEntity
8
0
100
AcDbLine
10
-250
20
0
30
0
11
-200
21
0
31
0
0
LINE
5
133
100
AcDbEntity
8
0
100
AcDbLine
10
-295
20
160
30
0
11
-295
21
120
31
0
0
CIRCLE
5
134
100
AcDbEntity
8
0
100
AcDbCircle
10
-10
20
110
30
0
40
2.2499999999999991
0
LINE
5
135
100
AcDbEntity
8
0
100
AcDbLine
10
-30
20
3.0000000000000004
30
0
11
-80
21
3.0000000000000004
31
0
0
LINE
5
136
100
AcDbEntity
8
0
100
AcDbLine
10
-30
20
163
30
0
11
-80
21
163
31
0
0
LINE
5
137
100
AcDbEntity
8
0
100
AcDbLine
10
-245
20
50
30
0
11
-240
21
50
31
0
0
LINE
5
138
100
AcDbEntity
8
0
100
AcDbLine
10
-250
20
160
30
0
11
-295
21
160
31
0
0
LINE
5
139
100
AcDbEntity
8
0
100
AcDbLine
10
-80
20
0
30
0
11
-200
21
0
31
0
0
CIRCLE
5
140
100
AcDbEntity
8
0
100
AcDbCircle
10
-10
20
10
30
0
40
2.2500000000000004
0
LINE
5
141
100
AcDbEntity
8
0
100
AcDbLine
10
-200
20
160
30
0
11
-205
21
160
31
0
0
LINE
5
142
100
AcDbEntity
8
0
100
AcDbLine
10
0
20
0
30
0
11
-30
21
0
31
0
0
LINE
5
143
100
AcDbEntity
8
0
100
AcDbLine
10
-200
20
80
30
0
11
-250
21
80
31
0
0
LINE
5
144
100
AcDbEntity
8
0
100
AcDbLine
10
-295
20
120
30
0
11
-250
21
120
31
0
0
ENDSEC
0
SECTION
2
OBJECTS
0
DICTIONARY
5
C
100
AcDbDictionary
3
ACAD_GROUP
350
D
3
ACAD_MLINESTYLE
350
17
0
DICTIONARY
5
D
100
AcDbDictionary
0
DICTIONARY
5
1A
330
C
100
AcDbDictionary
0
DICTIONARY
5
17
100
AcDbDictionary
0
ENDSEC
0
EOF
