ISO-10303-21;
HEADER;
/* Generated by software containing ST-Developer
 * from STEP Tools, Inc. (www.steptools.com) 
 */
/* OPTION: using custom renumber hook */

FILE_DESCRIPTION(
/* description */ ('STEP AP242',
'CAx-IF Rec.Pracs.---Representation and Presentation of Product Manufa
cturing Information (PMI)---4.0---2014-10-13',
'CAx-IF Rec.Pracs.---3D Tessellated Geometry---0.4---2014-09-14','2;1'),

/* implementation_level */ '2;1');

FILE_NAME(
/* name */ '6723c32cf5b44212e00504fa',
/* time_stamp */ '2024-10-31T17:49:33Z',
/* author */ (''),
/* organization */ (''),
/* preprocessor_version */ 'ST-DEVELOPER v20',
/* originating_system */ '  ',
/* authorisation */ '  ');

FILE_SCHEMA (('AP242_MANAGED_MODEL_BASED_3D_ENGINEERING_MIM_LF { 1 0 10303 442 1 1 4 }'));
ENDSEC;

DATA;
#10=SHAPE_REPRESENTATION_RELATIONSHIP('','',#266,#11);
#11=ADVANCED_BREP_SHAPE_REPRESENTATION('',(#264),#412);
#12=ORIENTED_EDGE('',*,*,#78,.F.);
#13=ORIENTED_EDGE('',*,*,#79,.T.);
#14=ORIENTED_EDGE('',*,*,#80,.T.);
#15=ORIENTED_EDGE('',*,*,#81,.F.);
#16=ORIENTED_EDGE('',*,*,#82,.F.);
#17=ORIENTED_EDGE('',*,*,#83,.F.);
#18=ORIENTED_EDGE('',*,*,#83,.T.);
#19=ORIENTED_EDGE('',*,*,#84,.T.);
#20=ORIENTED_EDGE('',*,*,#85,.F.);
#21=ORIENTED_EDGE('',*,*,#86,.F.);
#22=ORIENTED_EDGE('',*,*,#87,.T.);
#23=ORIENTED_EDGE('',*,*,#88,.T.);
#24=ORIENTED_EDGE('',*,*,#89,.T.);
#25=ORIENTED_EDGE('',*,*,#90,.T.);
#26=ORIENTED_EDGE('',*,*,#82,.T.);
#27=ORIENTED_EDGE('',*,*,#91,.T.);
#28=ORIENTED_EDGE('',*,*,#92,.F.);
#29=ORIENTED_EDGE('',*,*,#84,.F.);
#30=ORIENTED_EDGE('',*,*,#93,.T.);
#31=ORIENTED_EDGE('',*,*,#94,.F.);
#32=ORIENTED_EDGE('',*,*,#91,.F.);
#33=ORIENTED_EDGE('',*,*,#81,.T.);
#34=ORIENTED_EDGE('',*,*,#95,.T.);
#35=ORIENTED_EDGE('',*,*,#96,.T.);
#36=ORIENTED_EDGE('',*,*,#97,.T.);
#37=ORIENTED_EDGE('',*,*,#95,.F.);
#38=ORIENTED_EDGE('',*,*,#80,.F.);
#39=ORIENTED_EDGE('',*,*,#98,.T.);
#40=ORIENTED_EDGE('',*,*,#99,.T.);
#41=ORIENTED_EDGE('',*,*,#98,.F.);
#42=ORIENTED_EDGE('',*,*,#79,.F.);
#43=ORIENTED_EDGE('',*,*,#100,.T.);
#44=ORIENTED_EDGE('',*,*,#89,.F.);
#45=ORIENTED_EDGE('',*,*,#101,.T.);
#46=ORIENTED_EDGE('',*,*,#102,.F.);
#47=ORIENTED_EDGE('',*,*,#103,.T.);
#48=ORIENTED_EDGE('',*,*,#87,.F.);
#49=ORIENTED_EDGE('',*,*,#104,.T.);
#50=ORIENTED_EDGE('',*,*,#105,.F.);
#51=ORIENTED_EDGE('',*,*,#106,.T.);
#52=ORIENTED_EDGE('',*,*,#88,.F.);
#53=ORIENTED_EDGE('',*,*,#106,.F.);
#54=ORIENTED_EDGE('',*,*,#107,.F.);
#55=ORIENTED_EDGE('',*,*,#101,.F.);
#56=ORIENTED_EDGE('',*,*,#105,.T.);
#57=ORIENTED_EDGE('',*,*,#108,.T.);
#58=ORIENTED_EDGE('',*,*,#102,.T.);
#59=ORIENTED_EDGE('',*,*,#107,.T.);
#60=ORIENTED_EDGE('',*,*,#78,.T.);
#61=ORIENTED_EDGE('',*,*,#86,.T.);
#62=ORIENTED_EDGE('',*,*,#109,.F.);
#63=ORIENTED_EDGE('',*,*,#93,.F.);
#64=ORIENTED_EDGE('',*,*,#110,.F.);
#65=ORIENTED_EDGE('',*,*,#100,.F.);
#66=ORIENTED_EDGE('',*,*,#90,.F.);
#67=ORIENTED_EDGE('',*,*,#103,.F.);
#68=ORIENTED_EDGE('',*,*,#108,.F.);
#69=ORIENTED_EDGE('',*,*,#104,.F.);
#70=ORIENTED_EDGE('',*,*,#109,.T.);
#71=ORIENTED_EDGE('',*,*,#85,.T.);
#72=ORIENTED_EDGE('',*,*,#92,.T.);
#73=ORIENTED_EDGE('',*,*,#94,.T.);
#74=ORIENTED_EDGE('',*,*,#97,.F.);
#75=ORIENTED_EDGE('',*,*,#99,.F.);
#76=ORIENTED_EDGE('',*,*,#110,.T.);
#77=ORIENTED_EDGE('',*,*,#96,.F.);
#78=EDGE_CURVE('',#111,#112,#133,.T.);
#79=EDGE_CURVE('',#111,#113,#134,.T.);
#80=EDGE_CURVE('',#113,#114,#135,.T.);
#81=EDGE_CURVE('',#115,#114,#136,.T.);
#82=EDGE_CURVE('',#116,#115,#137,.T.);
#83=EDGE_CURVE('',#112,#116,#138,.T.);
#84=EDGE_CURVE('',#116,#117,#139,.T.);
#85=EDGE_CURVE('',#118,#117,#140,.T.);
#86=EDGE_CURVE('',#112,#118,#141,.T.);
#87=EDGE_CURVE('',#119,#120,#142,.T.);
#88=EDGE_CURVE('',#120,#121,#143,.T.);
#89=EDGE_CURVE('',#121,#122,#144,.T.);
#90=EDGE_CURVE('',#122,#119,#145,.T.);
#91=EDGE_CURVE('',#115,#123,#146,.T.);
#92=EDGE_CURVE('',#117,#123,#147,.T.);
#93=EDGE_CURVE('',#124,#125,#148,.T.);
#94=EDGE_CURVE('',#123,#125,#149,.T.);
#95=EDGE_CURVE('',#114,#126,#150,.T.);
#96=EDGE_CURVE('',#126,#124,#151,.T.);
#97=EDGE_CURVE('',#127,#126,#152,.T.);
#98=EDGE_CURVE('',#113,#127,#153,.T.);
#99=EDGE_CURVE('',#128,#127,#154,.T.);
#100=EDGE_CURVE('',#111,#128,#155,.T.);
#101=EDGE_CURVE('',#121,#129,#156,.T.);
#102=EDGE_CURVE('',#130,#129,#157,.T.);
#103=EDGE_CURVE('',#130,#122,#158,.T.);
#104=EDGE_CURVE('',#119,#131,#159,.T.);
#105=EDGE_CURVE('',#132,#131,#160,.T.);
#106=EDGE_CURVE('',#132,#120,#161,.T.);
#107=EDGE_CURVE('',#129,#132,#162,.T.);
#108=EDGE_CURVE('',#131,#130,#163,.T.);
#109=EDGE_CURVE('',#125,#118,#164,.T.);
#110=EDGE_CURVE('',#128,#124,#165,.T.);
#111=VERTEX_POINT('',#345);
#112=VERTEX_POINT('',#346);
#113=VERTEX_POINT('',#348);
#114=VERTEX_POINT('',#350);
#115=VERTEX_POINT('',#352);
#116=VERTEX_POINT('',#354);
#117=VERTEX_POINT('',#358);
#118=VERTEX_POINT('',#360);
#119=VERTEX_POINT('',#364);
#120=VERTEX_POINT('',#365);
#121=VERTEX_POINT('',#367);
#122=VERTEX_POINT('',#369);
#123=VERTEX_POINT('',#372);
#124=VERTEX_POINT('',#376);
#125=VERTEX_POINT('',#377);
#126=VERTEX_POINT('',#380);
#127=VERTEX_POINT('',#384);
#128=VERTEX_POINT('',#388);
#129=VERTEX_POINT('',#392);
#130=VERTEX_POINT('',#394);
#131=VERTEX_POINT('',#398);
#132=VERTEX_POINT('',#400);
#133=LINE('',#344,#166);
#134=LINE('',#347,#167);
#135=LINE('',#349,#168);
#136=LINE('',#351,#169);
#137=LINE('',#353,#170);
#138=LINE('',#355,#171);
#139=LINE('',#357,#172);
#140=LINE('',#359,#173);
#141=LINE('',#361,#174);
#142=LINE('',#363,#175);
#143=LINE('',#366,#176);
#144=LINE('',#368,#177);
#145=LINE('',#370,#178);
#146=LINE('',#371,#179);
#147=LINE('',#373,#180);
#148=LINE('',#375,#181);
#149=LINE('',#378,#182);
#150=LINE('',#379,#183);
#151=LINE('',#381,#184);
#152=LINE('',#383,#185);
#153=LINE('',#385,#186);
#154=LINE('',#387,#187);
#155=LINE('',#389,#188);
#156=LINE('',#391,#189);
#157=LINE('',#393,#190);
#158=LINE('',#395,#191);
#159=LINE('',#397,#192);
#160=LINE('',#399,#193);
#161=LINE('',#401,#194);
#162=LINE('',#403,#195);
#163=LINE('',#405,#196);
#164=LINE('',#406,#197);
#165=LINE('',#407,#198);
#166=VECTOR('',#285,1.);
#167=VECTOR('',#286,1.);
#168=VECTOR('',#287,1.);
#169=VECTOR('',#288,1.);
#170=VECTOR('',#289,1.);
#171=VECTOR('',#290,1.);
#172=VECTOR('',#293,1.);
#173=VECTOR('',#294,1.);
#174=VECTOR('',#295,1.);
#175=VECTOR('',#298,1.);
#176=VECTOR('',#299,1.);
#177=VECTOR('',#300,1.);
#178=VECTOR('',#301,1.);
#179=VECTOR('',#302,1.);
#180=VECTOR('',#303,1.);
#181=VECTOR('',#306,1.);
#182=VECTOR('',#307,1.);
#183=VECTOR('',#308,1.);
#184=VECTOR('',#309,1.);
#185=VECTOR('',#312,1.);
#186=VECTOR('',#313,1.);
#187=VECTOR('',#316,1.);
#188=VECTOR('',#317,1.);
#189=VECTOR('',#320,1.);
#190=VECTOR('',#321,1.);
#191=VECTOR('',#322,1.);
#192=VECTOR('',#325,1.);
#193=VECTOR('',#326,1.);
#194=VECTOR('',#327,1.);
#195=VECTOR('',#330,1.);
#196=VECTOR('',#333,1.);
#197=VECTOR('',#334,1.);
#198=VECTOR('',#335,1.);
#199=EDGE_LOOP('',(#12,#13,#14,#15,#16,#17));
#200=EDGE_LOOP('',(#18,#19,#20,#21));
#201=EDGE_LOOP('',(#22,#23,#24,#25));
#202=EDGE_LOOP('',(#26,#27,#28,#29));
#203=EDGE_LOOP('',(#30,#31,#32,#33,#34,#35));
#204=EDGE_LOOP('',(#36,#37,#38,#39));
#205=EDGE_LOOP('',(#40,#41,#42,#43));
#206=EDGE_LOOP('',(#44,#45,#46,#47));
#207=EDGE_LOOP('',(#48,#49,#50,#51));
#208=EDGE_LOOP('',(#52,#53,#54,#55));
#209=EDGE_LOOP('',(#56,#57,#58,#59));
#210=EDGE_LOOP('',(#60,#61,#62,#63,#64,#65));
#211=EDGE_LOOP('',(#66,#67,#68,#69));
#212=EDGE_LOOP('',(#70,#71,#72,#73));
#213=EDGE_LOOP('',(#74,#75,#76,#77));
#214=FACE_BOUND('',#199,.T.);
#215=FACE_BOUND('',#200,.T.);
#216=FACE_BOUND('',#201,.T.);
#217=FACE_BOUND('',#202,.T.);
#218=FACE_BOUND('',#203,.T.);
#219=FACE_BOUND('',#204,.T.);
#220=FACE_BOUND('',#205,.T.);
#221=FACE_BOUND('',#206,.T.);
#222=FACE_BOUND('',#207,.T.);
#223=FACE_BOUND('',#208,.T.);
#224=FACE_BOUND('',#209,.T.);
#225=FACE_BOUND('',#210,.T.);
#226=FACE_BOUND('',#211,.T.);
#227=FACE_BOUND('',#212,.T.);
#228=FACE_BOUND('',#213,.T.);
#229=PLANE('',#268);
#230=PLANE('',#269);
#231=PLANE('',#270);
#232=PLANE('',#271);
#233=PLANE('',#272);
#234=PLANE('',#273);
#235=PLANE('',#274);
#236=PLANE('',#275);
#237=PLANE('',#276);
#238=PLANE('',#277);
#239=PLANE('',#278);
#240=PLANE('',#279);
#241=PLANE('',#280);
#242=ADVANCED_FACE('',(#214),#229,.F.);
#243=ADVANCED_FACE('',(#215),#230,.T.);
#244=ADVANCED_FACE('',(#216,#217),#231,.T.);
#245=ADVANCED_FACE('',(#218),#232,.T.);
#246=ADVANCED_FACE('',(#219),#233,.T.);
#247=ADVANCED_FACE('',(#220),#234,.T.);
#248=ADVANCED_FACE('',(#221),#235,.F.);
#249=ADVANCED_FACE('',(#222),#236,.F.);
#250=ADVANCED_FACE('',(#223),#237,.F.);
#251=ADVANCED_FACE('',(#224,#225),#238,.T.);
#252=ADVANCED_FACE('',(#226),#239,.F.);
#253=ADVANCED_FACE('',(#227),#240,.T.);
#254=ADVANCED_FACE('',(#228),#241,.F.);
#255=CLOSED_SHELL('',(#242,#243,#244,#245,#246,#247,#248,#249,#250,#251,
#252,#253,#254));
#256=STYLED_ITEM('',(#257),#264);
#257=PRESENTATION_STYLE_ASSIGNMENT((#258));
#258=SURFACE_STYLE_USAGE(.BOTH.,#259);
#259=SURFACE_SIDE_STYLE('',(#260));
#260=SURFACE_STYLE_FILL_AREA(#261);
#261=FILL_AREA_STYLE('',(#262));
#262=FILL_AREA_STYLE_COLOUR('',#263);
#263=COLOUR_RGB('',0.980392156862745,0.713725490196078,0.00392156862745098);
#264=MANIFOLD_SOLID_BREP('Peltier_case v2',#255);
#265=SHAPE_DEFINITION_REPRESENTATION(#417,#266);
#266=SHAPE_REPRESENTATION('Peltier_case v2',(#267),#412);
#267=AXIS2_PLACEMENT_3D('',#342,#281,#282);
#268=AXIS2_PLACEMENT_3D('',#343,#283,#284);
#269=AXIS2_PLACEMENT_3D('',#356,#291,#292);
#270=AXIS2_PLACEMENT_3D('',#362,#296,#297);
#271=AXIS2_PLACEMENT_3D('',#374,#304,#305);
#272=AXIS2_PLACEMENT_3D('',#382,#310,#311);
#273=AXIS2_PLACEMENT_3D('',#386,#314,#315);
#274=AXIS2_PLACEMENT_3D('',#390,#318,#319);
#275=AXIS2_PLACEMENT_3D('',#396,#323,#324);
#276=AXIS2_PLACEMENT_3D('',#402,#328,#329);
#277=AXIS2_PLACEMENT_3D('',#404,#331,#332);
#278=AXIS2_PLACEMENT_3D('',#408,#336,#337);
#279=AXIS2_PLACEMENT_3D('',#409,#338,#339);
#280=AXIS2_PLACEMENT_3D('',#410,#340,#341);
#281=DIRECTION('',(0.,0.,1.));
#282=DIRECTION('',(1.,0.,0.));
#283=DIRECTION('',(0.,0.,1.));
#284=DIRECTION('',(-1.,0.,0.));
#285=DIRECTION('',(1.,0.,0.));
#286=DIRECTION('',(0.,-1.,0.));
#287=DIRECTION('',(-1.,0.,0.));
#288=DIRECTION('',(0.,-1.,0.));
#289=DIRECTION('',(-1.,0.,0.));
#290=DIRECTION('',(0.,1.,0.));
#291=DIRECTION('',(1.,0.,0.));
#292=DIRECTION('',(0.,1.,0.));
#293=DIRECTION('',(0.,0.,1.));
#294=DIRECTION('',(0.,1.,0.));
#295=DIRECTION('',(0.,0.,1.));
#296=DIRECTION('',(0.,1.,0.));
#297=DIRECTION('',(-1.,0.,0.));
#298=DIRECTION('',(1.,0.,0.));
#299=DIRECTION('',(0.,0.,1.));
#300=DIRECTION('',(-1.,0.,0.));
#301=DIRECTION('',(0.,0.,-1.));
#302=DIRECTION('',(0.,0.,1.));
#303=DIRECTION('',(-1.,0.,0.));
#304=DIRECTION('',(-1.,0.,0.));
#305=DIRECTION('',(0.,-1.,0.));
#306=DIRECTION('',(0.,0.,1.));
#307=DIRECTION('',(0.,-1.,0.));
#308=DIRECTION('',(0.,0.,1.));
#309=DIRECTION('',(0.,1.,0.));
#310=DIRECTION('',(0.,-1.,0.));
#311=DIRECTION('',(1.,0.,0.));
#312=DIRECTION('',(-1.,0.,0.));
#313=DIRECTION('',(0.,0.,1.));
#314=DIRECTION('',(1.,0.,0.));
#315=DIRECTION('',(0.,1.,0.));
#316=DIRECTION('',(0.,-1.,0.));
#317=DIRECTION('',(0.,0.,1.));
#318=DIRECTION('',(0.,0.,1.));
#319=DIRECTION('',(-1.,0.,0.));
#320=DIRECTION('',(0.,-1.,0.));
#321=DIRECTION('',(1.,0.,0.));
#322=DIRECTION('',(0.,1.,0.));
#323=DIRECTION('',(0.,0.,-1.));
#324=DIRECTION('',(1.,0.,0.));
#325=DIRECTION('',(0.,-1.,0.));
#326=DIRECTION('',(-1.,0.,0.));
#327=DIRECTION('',(0.,1.,0.));
#328=DIRECTION('',(1.,0.,0.));
#329=DIRECTION('',(0.,0.,-1.));
#330=DIRECTION('',(0.,0.,-1.));
#331=DIRECTION('',(0.,-1.,0.));
#332=DIRECTION('',(1.,0.,0.));
#333=DIRECTION('',(0.,0.,1.));
#334=DIRECTION('',(1.,0.,0.));
#335=DIRECTION('',(-1.,0.,0.));
#336=DIRECTION('',(-1.,0.,0.));
#337=DIRECTION('',(0.,0.,1.));
#338=DIRECTION('',(0.,0.,1.));
#339=DIRECTION('',(1.,0.,0.));
#340=DIRECTION('',(0.,0.,-1.));
#341=DIRECTION('',(-1.,0.,0.));
#342=CARTESIAN_POINT('',(0.,0.,0.));
#343=CARTESIAN_POINT('',(0.0435,0.026,0.002));
#344=CARTESIAN_POINT('',(0.0235,0.0265,0.002));
#345=CARTESIAN_POINT('',(0.0235,0.0265,0.002));
#346=CARTESIAN_POINT('',(0.0665,0.0265,0.002));
#347=CARTESIAN_POINT('',(0.0235,0.0265,0.002));
#348=CARTESIAN_POINT('',(0.0235,0.0235,0.002));
#349=CARTESIAN_POINT('',(0.0235,0.0235,0.002));
#350=CARTESIAN_POINT('',(0.0205,0.0235,0.002));
#351=CARTESIAN_POINT('',(0.0205,0.0285,0.002));
#352=CARTESIAN_POINT('',(0.0205,0.0285,0.002));
#353=CARTESIAN_POINT('',(0.0665,0.0285,0.002));
#354=CARTESIAN_POINT('',(0.0665,0.0285,0.002));
#355=CARTESIAN_POINT('',(0.0665,0.0265,0.002));
#356=CARTESIAN_POINT('',(0.0665,0.0265,0.002));
#357=CARTESIAN_POINT('',(0.0665,0.0285,0.002));
#358=CARTESIAN_POINT('',(0.0665,0.0285,0.044));
#359=CARTESIAN_POINT('',(0.0665,0.0265,0.044));
#360=CARTESIAN_POINT('',(0.0665,0.0265,0.044));
#361=CARTESIAN_POINT('',(0.0665,0.0265,0.002));
#362=CARTESIAN_POINT('',(0.0665,0.0285,0.002));
#363=CARTESIAN_POINT('',(0.0485,0.0285,0.014));
#364=CARTESIAN_POINT('',(0.0275,0.0285,0.0140000002086163));
#365=CARTESIAN_POINT('',(0.0595,0.0285,0.014));
#366=CARTESIAN_POINT('',(0.0595,0.0285,0.008));
#367=CARTESIAN_POINT('',(0.0595,0.0285,0.026));
#368=CARTESIAN_POINT('',(0.0485,0.0285,0.026));
#369=CARTESIAN_POINT('',(0.0275,0.0285,0.026));
#370=CARTESIAN_POINT('',(0.0275,0.0285,0.014));
#371=CARTESIAN_POINT('',(0.0205,0.0285,0.002));
#372=CARTESIAN_POINT('',(0.0205,0.0285,0.044));
#373=CARTESIAN_POINT('',(0.0665,0.0285,0.044));
#374=CARTESIAN_POINT('',(0.0205,0.0285,0.002));
#375=CARTESIAN_POINT('',(0.0205,0.0265,0.0224999997653067));
#376=CARTESIAN_POINT('',(0.0204999995417893,0.0265,0.0419999990612268));
#377=CARTESIAN_POINT('',(0.0204999995417893,0.0265,0.044));
#378=CARTESIAN_POINT('',(0.0205,0.0285,0.044));
#379=CARTESIAN_POINT('',(0.0205,0.0235,0.002));
#380=CARTESIAN_POINT('',(0.0204999995417893,0.0235,0.0419999990612268));
#381=CARTESIAN_POINT('',(0.0205,0.026,0.0419999990612268));
#382=CARTESIAN_POINT('',(0.0205,0.0235,0.002));
#383=CARTESIAN_POINT('',(0.022,0.0235,0.0419999990612268));
#384=CARTESIAN_POINT('',(0.0235,0.0235,0.0419999990612268));
#385=CARTESIAN_POINT('',(0.0235,0.0235,0.002));
#386=CARTESIAN_POINT('',(0.0235,0.0235,0.002));
#387=CARTESIAN_POINT('',(0.0235,0.0235,0.0419999990612268));
#388=CARTESIAN_POINT('',(0.0235,0.0265,0.0419999990612268));
#389=CARTESIAN_POINT('',(0.0235,0.0265,0.002));
#390=CARTESIAN_POINT('',(0.0565,0.0285,0.026));
#391=CARTESIAN_POINT('',(0.0595,0.0285,0.026));
#392=CARTESIAN_POINT('',(0.0595,0.0265,0.026));
#393=CARTESIAN_POINT('',(0.027,0.0265,0.026));
#394=CARTESIAN_POINT('',(0.0275,0.0265,0.026));
#395=CARTESIAN_POINT('',(0.0275,0.0285,0.026));
#396=CARTESIAN_POINT('',(0.0305,0.0285,0.014));
#397=CARTESIAN_POINT('',(0.0275,0.0285,0.0140000002086163));
#398=CARTESIAN_POINT('',(0.0275,0.0265,0.0140000002086163));
#399=CARTESIAN_POINT('',(0.027,0.0265,0.014));
#400=CARTESIAN_POINT('',(0.0595,0.0265,0.014));
#401=CARTESIAN_POINT('',(0.0595,0.0285,0.014));
#402=CARTESIAN_POINT('',(0.0595,0.0285,0.014));
#403=CARTESIAN_POINT('',(0.0595,0.0265,0.008));
#404=CARTESIAN_POINT('',(0.0235,0.0265,0.002));
#405=CARTESIAN_POINT('',(0.0275,0.0265,0.014));
#406=CARTESIAN_POINT('',(0.0327499998854473,0.0265,0.044));
#407=CARTESIAN_POINT('',(0.0204999995417893,0.0265,0.0419999990612268));
#408=CARTESIAN_POINT('',(0.0275,0.0285,0.026));
#409=CARTESIAN_POINT('',(0.0435,0.026,0.044));
#410=CARTESIAN_POINT('',(0.0235,0.0235,0.0419999990612268));
#411=MECHANICAL_DESIGN_GEOMETRIC_PRESENTATION_REPRESENTATION('',(#256),
#412);
#412=(
GEOMETRIC_REPRESENTATION_CONTEXT(3)
GLOBAL_UNCERTAINTY_ASSIGNED_CONTEXT((#413))
GLOBAL_UNIT_ASSIGNED_CONTEXT((#416,#415,#414))
REPRESENTATION_CONTEXT('Peltier_case v2','TOP_LEVEL_ASSEMBLY_PART')
);
#413=UNCERTAINTY_MEASURE_WITH_UNIT(LENGTH_MEASURE(5.E-6),#416,
'DISTANCE_ACCURACY_VALUE','Maximum Tolerance applied to model');
#414=(
NAMED_UNIT(*)
SI_UNIT($,.STERADIAN.)
SOLID_ANGLE_UNIT()
);
#415=(
NAMED_UNIT(*)
PLANE_ANGLE_UNIT()
SI_UNIT($,.RADIAN.)
);
#416=(
LENGTH_UNIT()
NAMED_UNIT(*)
SI_UNIT($,.METRE.)
);
#417=PRODUCT_DEFINITION_SHAPE('','',#418);
#418=PRODUCT_DEFINITION('','',#420,#419);
#419=PRODUCT_DEFINITION_CONTEXT('',#426,'design');
#420=PRODUCT_DEFINITION_FORMATION_WITH_SPECIFIED_SOURCE('','',#422,
 .NOT_KNOWN.);
#421=PRODUCT_RELATED_PRODUCT_CATEGORY('','',(#422));
#422=PRODUCT('Peltier_case v2','Peltier_case v2','Peltier_case v2',(#424));
#423=PRODUCT_CATEGORY('','');
#424=PRODUCT_CONTEXT('',#426,'mechanical');
#425=APPLICATION_PROTOCOL_DEFINITION('international standard',
'ap242_managed_model_based_3d_engineering',2011,#426);
#426=APPLICATION_CONTEXT('managed model based 3d engineering');
ENDSEC;
END-ISO-10303-21;
