0
SECTION
2
HEADER
9
$ANGDIR
70
0
9
$CHAMFERA
40
10
9
$CHAMFERB
40
10
9
$CLAYER
8
Layer_1
9
$EXTMAX
10
238
20
295
9
$EXTMIN
10
3
20
178
9
$LIMMAX
10
420
20
297
9
$LIMMIN
10
0
20
0
9
$LTSCALE
40
10
9
$PLINEGEN
70
0
9
$TEXTSIZE
40
20
9
$GRIDUNIT
10
10
20
10
9
$SNAPUNIT
10
1
20
1
0
ENDSEC
0
SECTION
2
TABLES
0
TABLE
2
STYLE
70
1
0
STYLE
2
STANDARD
70
0
40
0
41
1
50
0
71
0
42
0.20000000000000001110223
3
txt
4

0
ENDTAB
0
TABLE
2
LTYPE
70
14
0
LTYPE
2
CONTINUOUS
70
0
3
Solid line
72
65
73
0
40
0
0
LTYPE
2
DOT
70
0
3
............................................
72
65
73
2
40
0.25
49
0
49
-0.25
0
LTYPE
2
HIDDEN
70
0
3
_ _ _ _ _ _ _ _ _ _ _ _ _ _ _ _ _ _ _ _ _ _ 
72
65
73
2
40
0.375
49
0.25
49
-0.125
0
LTYPE
2
TSLONGDASH
70
0
3
__ __ __ __ __ __ __ __ __ __ __ __ __ __ _ 
72
65
73
2
40
1.28000000000000002664535
49
1
49
-0.280000000000000026645353
0
LTYPE
2
TSDASHDOT
70
0
3
______ . ______ . ______ . ______ . ______ .
72
65
73
4
40
1.28000000000000002664535
49
1
49
-0.140000000000000013322676
49
0
49
-0.140000000000000013322676
0
LTYPE
2
TSCENTER
70
0
3
______ _ ______ _ ______ _ ______ _ ______ _
72
65
73
4
40
2
49
1.5
49
-0.179999999999999993338662
49
0.140000000000000013322676
49
-0.179999999999999993338662
0
LTYPE
2
TSPHANTOM
70
0
3
_____ _ _ _____ _ _ _____ _ _ _____ _ _ ____
72
65
73
6
40
2.5
49
1.62999999999999989341859
49
-0.190000000000000002220446
49
0.149999999999999994448885
49
-0.190000000000000002220446
49
0.149999999999999994448885
49
-0.190000000000000002220446
0
LTYPE
2
DASHED
70
0
3
__ __ __ __ __ __ __ __ __ __ __ __ __ __ __
72
65
73
2
40
0.75
49
0.5
49
-0.25
0
LTYPE
2
CENTER
70
0
3
____ _ ____ _ ____ _ ____ _ ____ _ ____ _ __
72
65
73
4
40
2
49
1.25
49
-0.25
49
0.25
49
-0.25
0
LTYPE
2
PHANTOM
70
0
3
_____ _ _ _____ _ _ _____ _ _ _____ _ _ ____
72
65
73
6
40
2.5
49
1.25
49
-0.25
49
0.25
49
-0.25
49
0.25
49
-0.25
0
LTYPE
2
DASHDOT
70
0
3
__ . __ . __ . __ . __ . __ . __ . __ . __ .
72
65
73
4
40
1
49
0.5
49
-0.25
49
0
49
-0.25
0
LTYPE
2
BORDER
70
0
3
__ __ . __ __ . __ __ . __ __ . __ __ . __ _
72
65
73
6
40
1.75
49
0.5
49
-0.25
49
0.5
49
-0.25
49
0
49
-0.25
0
LTYPE
2
DIVIDE
70
0
3
__ . . __ . . __ . . __ . . __ . . __ . . __
72
65
73
6
40
1.25
49
0.5
49
-0.25
49
0
49
-0.25
49
0
49
-0.25
0
ENDTAB
0
TABLE
2
LAYER
70
4
0
LAYER
2
Layer_1
70
0
62
7
6
CONTINUOUS
0
LAYER
2
Layer_2
70
0
62
7
6
CONTINUOUS
0
LAYER
2
Layer_3
70
0
62
7
6
CONTINUOUS
0
LAYER
2
0
70
0
62
7
6
CONTINUOUS
0
ENDTAB
0
ENDSEC
0
SECTION
2
ENTITIES
0
CIRCLE
8
0
6
CONTINUOUS
62
7
10
61
20
291.5
40
0.25
0
CIRCLE
8
0
6
CONTINUOUS
62
7
10
53.4427509751999991749472
20
290.983070005000172386644
40
0.25
0
CIRCLE
8
0
6
CONTINUOUS
62
7
10
46.0262792007999905763427
20
289.441909447799844201654
40
0.25
0
CIRCLE
8
0
6
CONTINUOUS
62
7
10
38.8887395135000133450376
20
286.905227233599816827336
40
0.25
0
CIRCLE
8
0
6
CONTINUOUS
62
7
10
32.1630907730000217270572
20
283.420276952299900585786
40
0.25
0
CIRCLE
8
0
6
CONTINUOUS
62
7
10
25.9746190898999884666409
20
279.051976634099901275476
40
0.250000000001307398633799
0
CIRCLE
8
0
6
CONTINUOUS
62
7
10
20.4386039826000001085049
20
273.881699448600102186901
40
0.25000000000142108547152
0
CIRCLE
8
0
6
CONTINUOUS
62
7
10
15.6581709378999676118838
20
268.005757877399901190074
40
0.250000000001648459146963
0
CIRCLE
8
0
6
CONTINUOUS
62
7
10
11.7223703787000204101787
20
261.533609594100198592059
40
0.250000000001818989403546
0
CIRCLE
8
0
6
CONTINUOUS
62
7
10
8.70451882240001850732369
20
254.585818475500218482921
40
0.250000000002046363078989
0
CIRCLE
8
0
6
CONTINUOUS
62
7
10
6.66083313360002193803666
20
247.2918087244001981162
40
0.250000000002216893335572
0
CIRCLE
8
0
6
CONTINUOUS
62
7
10
5.62938330989999258235912
20
239.787453941699823189992
40
0.250000000002444267011015
0
CIRCLE
8
0
6
CONTINUOUS
62
7
10
5.62938330989999258235912
20
232.212546058300176810008
40
0.250000000002614797267597
0
CIRCLE
8
0
6
CONTINUOUS
62
7
10
6.66083313360002193803666
20
224.7081912755998018838
40
0.250000000002728484105319
0
CIRCLE
8
0
6
CONTINUOUS
62
7
10
68.5572490248000008250528
20
290.983070005000172386644
40
0.25
0
CIRCLE
8
0
6
CONTINUOUS
62
7
10
75.9737207992000094236573
20
289.441909447799844201654
40
0.25
0
CIRCLE
8
0
6
CONTINUOUS
62
7
10
83.1112604864999866549624
20
286.905227233599816827336
40
0.25
0
CIRCLE
8
0
6
CONTINUOUS
62
7
10
89.8369092269999782729428
20
283.420276952299900585786
40
0.25
0
CIRCLE
8
0
6
CONTINUOUS
62
7
10
96.0253809101000115333591
20
279.051976634099901275476
40
0.25
0
CIRCLE
8
0
6
CONTINUOUS
62
7
10
101.561396017399999891495
20
273.881699448600102186901
40
0.250000000000227373675443
0
CIRCLE
8
0
6
CONTINUOUS
62
7
10
106.341829062100032388116
20
268.005757877399901190074
40
0.250000000000341060513165
0
CIRCLE
8
0
6
CONTINUOUS
62
7
10
110.277629621299979589821
20
261.533609594100198592059
40
0.250000000000568434188608
0
CIRCLE
8
0
6
CONTINUOUS
62
7
10
113.295481177599981492676
20
254.585818475500218482921
40
0.250000000000738964445191
0
CIRCLE
8
0
6
CONTINUOUS
62
7
10
115.339166866399978061963
20
247.2918087244001981162
40
0.250000000000909494701773
0
CIRCLE
8
0
6
CONTINUOUS
62
7
10
116.370616690100007417641
20
239.787453941699823189992
40
0.250000000001080024958355
0
CIRCLE
8
0
6
CONTINUOUS
62
7
10
116.370616690100007417641
20
232.212546058300176810008
40
0.250000000001307398633799
0
CIRCLE
8
0
6
CONTINUOUS
62
7
10
115.339166866399978061963
20
224.7081912755998018838
40
0.250000000001591615728103
0
CIRCLE
8
0
6
CONTINUOUS
62
7
10
113.295481177599981492676
20
217.414181524499781517079
40
0.250000000001818989403546
0
CIRCLE
8
0
6
CONTINUOUS
62
7
10
110.277629621299979589821
20
210.466390405899801407941
40
0.250000000002046363078989
0
CIRCLE
8
0
6
CONTINUOUS
62
7
10
106.341829062100032388116
20
203.994242122600098809926
40
0.250000000002216893335572
0
CIRCLE
8
0
6
CONTINUOUS
62
7
10
101.561396017399999891495
20
198.118300551399897813099
40
0.250000000002444267011015
0
CIRCLE
8
0
6
CONTINUOUS
62
7
10
96.0253809101000115333591
20
192.948023365900098724524
40
0.250000000002614797267597
0
CIRCLE
8
0
6
CONTINUOUS
62
7
10
89.8369092269999782729428
20
188.579723047700099414214
40
0.25000000000284217094304
0
CIRCLE
8
0
6
CONTINUOUS
62
7
10
83.1112604864999866549624
20
185.094772766400183172664
40
0.250000000003012701199623
0
CIRCLE
8
0
6
CONTINUOUS
62
7
10
75.9737207992000094236573
20
182.558090552200155798346
40
0.250000000003126388037344
0
CIRCLE
8
0
6
CONTINUOUS
62
7
10
68.5572490248000008250528
20
181.016929994999827613356
40
0.250000000003240074875066
0
CIRCLE
8
0
6
CONTINUOUS
62
7
10
61
20
180.5
40
0.250000000003410605131648
0
CIRCLE
8
0
6
CONTINUOUS
62
7
10
53.4427509751999991749472
20
181.016929994999827613356
40
0.250000000003467448550509
0
CIRCLE
8
0
6
CONTINUOUS
62
7
10
46.0262792007999905763427
20
182.558090552200155798346
40
0.250000000003467448550509
0
CIRCLE
8
0
6
CONTINUOUS
62
7
10
38.8887395135000133450376
20
185.094772766400183172664
40
0.250000000003467448550509
0
CIRCLE
8
0
6
CONTINUOUS
62
7
10
32.1630907730000217270572
20
188.579723047700099414214
40
0.250000000003410605131648
0
CIRCLE
8
0
6
CONTINUOUS
62
7
10
25.9746190898999884666409
20
192.948023365900098724524
40
0.250000000003410605131648
0
CIRCLE
8
0
6
CONTINUOUS
62
7
10
20.4386039826000001085049
20
198.118300551399897813099
40
0.250000000003353761712788
0
CIRCLE
8
0
6
CONTINUOUS
62
7
10
15.6581709378999676118838
20
203.994242122600098809926
40
0.250000000003240074875066
0
CIRCLE
8
0
6
CONTINUOUS
62
7
10
11.7223703787000204101787
20
210.466390405899801407941
40
0.250000000003069544618484
0
CIRCLE
8
0
6
CONTINUOUS
62
7
10
8.70451882240001850732369
20
217.414181524499781517079
40
0.250000000002955857780762
0
CIRCLE
8
0
6
CONTINUOUS
62
7
10
61
20
236
40
58
0
CIRCLE
8
0
6
CONTINUOUS
62
7
10
61
20
236
40
48
0
CIRCLE
8
0
6
CONTINUOUS
62
7
10
180
20
292.5
40
0.25
0
CIRCLE
8
0
6
CONTINUOUS
62
7
10
172.442750975199999174947
20
291.983070005000172386644
40
0.25
0
CIRCLE
8
0
6
CONTINUOUS
62
7
10
165.026279200799990576343
20
290.441909447799844201654
40
0.25
0
CIRCLE
8
0
6
CONTINUOUS
62
7
10
157.888739513500013345038
20
287.905227233599816827336
40
0.250000000001165290086647
0
CIRCLE
8
0
6
CONTINUOUS
62
7
10
151.163090772999993305348
20
284.420276952299900585786
40
0.250000000001335820343229
0
CIRCLE
8
0
6
CONTINUOUS
62
7
10
144.974619089899988466641
20
280.051976634099901275476
40
0.250000000001620037437533
0
CIRCLE
8
0
6
CONTINUOUS
62
7
10
139.438603982600000108505
20
274.881699448600102186901
40
0.250000000001875832822407
0
CIRCLE
8
0
6
CONTINUOUS
62
7
10
134.658170937899996033593
20
269.005757877399901190074
40
0.25000000000213162820728
0
CIRCLE
8
0
6
CONTINUOUS
62
7
10
130.722370378699991988469
20
262.533609594100198592059
40
0.250000000002444267011015
0
CIRCLE
8
0
6
CONTINUOUS
62
7
10
127.704518822399990085614
20
255.585818475500218482921
40
0.250000000002756905814749
0
CIRCLE
8
0
6
CONTINUOUS
62
7
10
125.660833133599993516327
20
248.2918087244001981162
40
0.250000000003097966327914
0
CIRCLE
8
0
6
CONTINUOUS
62
7
10
124.629383309899992582359
20
240.787453941699823189992
40
0.250000000003353761712788
0
CIRCLE
8
0
6
CONTINUOUS
62
7
10
124.629383309899992582359
20
233.212546058300176810008
40
0.250000000003666400516522
0
CIRCLE
8
0
6
CONTINUOUS
62
7
10
125.660833133599993516327
20
225.7081912755998018838
40
0.250000000003922195901396
0
CIRCLE
8
0
6
CONTINUOUS
62
7
10
187.557249024800000825053
20
291.983070005000172386644
40
0.25
0
CIRCLE
8
0
6
CONTINUOUS
62
7
10
194.973720799200009423657
20
290.441909447799844201654
40
0.25
0
CIRCLE
8
0
6
CONTINUOUS
62
7
10
202.111260486499986654962
20
287.905227233599816827336
40
0.25
0
CIRCLE
8
0
6
CONTINUOUS
62
7
10
208.836909226999978272943
20
284.420276952299900585786
40
0.250000000000056843418861
0
CIRCLE
8
0
6
CONTINUOUS
62
7
10
215.025380910100011533359
20
280.051976634099901275476
40
0.250000000000113686837722
0
CIRCLE
8
0
6
CONTINUOUS
62
7
10
220.561396017399999891495
20
274.881699448600102186901
40
0.250000000000284217094304
0
CIRCLE
8
0
6
CONTINUOUS
62
7
10
225.341829062100032388116
20
269.005757877399901190074
40
0.250000000000454747350886
0
CIRCLE
8
0
6
CONTINUOUS
62
7
10
229.277629621299979589821
20
262.533609594100198592059
40
0.250000000000738964445191
0
CIRCLE
8
0
6
CONTINUOUS
62
7
10
232.295481177599981492676
20
255.585818475500218482921
40
0.250000000001023181539495
0
CIRCLE
8
0
6
CONTINUOUS
62
7
10
234.339166866399978061963
20
248.2918087244001981162
40
0.250000000001307398633799
0
CIRCLE
8
0
6
CONTINUOUS
62
7
10
235.370616690100007417641
20
240.787453941699823189992
40
0.250000000001591615728103
0
CIRCLE
8
0
6
CONTINUOUS
62
7
10
235.370616690100007417641
20
233.212546058300176810008
40
0.250000000001932676241267
0
CIRCLE
8
0
6
CONTINUOUS
62
7
10
234.339166866399978061963
20
225.7081912755998018838
40
0.250000000002273736754432
0
CIRCLE
8
0
6
CONTINUOUS
62
7
10
232.295481177599981492676
20
218.414181524499781517079
40
0.250000000002614797267597
0
CIRCLE
8
0
6
CONTINUOUS
62
7
10
229.277629621299979589821
20
211.466390405899801407941
40
0.250000000002955857780762
0
CIRCLE
8
0
6
CONTINUOUS
62
7
10
225.341829062100032388116
20
204.994242122600098809926
40
0.250000000003183231456205
0
CIRCLE
8
0
6
CONTINUOUS
62
7
10
220.561396017399999891495
20
199.118300551399897813099
40
0.250000000003581135388231
0
CIRCLE
8
0
6
CONTINUOUS
62
7
10
215.025380910100011533359
20
193.948023365900098724524
40
0.250000000003865352482535
0
CIRCLE
8
0
6
CONTINUOUS
62
7
10
208.836909226999978272943
20
189.579723047700099414214
40
0.250000000004149569576839
0
CIRCLE
8
0
6
CONTINUOUS
62
7
10
202.111260486499986654962
20
186.094772766400183172664
40
0.250000000004376943252282
0
CIRCLE
8
0
6
CONTINUOUS
62
7
10
194.973720799200009423657
20
183.558090552200155798346
40
0.250000000004547473508865
0
CIRCLE
8
0
6
CONTINUOUS
62
7
10
187.557249024800000825053
20
182.016929994999827613356
40
0.250000000004718003765447
0
CIRCLE
8
0
6
CONTINUOUS
62
7
10
180
20
181.5
40
0.250000000004888534022029
0
CIRCLE
8
0
6
CONTINUOUS
62
7
10
172.442750975199999174947
20
182.016929994999827613356
40
0.250000000004973799150321
0
CIRCLE
8
0
6
CONTINUOUS
62
7
10
165.026279200799990576343
20
183.558090552200155798346
40
0.250000000005002220859751
0
CIRCLE
8
0
6
CONTINUOUS
62
7
10
157.888739513500013345038
20
186.094772766400183172664
40
0.250000000005002220859751
0
CIRCLE
8
0
6
CONTINUOUS
62
7
10
151.163090772999993305348
20
189.579723047700099414214
40
0.250000000004973799150321
0
CIRCLE
8
0
6
CONTINUOUS
62
7
10
144.974619089899988466641
20
193.948023365900098724524
40
0.250000000004888534022029
0
CIRCLE
8
0
6
CONTINUOUS
62
7
10
139.438603982600000108505
20
199.118300551399897813099
40
0.250000000004746425474877
0
CIRCLE
8
0
6
CONTINUOUS
62
7
10
134.658170937899996033593
20
204.994242122600098809926
40
0.250000000004575895218295
0
CIRCLE
8
0
6
CONTINUOUS
62
7
10
130.722370378699991988469
20
211.466390405899801407941
40
0.250000000004405364961713
0
CIRCLE
8
0
6
CONTINUOUS
62
7
10
127.704518822399990085614
20
218.414181524499781517079
40
0.250000000004177991286269
0
CIRCLE
8
0
6
CONTINUOUS
62
7
10
180
20
237
40
58
0
ENDSEC
0
EOF
