  0
SECTION
  2
HEADER
  9
$ACADVER
  1
AC1021
  9
$ACADMAINTVER
 70
    50
  9
$DWGCODEPAGE
  3
ANSI_1252
  9
$INSBASE
 10
0.0
 20
0.0
 30
0.0
  9
$EXTMIN
 10
1.000000000000000E+20
 20
1.000000000000000E+20
 30
1.000000000000000E+20
  9
$EXTMAX
 10
-1.000000000000000E+20
 20
-1.000000000000000E+20
 30
-1.000000000000000E+20
  9
$LIMMIN
 10
0.0
 20
0.0
  9
$LIMMAX
 10
12.0
 20
9.0
  9
$ORTHOMODE
 70
     0
  9
$REGENMODE
 70
     1
  9
$FILLMODE
 70
     1
  9
$QTEXTMODE
 70
     0
  9
$MIRRTEXT
 70
     0
  9
$LTSCALE
 40
1.0
  9
$ATTMODE
 70
     1
  9
$TEXTSIZE
 40
0.2
  9
$TRACEWID
 40
0.05
  9
$TEXTSTYLE
  7
Standard
  9
$CLAYER
  8
0
  9
$CELTYPE
  6
ByLayer
  9
$CECOLOR
 62
   256
  9
$CELTSCALE
 40
1.0
  9
$DISPSILH
 70
     0
  9
$DIMSCALE
 40
1.0
  9
$DIMASZ
 40
0.18
  9
$DIMEXO
 40
0.0625
  9
$DIMDLI
 40
0.38
  9
$DIMRND
 40
0.0
  9
$DIMDLE
 40
0.0
  9
$DIMEXE
 40
0.18
  9
$DIMTP
 40
0.0
  9
$DIMTM
 40
0.0
  9
$DIMTXT
 40
0.18
  9
$DIMCEN
 40
0.09
  9
$DIMTSZ
 40
0.0
  9
$DIMTOL
 70
     0
  9
$DIMLIM
 70
     0
  9
$DIMTIH
 70
     1
  9
$DIMTOH
 70
     1
  9
$DIMSE1
 70
     0
  9
$DIMSE2
 70
     0
  9
$DIMTAD
 70
     0
  9
$DIMZIN
 70
     0
  9
$DIMBLK
  1

  9
$DIMASO
 70
     1
  9
$DIMSHO
 70
     1
  9
$DIMPOST
  1

  9
$DIMAPOST
  1

  9
$DIMALT
 70
     0
  9
$DIMALTD
 70
     2
  9
$DIMALTF
 40
25.4
  9
$DIMLFAC
 40
1.0
  9
$DIMTOFL
 70
     0
  9
$DIMTVP
 40
0.0
  9
$DIMTIX
 70
     0
  9
$DIMSOXD
 70
     0
  9
$DIMSAH
 70
     0
  9
$DIMBLK1
  1

  9
$DIMBLK2
  1

  9
$DIMSTYLE
  2
Standard
  9
$DIMCLRD
 70
     0
  9
$DIMCLRE
 70
     0
  9
$DIMCLRT
 70
     0
  9
$DIMTFAC
 40
1.0
  9
$DIMGAP
 40
0.09
  9
$DIMJUST
 70
     0
  9
$DIMSD1
 70
     0
  9
$DIMSD2
 70
     0
  9
$DIMTOLJ
 70
     1
  9
$DIMTZIN
 70
     0
  9
$DIMALTZ
 70
     0
  9
$DIMALTTZ
 70
     0
  9
$DIMUPT
 70
     0
  9
$DIMDEC
 70
     4
  9
$DIMTDEC
 70
     4
  9
$DIMALTU
 70
     2
  9
$DIMALTTD
 70
     2
  9
$DIMTXSTY
  7
Standard
  9
$DIMAUNIT
 70
     0
  9
$DIMADEC
 70
     0
  9
$DIMALTRND
 40
0.0
  9
$DIMAZIN
 70
     0
  9
$DIMDSEP
 70
    46
  9
$DIMATFIT
 70
     3
  9
$DIMFRAC
 70
     0
  9
$DIMLDRBLK
  1

  9
$DIMLUNIT
 70
     2
  9
$DIMLWD
 70
    -2
  9
$DIMLWE
 70
    -2
  9
$DIMTMOVE
 70
     0
  9
$DIMFXL
 40
1.0
  9
$DIMFXLON
 70
     0
  9
$DIMJOGANG
 40
0.7853981633974483
  9
$DIMTFILL
 70
     0
  9
$DIMTFILLCLR
 70
     0
  9
$DIMARCSYM
 70
     0
  9
$DIMLTYPE
  6

  9
$DIMLTEX1
  6

  9
$DIMLTEX2
  6

  9
$LUNITS
 70
     2
  9
$LUPREC
 70
     4
  9
$SKETCHINC
 40
0.1
  9
$FILLETRAD
 40
0.0
  9
$AUNITS
 70
     0
  9
$AUPREC
 70
     0
  9
$MENU
  1
.
  9
$ELEVATION
 40
0.0
  9
$PELEVATION
 40
0.0
  9
$THICKNESS
 40
0.0
  9
$LIMCHECK
 70
     0
  9
$CHAMFERA
 40
0.0
  9
$CHAMFERB
 40
0.0
  9
$CHAMFERC
 40
0.0
  9
$CHAMFERD
 40
0.0
  9
$SKPOLY
 70
     0
  9
$TDCREATE
 40
2459801.629212963
  9
$TDUCREATE
 40
2459801.587546297
  9
$TDUPDATE
 40
2459801.629212963
  9
$TDUUPDATE
 40
2459801.587546297
  9
$TDINDWG
 40
0.0000000000
  9
$TDUSRTIMER
 40
0.0000000000
  9
$USRTIMER
 70
     1
  9
$ANGBASE
 50
0.0
  9
$ANGDIR
 70
     0
  9
$PDMODE
 70
     0
  9
$PDSIZE
 40
0.0
  9
$PLINEWID
 40
0.0
  9
$SPLFRAME
 70
     0
  9
$SPLINETYPE
 70
     6
  9
$SPLINESEGS
 70
     8
  9
$HANDSEED
  5
FF
  9
$SURFTAB1
 70
     6
  9
$SURFTAB2
 70
     6
  9
$SURFTYPE
 70
     6
  9
$SURFU
 70
     6
  9
$SURFV
 70
     6
  9
$UCSBASE
  2

  9
$UCSNAME
  2

  9
$UCSORG
 10
0.0
 20
0.0
 30
0.0
  9
$UCSXDIR
 10
1.0
 20
0.0
 30
0.0
  9
$UCSYDIR
 10
0.0
 20
1.0
 30
0.0
  9
$UCSORTHOREF
  2

  9
$UCSORTHOVIEW
 70
     0
  9
$UCSORGTOP
 10
0.0
 20
0.0
 30
0.0
  9
$UCSORGBOTTOM
 10
0.0
 20
0.0
 30
0.0
  9
$UCSORGLEFT
 10
0.0
 20
0.0
 30
0.0
  9
$UCSORGRIGHT
 10
0.0
 20
0.0
 30
0.0
  9
$UCSORGFRONT
 10
0.0
 20
0.0
 30
0.0
  9
$UCSORGBACK
 10
0.0
 20
0.0
 30
0.0
  9
$PUCSBASE
  2

  9
$PUCSNAME
  2

  9
$PUCSORG
 10
0.0
 20
0.0
 30
0.0
  9
$PUCSXDIR
 10
1.0
 20
0.0
 30
0.0
  9
$PUCSYDIR
 10
0.0
 20
1.0
 30
0.0
  9
$PUCSORTHOREF
  2

  9
$PUCSORTHOVIEW
 70
     0
  9
$PUCSORGTOP
 10
0.0
 20
0.0
 30
0.0
  9
$PUCSORGBOTTOM
 10
0.0
 20
0.0
 30
0.0
  9
$PUCSORGLEFT
 10
0.0
 20
0.0
 30
0.0
  9
$PUCSORGRIGHT
 10
0.0
 20
0.0
 30
0.0
  9
$PUCSORGFRONT
 10
0.0
 20
0.0
 30
0.0
  9
$PUCSORGBACK
 10
0.0
 20
0.0
 30
0.0
  9
$USERI1
 70
     0
  9
$USERI2
 70
     0
  9
$USERI3
 70
     0
  9
$USERI4
 70
     0
  9
$USERI5
 70
     0
  9
$USERR1
 40
0.0
  9
$USERR2
 40
0.0
  9
$USERR3
 40
0.0
  9
$USERR4
 40
0.0
  9
$USERR5
 40
0.0
  9
$WORLDVIEW
 70
     1
  9
$SHADEDGE
 70
     3
  9
$SHADEDIF
 70
    70
  9
$TILEMODE
 70
     1
  9
$MAXACTVP
 70
    64
  9
$PINSBASE
 10
0.0
 20
0.0
 30
0.0
  9
$PLIMCHECK
 70
     0
  9
$PEXTMIN
 10
1.000000000000000E+20
 20
1.000000000000000E+20
 30
1.000000000000000E+20
  9
$PEXTMAX
 10
-1.000000000000000E+20
 20
-1.000000000000000E+20
 30
-1.000000000000000E+20
  9
$PLIMMIN
 10
0.0
 20
0.0
  9
$PLIMMAX
 10
12.0
 20
9.0
  9
$UNITMODE
 70
     0
  9
$VISRETAIN
 70
     1
  9
$PLINEGEN
 70
     0
  9
$PSLTSCALE
 70
     1
  9
$TREEDEPTH
 70
  3020
  9
$CMLSTYLE
  2
Standard
  9
$CMLJUST
 70
     0
  9
$CMLSCALE
 40
1.0
  9
$PROXYGRAPHICS
 70
     1
  9
$MEASUREMENT
 70
     0
  9
$CELWEIGHT
370
    -1
  9
$ENDCAPS
280
     0
  9
$JOINSTYLE
280
     0
  9
$LWDISPLAY
290
     1
  9
$INSUNITS
 70
     4
  9
$HYPERLINKBASE
  1

  9
$STYLESHEET
  1

  9
$XEDIT
290
     1
  9
$CEPSNTYPE
380
     0
  9
$PSTYLEMODE
290
     1
  9
$FINGERPRINTGUID
  2
{687BBA3D-B076-6847-8A12-E0041C55666C}
  9
$VERSIONGUID
  2
{1B8D1DC0-DEE7-5D48-A063-2297062B0271}
  9
$EXTNAMES
290
     1
  9
$PSVPSCALE
 40
0.0
  9
$OLESTARTUP
290
     0
  9
$SORTENTS
280
   127
  9
$INDEXCTL
280
     0
  9
$HIDETEXT
280
     1
  9
$XCLIPFRAME
290
     0
  9
$HALOGAP
280
     0
  9
$OBSCOLOR
 70
   257
  9
$OBSLTYPE
280
     0
  9
$INTERSECTIONDISPLAY
280
     0
  9
$INTERSECTIONCOLOR
 70
   257
  9
$DIMASSOC
280
     2
  9
$PROJECTNAME
  1

  9
$CAMERADISPLAY
290
     0
  9
$LENSLENGTH
 40
50.0
  9
$CAMERAHEIGHT
 40
0.0
  9
$STEPSPERSEC
 40
2.0
  9
$STEPSIZE
 40
6.0
  9
$3DDWFPREC
 40
2.0
  9
$PSOLWIDTH
 40
0.25
  9
$PSOLHEIGHT
 40
4.0
  9
$LOFTANG1
 40
1.570796326794896
  9
$LOFTANG2
 40
1.570796326794896
  9
$LOFTMAG1
 40
0.0
  9
$LOFTMAG2
 40
0.0
  9
$LOFTPARAM
 70
     7
  9
$LOFTNORMALS
280
     1
  9
$LATITUDE
 40
37.795
  9
$LONGITUDE
 40
-122.394
  9
$NORTHDIRECTION
 40
0.0
  9
$TIMEZONE
 70
 -8000
  9
$LIGHTGLYPHDISPLAY
280
     1
  9
$TILEMODELIGHTSYNCH
280
     1
  9
$CMATERIAL
347
11
  9
$SOLIDHIST
280
     0
  9
$SHOWHIST
280
     1
  9
$DWFFRAME
280
     2
  9
$DGNFRAME
280
     0
  9
$REALWORLDSCALE
290
     1
  9
$INTERFERECOLOR
 62
     1
  9
$INTERFEREOBJVS
345
33
  9
$INTERFEREVPVS
346
30
  9
$CSHADOW
280
     0
  9
$SHADOWPLANELOCATION
 40
0.0
  0
ENDSEC
  0
SECTION
  2
CLASSES
  0
CLASS
  1
ACDBDICTIONARYWDFLT
  2
AcDbDictionaryWithDefault
  3
ObjectDBX Classes
 90
        0
 91
        1
280
     0
281
     0
  0
CLASS
  1
MATERIAL
  2
AcDbMaterial
  3
ObjectDBX Classes
 90
     1153
 91
        3
280
     0
281
     0
  0
CLASS
  1
VISUALSTYLE
  2
AcDbVisualStyle
  3
ObjectDBX Classes
 90
     4095
 91
       24
280
     0
281
     0
  0
CLASS
  1
SCALE
  2
AcDbScale
  3
ObjectDBX Classes
 90
     1153
 91
       17
280
     0
281
     0
  0
CLASS
  1
TABLESTYLE
  2
AcDbTableStyle
  3
ObjectDBX Classes
 90
     4095
 91
        1
280
     0
281
     0
  0
CLASS
  1
MLEADERSTYLE
  2
AcDbMLeaderStyle
  3
ACDB_MLEADERSTYLE_CLASS
 90
     4095
 91
        1
280
     0
281
     0
  0
CLASS
  1
ACDBSECTIONVIEWSTYLE
  2
AcDbSectionViewStyle
  3
ObjectDBX Classes
 90
     1025
 91
        1
280
     0
281
     0
  0
CLASS
  1
ACDBDETAILVIEWSTYLE
  2
AcDbDetailViewStyle
  3
ObjectDBX Classes
 90
     1025
 91
        1
280
     0
281
     0
  0
CLASS
  1
DICTIONARYVAR
  2
AcDbDictionaryVar
  3
ObjectDBX Classes
 90
        0
 91
        6
280
     0
281
     0
  0
CLASS
  1
CELLSTYLEMAP
  2
AcDbCellStyleMap
  3
ObjectDBX Classes
 90
     1152
 91
        1
280
     0
281
     0
  0
ENDSEC
  0
SECTION
  2
TABLES
  0
TABLE
  2
VPORT
  5
8
330
0
100
AcDbSymbolTable
 70
     1
  0
VPORT
  5
57
330
8
100
AcDbSymbolTableRecord
100
AcDbViewportTableRecord
  2
*Active
 70
     0
 10
0.0
 20
0.0
 11
1.0
 21
1.0
 12
0.0
 22
0.0
 13
0.0
 23
0.0
 14
1.0
 24
1.0
 15
0.0
 25
0.0
 16
0.0
 26
0.0
 36
1.0
 17
299.9999999249995
 27
-199.9999999499937
 37
0.0
 40
407.9999998979871
 41
1.500000000000045
 42
50.0
 43
0.0
 44
0.0
 50
0.0
 51
0.0
 71
     0
 72
   100
 73
     1
 74
     1
 75
     0
 76
     0
 77
     0
 78
     0
281
     0
 65
     1
110
0.0
120
0.0
130
0.0
111
1.0
121
0.0
131
0.0
112
0.0
122
1.0
132
0.0
 79
     0
146
0.0
 60
     3
 61
     5
292
     1
282
     1
141
0.0
142
0.0
 63
   250
421
  3355443
  0
ENDTAB
  0
TABLE
  2
LTYPE
  5
5
330
0
100
AcDbSymbolTable
 70
     1
  0
LTYPE
  5
5B
330
5
100
AcDbSymbolTableRecord
100
AcDbLinetypeTableRecord
  2
ByBlock
 70
     0
  3

 72
    65
 73
     0
 40
0.0
  0
LTYPE
  5
5C
330
5
100
AcDbSymbolTableRecord
100
AcDbLinetypeTableRecord
  2
ByLayer
 70
     0
  3

 72
    65
 73
     0
 40
0.0
  0
LTYPE
  5
5D
330
5
100
AcDbSymbolTableRecord
100
AcDbLinetypeTableRecord
  2
Continuous
 70
     0
  3
Solid line
 72
    65
 73
     0
 40
0.0
  0
ENDTAB
  0
TABLE
  2
LAYER
  5
2
330
0
100
AcDbSymbolTable
 70
     3
  0
LAYER
  5
54
330
2
100
AcDbSymbolTableRecord
100
AcDbLayerTableRecord
  2
0
 70
     0
 62
     7
  6
Continuous
370
    -3
390
F
347
21
  0
LAYER
  5
78
330
2
100
AcDbSymbolTableRecord
100
AcDbLayerTableRecord
  2
Outline
 70
     0
 62
     7
  6
Continuous
370
     0
390
F
347
21
  0
LAYER
  5
87
330
2
100
AcDbSymbolTableRecord
100
AcDbLayerTableRecord
  2
Etch Layer
 70
     0
 62
     7
  6
Continuous
370
     0
390
F
347
21
  0
ENDTAB
  0
TABLE
  2
STYLE
  5
3
330
0
100
AcDbSymbolTable
 70
     2
  0
STYLE
  5
55
330
3
100
AcDbSymbolTableRecord
100
AcDbTextStyleTableRecord
  2
Standard
 70
     0
 40
0.0
 41
1.0
 50
0.0
 71
     0
 42
0.2
  3
txt
  4

  0
STYLE
  5
5A
330
3
100
AcDbSymbolTableRecord
100
AcDbTextStyleTableRecord
  2
Annotative
 70
     0
 40
0.0
 41
1.0
 50
0.0
 71
     0
 42
0.2
  3
txt
  4

1001
AcadAnnotative
1000
AnnotativeData
1002
{
1070
     1
1070
     1
1002
}
  0
ENDTAB
  0
TABLE
  2
VIEW
  5
6
330
0
100
AcDbSymbolTable
 70
     0
  0
ENDTAB
  0
TABLE
  2
UCS
  5
7
330
0
100
AcDbSymbolTable
 70
     0
  0
ENDTAB
  0
TABLE
  2
APPID
  5
9
330
0
100
AcDbSymbolTable
 70
     3
  0
APPID
  5
56
330
9
100
AcDbSymbolTableRecord
100
AcDbRegAppTableRecord
  2
ACAD
 70
     0
  0
APPID
  5
5E
330
9
100
AcDbSymbolTableRecord
100
AcDbRegAppTableRecord
  2
AcadAnnotative
 70
     0
  0
APPID
  5
F8
330
9
100
AcDbSymbolTableRecord
100
AcDbRegAppTableRecord
  2
ACAD_MLEADERVER
 70
     0
  0
ENDTAB
  0
TABLE
  2
DIMSTYLE
  5
A
330
0
100
AcDbSymbolTable
 70
     2
100
AcDbDimStyleTable
 71
     0
  0
DIMSTYLE
105
58
330
A
100
AcDbSymbolTableRecord
100
AcDbDimStyleTableRecord
  2
Standard
 70
     0
340
55
  0
DIMSTYLE
105
59
330
A
100
AcDbSymbolTableRecord
100
AcDbDimStyleTableRecord
  2
Annotative
 70
     0
340
55
1001
AcadAnnotative
1000
AnnotativeData
1002
{
1070
     1
1070
     1
1002
}
  0
ENDTAB
  0
TABLE
  2
BLOCK_RECORD
  5
1
330
0
100
AcDbSymbolTable
 70
     2
  0
BLOCK_RECORD
  5
70
330
1
100
AcDbSymbolTableRecord
100
AcDbBlockTableRecord
  2
*Model_Space
340
73
 70
     0
280
     1
281
     0
  0
BLOCK_RECORD
  5
6C
330
1
100
AcDbSymbolTableRecord
100
AcDbBlockTableRecord
  2
*Paper_Space
340
6F
 70
     0
280
     1
281
     0
  0
BLOCK_RECORD
  5
74
330
1
100
AcDbSymbolTableRecord
100
AcDbBlockTableRecord
  2
*Paper_Space0
340
77
 70
     0
280
     1
281
     0
  0
BLOCK_RECORD
  5
88
330
1
100
AcDbSymbolTableRecord
100
AcDbBlockTableRecord
  2
Block_0
340
0
102
{BLKREFS
331
89
102
}
 70
     0
280
     1
281
     0
  0
ENDTAB
  0
ENDSEC
  0
SECTION
  2
BLOCKS
  0
BLOCK
  5
71
330
70
100
AcDbEntity
  8
0
100
AcDbBlockBegin
  2
*Model_Space
 70
     0
 10
0.0
 20
0.0
 30
0.0
  3
*Model_Space
  1

  0
ENDBLK
  5
72
330
70
100
AcDbEntity
  8
0
100
AcDbBlockEnd
  0
BLOCK
  5
6D
330
6C
100
AcDbEntity
 67
     1
  8
0
100
AcDbBlockBegin
  2
*Paper_Space
 70
     0
 10
0.0
 20
0.0
 30
0.0
  3
*Paper_Space
  1

  0
ENDBLK
  5
6E
330
6C
100
AcDbEntity
 67
     1
  8
0
100
AcDbBlockEnd
  0
BLOCK
  5
75
330
74
100
AcDbEntity
 67
     1
  8
0
100
AcDbBlockBegin
  2
*Paper_Space0
 70
     0
 10
0.0
 20
0.0
 30
0.0
  3
*Paper_Space0
  1

  0
ENDBLK
  5
76
330
74
100
AcDbEntity
 67
     1
  8
0
100
AcDbBlockEnd
  0
BLOCK
  5
8A
330
88
100
AcDbEntity
  8
0
100
AcDbBlockBegin
  2
Block_0
 70
     0
 10
0.0
 20
0.0
 30
0.0
  3
Block_0
  1

  0
SPLINE
  5
8C
330
88
100
AcDbEntity
  8
Etch Layer
 62
   251
370
   140
100
AcDbSpline
210
0.0
220
0.0
230
1.0
 70
     9
 71
     3
 72
    29
 73
    25
 74
     0
 42
0.0000000001
 43
0.0000000001
 40
0.0
 40
0.0
 40
0.0
 40
0.0
 40
1.0
 40
1.0
 40
1.0
 40
2.0
 40
2.0
 40
2.0
 40
3.0
 40
3.0
 40
3.0
 40
4.0
 40
4.0
 40
4.0
 40
5.0
 40
5.0
 40
5.0
 40
6.0
 40
6.0
 40
6.0
 40
7.0
 40
7.0
 40
7.0
 40
8.0
 40
8.0
 40
8.0
 40
8.0
 10
320.4120963487833
 20
-328.8810266383774
 30
0.0
 10
321.811666389666
 20
-330.922934732485
 30
0.0
 10
323.6394617993653
 20
-332.343692110602
 30
0.0
 10
325.8949658135584
 20
-333.14295426318
 30
0.0
 10
327.1799864295565
 20
-333.6287127266002
 30
0.0
 10
328.3365049839549
 20
-333.8712474487618
 30
0.0
 10
329.3645214767535
 20
-333.8712474487618
 30
0.0
 10
332.7631081729525
 20
-333.8712474487618
 30
0.0
 10
335.6395906483612
 20
-332.7722619889671
 30
0.0
 10
337.9955191959493
 20
-330.5729130311836
 30
0.0
 10
340.3516199983116
 20
-328.3742530924972
 30
0.0
 10
341.5294981447186
 20
-325.5761465393772
 30
0.0
 10
341.5294981447186
 20
-322.1775598431783
 30
0.0
 10
341.5294981447186
 20
-320.2069652256154
 30
0.0
 10
341.0730229929229
 20
-318.3800310897874
 30
0.0
 10
340.1586946511376
 20
-316.6946903784031
 30
0.0
 10
340.1586946511376
 20
-316.6946903784031
 30
0.0
 10
319.6839754179757
 20
-316.6946903784031
 30
0.0
 10
319.6839754179757
 20
-316.6946903784031
 30
0.0
 10
318.7703360952875
 20
-318.3510922877113
 30
0.0
 10
318.3131719243948
 20
-320.1928403341259
 30
0.0
 10
318.3131719243948
 20
-322.2202790271954
 30
0.0
 10
318.3131719243948
 20
-324.6190990135748
 30
0.0
 10
319.0133875817718
 20
-326.8394630538184
 30
0.0
 10
320.4120963487833
 20
-328.8810266383774
 30
0.0
  0
SPLINE
  5
8D
330
88
100
AcDbEntity
  8
Etch Layer
 62
   251
370
   140
100
AcDbSpline
210
0.0
220
0.0
230
1.0
 70
     9
 71
     3
 72
    26
 73
    22
 74
     0
 42
0.0000000001
 43
0.0000000001
 40
0.0
 40
0.0
 40
0.0
 40
0.0
 40
1.0
 40
1.0
 40
1.0
 40
2.0
 40
2.0
 40
2.0
 40
3.0
 40
3.0
 40
3.0
 40
4.0
 40
4.0
 40
4.0
 40
5.0
 40
5.0
 40
5.0
 40
6.0
 40
6.0
 40
6.0
 40
7.0
 40
7.0
 40
7.0
 40
7.0
 10
450.456527197346
 20
-209.0550935086117
 30
0.0
 10
452.7268451221256
 20
-211.3112865419018
 30
0.0
 10
455.4756868098064
 20
-212.4388662942241
 30
0.0
 10
458.7023632412914
 20
-212.4388662942241
 30
0.0
 10
461.929384182325
 20
-212.4388662942241
 30
0.0
 10
464.6775368509088
 20
-211.2971616504123
 30
0.0
 10
466.9478547756884
 20
-209.012029815046
 30
0.0
 10
469.2181727004681
 20
-206.7279315083254
 30
0.0
 10
470.3529871533093
 20
-203.9725441392226
 30
0.0
 10
470.3529871533093
 20
-200.7451786886405
 30
0.0
 10
470.3529871533093
 20
-198.8603669486603
 30
0.0
 10
469.8537928174966
 20
-196.9903691192667
 30
0.0
 10
468.8540261076771
 20
-195.1338071622656
 30
0.0
 10
468.8540261076771
 20
-195.1338071622656
 30
0.0
 10
448.5507003749058
 20
-195.1338071622653
 30
0.0
 10
448.5507003749058
 20
-195.1338071622653
 30
0.0
 10
447.5512781746347
 20
-196.9049307512322
 30
0.0
 10
447.051394819725
 20
-198.8035228731531
 30
0.0
 10
447.051394819725
 20
-200.8309615662233
 30
0.0
 10
447.051394819725
 20
-204.0579825072568
 30
0.0
 10
448.1865537821148
 20
-206.7995894944186
 30
0.0
 10
450.456527197346
 20
-209.0550935086117
 30
0.0
  0
SPLINE
  5
8E
330
88
100
AcDbEntity
  8
Etch Layer
 62
   251
370
   140
100
AcDbSpline
210
0.0
220
0.0
230
1.0
 70
     9
 71
     3
 72
    23
 73
    19
 74
     0
 42
0.0000000001
 43
0.0000000001
 40
0.0
 40
0.0
 40
0.0
 40
0.0
 40
1.0
 40
1.0
 40
1.0
 40
2.0
 40
2.0
 40
2.0
 40
3.0
 40
3.0
 40
3.0
 40
4.0
 40
4.0
 40
4.0
 40
5.0
 40
5.0
 40
5.0
 40
6.0
 40
6.0
 40
6.0
 40
6.0
 10
331.9448979952056
 20
-234.8698829986858
 30
0.0
 10
337.8406190901937
 20
-234.8698829986858
 30
0.0
 10
343.3893329424307
 20
-233.3577444628225
 30
0.0
 10
348.2255795164712
 20
-230.702652436034
 30
0.0
 10
348.2255795164712
 20
-230.702652436034
 30
0.0
 10
343.340218799919
 20
-222.2526514208939
 30
0.0
 10
343.340218799919
 20
-222.2526514208939
 30
0.0
 10
339.9425579731318
 20
-224.0756667606074
 30
0.0
 10
336.0630359471919
 20
-225.1128558201354
 30
0.0
 10
331.9448979952056
 20
-225.1128558201354
 30
0.0
 10
327.8244130719193
 20
-225.1128558201354
 30
0.0
 10
323.942759393148
 20
-224.0746332319618
 30
0.0
 10
320.5436989963198
 20
-222.2497015578846
 30
0.0
 10
320.5436989963198
 20
-222.2497015578846
 30
0.0
 10
315.6561635632426
 20
-230.69819534375
 30
0.0
 10
315.6561635632426
 20
-230.69819534375
 30
0.0
 10
320.4943480034936
 20
-233.3560003832331
 30
0.0
 10
326.0459255913527
 20
-234.8698829986858
 30
0.0
 10
331.9448979952056
 20
-234.8698829986858
 30
0.0
  0
LWPOLYLINE
  5
8F
330
88
100
AcDbEntity
  8
Etch Layer
 62
   251
370
   140
100
AcDbPolyline
 90
        4
 70
     1
 43
0.0
 10
443.6769237919228
 20
-145.3075634138711
 10
406.2952908056634
 20
-107.926038086845
 10
258.3421770324319
 20
-107.926038086845
 10
220.9605655780186
 20
-145.3075634138711
  0
SPLINE
  5
90
330
88
100
AcDbEntity
  8
Etch Layer
 62
   251
370
   140
100
AcDbSpline
210
0.0
220
0.0
230
1.0
 70
     9
 71
     3
 72
    17
 73
    13
 74
     0
 42
0.0000000001
 43
0.0000000001
 40
0.0
 40
0.0
 40
0.0
 40
0.0
 40
1.0
 40
1.0
 40
1.0
 40
2.0
 40
2.0
 40
2.0
 40
3.0
 40
3.0
 40
3.0
 40
4.0
 40
4.0
 40
4.0
 40
4.0
 10
348.2973882254918
 20
-71.22526362770424
 30
0.0
 10
348.2973882254918
 20
-71.22526362770424
 30
0.0
 10
327.3512076751735
 20
-71.22526362770424
 30
0.0
 10
327.3512076751735
 20
-71.22526362770424
 30
0.0
 10
328.5506176683632
 20
-69.54095644496558
 30
0.0
 10
330.0645648793562
 20
-68.21287213540177
 30
0.0
 10
331.8916712699585
 20
-67.24169971810984
 30
0.0
 10
333.7194666796571
 20
-66.27121631991497
 30
0.0
 10
335.6469976036544
 20
-65.78545785649473
 30
0.0
 10
337.674436296724
 20
-65.78545785649473
 30
0.0
 10
342.2147276367347
 20
-65.78545785649473
 30
0.0
 10
345.755941286023
 20
-67.59930062947877
 30
0.0
 10
348.2973882254918
 20
-71.22526362770424
 30
0.0
  0
SPLINE
  5
91
330
88
100
AcDbEntity
  8
Etch Layer
 62
   251
370
   140
100
AcDbSpline
210
0.0
220
0.0
230
1.0
 70
     9
 71
     3
 72
    65
 73
    61
 74
     0
 42
0.0000000001
 43
0.0000000001
 40
0.0
 40
0.0
 40
0.0
 40
0.0
 40
1.0
 40
1.0
 40
1.0
 40
2.0
 40
2.0
 40
2.0
 40
3.0
 40
3.0
 40
3.0
 40
4.0
 40
4.0
 40
4.0
 40
5.0
 40
5.0
 40
5.0
 40
6.0
 40
6.0
 40
6.0
 40
7.0
 40
7.0
 40
7.0
 40
8.0
 40
8.0
 40
8.0
 40
9.0
 40
9.0
 40
9.0
 40
10.0
 40
10.0
 40
10.0
 40
11.0
 40
11.0
 40
11.0
 40
12.0
 40
12.0
 40
12.0
 40
13.0
 40
13.0
 40
13.0
 40
14.0
 40
14.0
 40
14.0
 40
15.0
 40
15.0
 40
15.0
 40
16.0
 40
16.0
 40
16.0
 40
17.0
 40
17.0
 40
17.0
 40
18.0
 40
18.0
 40
18.0
 40
19.0
 40
19.0
 40
19.0
 40
20.0
 40
20.0
 40
20.0
 40
20.0
 10
326.8371994287742
 20
-72.03933969086877
 30
0.0
 10
326.8371994287742
 20
-72.03933969086877
 30
0.0
 10
348.8541156559082
 20
-72.03933969086877
 30
0.0
 10
348.8541156559082
 20
-72.03933969086877
 30
0.0
 10
350.0533533943237
 20
-74.09537267646587
 30
0.0
 10
350.6531445183057
 20
-76.27990772366278
 30
0.0
 10
350.6531445183057
 20
-78.59294483245953
 30
0.0
 10
350.6531445183057
 20
-82.13415848174784
 30
0.0
 10
349.4042974049026
 20
-85.16136388463687
 30
0.0
 10
346.9052251399024
 20
-87.67387202202959
 30
0.0
 10
344.4068418939992
 20
-90.18706917851934
 30
0.0
 10
341.3727463001397
 20
-91.44315099244144
 30
0.0
 10
337.8029383583238
 20
-91.44315099244144
 30
0.0
 10
334.5760896720646
 20
-91.44315099244144
 30
0.0
 10
331.706325132852
 20
-90.32935162206015
 30
0.0
 10
329.1931279763623
 20
-88.10209739084614
 30
0.0
 10
329.1931279763623
 20
-88.10209739084614
 30
0.0
 10
329.9641403459612
 20
-87.1598637756303
 30
0.0
 10
329.9641403459612
 20
-87.1598637756303
 30
0.0
 10
332.2203333792513
 20
-89.24449105375499
 30
0.0
 10
334.8330937952642
 20
-90.28663243804306
 30
0.0
 10
337.8029383583238
 20
-90.28663243804306
 30
0.0
 10
341.0303038089058
 20
-90.28663243804306
 30
0.0
 10
343.7781119679411
 20
-89.14492779423126
 30
0.0
 10
346.0484298927208
 20
-86.85979595886504
 30
0.0
 10
348.3187478175004
 20
-84.5756976521444
 30
0.0
 10
349.4539067798902
 20
-81.82031028304157
 30
0.0
 10
349.4539067798902
 20
-78.59294483245953
 30
0.0
 10
349.4539067798902
 20
-76.79391597006207
 30
0.0
 10
349.0253369015251
 20
-75.00970101825117
 30
0.0
 10
348.168886163892
 20
-73.23857742928423
 30
0.0
 10
348.168886163892
 20
-73.23857742928423
 30
0.0
 10
327.5226011755647
 20
-73.23857742928423
 30
0.0
 10
327.5226011755647
 20
-73.23857742928423
 30
0.0
 10
326.6377284001782
 20
-74.92391814066846
 30
0.0
 10
326.1946891207751
 20
-76.69400820098982
 30
0.0
 10
326.1946891207751
 20
-78.55022564844244
 30
0.0
 10
326.1946891207751
 20
-79.23545514045862
 30
0.0
 10
326.2375805595665
 20
-79.73533849536838
 30
0.0
 10
326.3231911823749
 20
-80.04918669407464
 30
0.0
 10
326.3231911823749
 20
-80.04918669407464
 30
0.0
 10
325.2524555055593
 20
-80.56319494047391
 30
0.0
 10
325.2524555055593
 20
-80.56319494047391
 30
0.0
 10
325.2524555055593
 20
-80.56319494047391
 30
0.0
 10
318.9129630483768
 20
-74.52359804528242
 30
0.0
 10
318.9129630483768
 20
-74.52359804528242
 30
0.0
 10
318.9129630483768
 20
-74.52359804528242
 30
0.0
 10
318.9129630483768
 20
-84.97532872843338
 30
0.0
 10
318.9129630483768
 20
-84.97532872843338
 30
0.0
 10
318.9129630483768
 20
-84.97532872843338
 30
0.0
 10
317.7135530551871
 20
-84.97532872843338
 30
0.0
 10
317.7135530551871
 20
-84.97532872843338
 30
0.0
 10
317.7135530551871
 20
-84.97532872843338
 30
0.0
 10
317.7135530551871
 20
-71.6965526900864
 30
0.0
 10
317.7135530551871
 20
-71.6965526900864
 30
0.0
 10
317.7135530551871
 20
-71.6965526900864
 30
0.0
 10
324.9954513823596
 20
-78.63566401647663
 30
0.0
 10
324.9954513823596
 20
-78.63566401647663
 30
0.0
 10
324.9954513823596
 20
-76.17999995459054
 30
0.0
 10
325.6097119073797
 20
-73.98168452545262
 30
0.0
 10
326.8371994287742
 20
-72.03933969086877
 30
0.0
  0
SPLINE
  5
92
330
88
100
AcDbEntity
  8
Etch Layer
 62
   251
370
   140
100
AcDbSpline
210
0.0
220
0.0
230
1.0
 70
    11
 71
     3
 72
    14
 73
    10
 74
     0
 42
0.0000000001
 43
0.0000000001
 40
0.0
 40
0.0
 40
0.0
 40
0.0
 40
1.0
 40
1.0
 40
1.0
 40
2.0
 40
2.0
 40
2.0
 40
3.0
 40
3.0
 40
3.0
 40
3.0
 10
260.4588436985694
 20
-105.8093714207075
 30
0.0
 10
260.4588436985694
 20
-105.8093714207075
 30
0.0
 10
404.1786026076817
 20
-105.8093714207075
 30
0.0
 10
404.1786026076817
 20
-105.8093714207075
 30
0.0
 10
404.1786026076817
 20
-105.8093714207075
 30
0.0
 10
332.3186908553552
 20
-33.94967498684952
 30
0.0
 10
332.3186908553552
 20
-33.94967498684952
 30
0.0
 10
332.3186908553552
 20
-33.94967498684952
 30
0.0
 10
260.4588436985694
 20
-105.8093714207075
 30
0.0
 10
260.4588436985694
 20
-105.8093714207075
 30
0.0
  0
SPLINE
  5
93
330
88
100
AcDbEntity
  8
Etch Layer
 62
   251
370
   140
100
AcDbSpline
210
0.0
220
0.0
230
1.0
 70
     9
 71
     3
 72
    14
 73
    10
 74
     0
 42
0.0000000001
 43
0.0000000001
 40
0.0
 40
0.0
 40
0.0
 40
0.0
 40
1.0
 40
1.0
 40
1.0
 40
2.0
 40
2.0
 40
2.0
 40
3.0
 40
3.0
 40
3.0
 40
3.0
 10
165.8413847853205
 20
-145.4922635955741
 30
0.0
 10
165.8617754442239
 20
-145.4308332367027
 30
0.0
 10
165.8811541063284
 20
-145.3689507090489
 30
0.0
 10
165.9016308926188
 20
-145.3075634138711
 30
0.0
 10
165.8954943162858
 20
-145.3259946747172
 30
0.0
 10
165.8896807176544
 20
-145.3445766584908
 30
0.0
 10
165.8835441413213
 20
-145.3630079193369
 30
0.0
 10
165.8692469950575
 20
-145.4059854855154
 30
0.0
 10
165.8554450812697
 20
-145.4491783701617
 30
0.0
 10
165.8413847853205
 20
-145.4922635955741
 30
0.0
  0
SPLINE
  5
94
330
88
100
AcDbEntity
  8
Etch Layer
 62
   251
370
   140
100
AcDbSpline
210
0.0
220
0.0
230
1.0
 70
     9
 71
     3
 72
    17
 73
    13
 74
     0
 42
0.0000000001
 43
0.0000000001
 40
0.0
 40
0.0
 40
0.0
 40
0.0
 40
1.0
 40
1.0
 40
1.0
 40
2.0
 40
2.0
 40
2.0
 40
3.0
 40
3.0
 40
3.0
 40
4.0
 40
4.0
 40
4.0
 40
4.0
 10
406.919262193583
 20
-79.45286219742468
 30
0.0
 10
406.919262193583
 20
-82.15551807375637
 30
0.0
 10
404.7283321878936
 20
-84.34642654760102
 30
0.0
 10
402.0256978434081
 20
-84.34642654760102
 30
0.0
 10
399.3230419670738
 20
-84.34642654760102
 30
0.0
 10
397.132111961385
 20
-82.15551807375637
 30
0.0
 10
397.132111961385
 20
-79.45286219742468
 30
0.0
 10
397.132111961385
 20
-76.75022785293974
 30
0.0
 10
399.3230419670738
 20
-74.55929784724833
 30
0.0
 10
402.0256978434081
 20
-74.55929784724833
 30
0.0
 10
404.7283321878936
 20
-74.55929784724833
 30
0.0
 10
406.919262193583
 20
-76.75022785293974
 30
0.0
 10
406.919262193583
 20
-79.45286219742468
 30
0.0
  0
SPLINE
  5
95
330
88
100
AcDbEntity
  8
Etch Layer
 62
   251
370
   140
100
AcDbSpline
210
0.0
220
0.0
230
1.0
 70
     9
 71
     3
 72
    17
 73
    13
 74
     0
 42
0.0000000001
 43
0.0000000001
 40
0.0
 40
0.0
 40
0.0
 40
0.0
 40
1.0
 40
1.0
 40
1.0
 40
2.0
 40
2.0
 40
2.0
 40
3.0
 40
3.0
 40
3.0
 40
4.0
 40
4.0
 40
4.0
 40
4.0
 10
266.9786007770176
 20
-78.952871183281
 30
0.0
 10
266.9786007770176
 20
-81.65550552776593
 30
0.0
 10
264.7876707713262
 20
-83.84643553345735
 30
0.0
 10
262.0850364268413
 20
-83.84643553345735
 30
0.0
 10
259.3823805505095
 20
-83.84643553345735
 30
0.0
 10
257.1914720766649
 20
-81.65550552776593
 30
0.0
 10
257.1914720766649
 20
-78.952871183281
 30
0.0
 10
257.1914720766649
 20
-76.2502153069493
 30
0.0
 10
259.3823805505095
 20
-74.05930683310465
 30
0.0
 10
262.0850364268413
 20
-74.05930683310465
 30
0.0
 10
264.7876707713262
 20
-74.05930683310465
 30
0.0
 10
266.9786007770176
 20
-76.2502153069493
 30
0.0
 10
266.9786007770176
 20
-78.952871183281
 30
0.0
  0
SPLINE
  5
96
330
88
100
AcDbEntity
  8
Etch Layer
 62
   251
370
   140
100
AcDbSpline
210
0.0
220
0.0
230
1.0
 70
     9
 71
     3
 72
    26
 73
    22
 74
     0
 42
0.0000000001
 43
0.0000000001
 40
0.0
 40
0.0
 40
0.0
 40
0.0
 40
1.0
 40
1.0
 40
1.0
 40
2.0
 40
2.0
 40
2.0
 40
3.0
 40
3.0
 40
3.0
 40
4.0
 40
4.0
 40
4.0
 40
5.0
 40
5.0
 40
5.0
 40
6.0
 40
6.0
 40
6.0
 40
7.0
 40
7.0
 40
7.0
 40
7.0
 10
184.8864970513384
 20
-105.8093714207075
 30
0.0
 10
184.8864970513384
 20
-105.8093714207075
 30
0.0
 10
257.4653786995891
 20
-105.8093714207075
 30
0.0
 10
257.4653786995891
 20
-105.8093714207075
 30
0.0
 10
257.4653786995891
 20
-105.8093714207075
 30
0.0
 10
331.5702438611847
 20
-31.7045062591122
 30
0.0
 10
331.5702438611847
 20
-31.7045062591122
 30
0.0
 10
331.9836553194146
 20
-31.29109480088222
 30
0.0
 10
332.6537263912958
 20
-31.29109480088222
 30
0.0
 10
333.0671378495251
 20
-31.7045062591122
 30
0.0
 10
333.0671378495251
 20
-31.7045062591122
 30
0.0
 10
407.1720030111184
 20
-105.8093714207075
 30
0.0
 10
407.1720030111184
 20
-105.8093714207075
 30
0.0
 10
407.1720030111184
 20
-105.8093714207075
 30
0.0
 10
479.0031266842976
 20
-105.8093714207078
 30
0.0
 10
479.0031266842976
 20
-105.8093714207078
 30
0.0
 10
447.8485253194746
 20
-57.62798851174591
 30
0.0
 10
393.6537713047018
 20
-25.77032928576935
 30
0.0
 10
331.9448118678185
 20
-25.77032928576935
 30
0.0
 10
270.2358524309342
 20
-25.77032928576935
 30
0.0
 10
216.0410984161626
 20
-57.62798851174591
 30
0.0
 10
184.8864970513384
 20
-105.8093714207075
 30
0.0
  0
SPLINE
  5
97
330
88
100
AcDbEntity
  8
Etch Layer
 62
   251
370
   140
100
AcDbSpline
210
0.0
220
0.0
230
1.0
 70
     9
 71
     3
 72
    17
 73
    13
 74
     0
 42
0.0000000001
 43
0.0000000001
 40
0.0
 40
0.0
 40
0.0
 40
0.0
 40
1.0
 40
1.0
 40
1.0
 40
2.0
 40
2.0
 40
2.0
 40
3.0
 40
3.0
 40
3.0
 40
4.0
 40
4.0
 40
4.0
 40
4.0
 10
345.1583679422597
 20
-221.1686305946132
 30
0.0
 10
345.1583679422597
 20
-221.1686305946132
 30
0.0
 10
350.0480996237087
 20
-229.6262323516677
 30
0.0
 10
350.0480996237087
 20
-229.6262323516677
 30
0.0
 10
354.5135677961492
 20
-226.799251592012
 30
0.0
 10
358.2774207411717
 20
-222.9604247564917
 30
0.0
 10
361.0138170214121
 20
-218.4332678430184
 30
0.0
 10
361.0138170214121
 20
-218.4332678430184
 30
0.0
 10
352.5624594999247
 20
-213.5538714480252
 30
0.0
 10
352.5624594999247
 20
-213.5538714480252
 30
0.0
 10
350.6866911355933
 20
-216.6057092836338
 30
0.0
 10
348.1512946450705
 20
-219.2080698176511
 30
0.0
 10
345.1583679422597
 20
-221.1686305946132
 30
0.0
  0
SPLINE
  5
98
330
88
100
AcDbEntity
  8
Etch Layer
 62
   251
370
   140
100
AcDbSpline
210
0.0
220
0.0
230
1.0
 70
     9
 71
     3
 72
    17
 73
    13
 74
     0
 42
0.0000000001
 43
0.0000000001
 40
0.0
 40
0.0
 40
0.0
 40
0.0
 40
1.0
 40
1.0
 40
1.0
 40
2.0
 40
2.0
 40
2.0
 40
3.0
 40
3.0
 40
3.0
 40
4.0
 40
4.0
 40
4.0
 40
4.0
 10
448.647550621738
 20
-130.2956890279757
 30
0.0
 10
448.647550621738
 20
-127.5930546834907
 30
0.0
 10
450.8384590955826
 20
-125.4021246777993
 30
0.0
 10
453.5411149719131
 20
-125.4021246777993
 30
0.0
 10
456.2437493163987
 20
-125.4021246777993
 30
0.0
 10
458.4346793220875
 20
-127.5930546834907
 30
0.0
 10
458.4346793220875
 20
-130.2956890279757
 30
0.0
 10
458.4346793220875
 20
-132.9983449043074
 30
0.0
 10
456.2437493163987
 20
-135.1892749099988
 30
0.0
 10
453.5411149719131
 20
-135.1892749099988
 30
0.0
 10
450.8384590955826
 20
-135.1892749099988
 30
0.0
 10
448.647550621738
 20
-132.9983449043074
 30
0.0
 10
448.647550621738
 20
-130.2956890279757
 30
0.0
  0
SPLINE
  5
99
330
88
100
AcDbEntity
  8
Etch Layer
 62
   251
370
   140
100
AcDbSpline
210
0.0
220
0.0
230
1.0
 70
    11
 71
     3
 72
   182
 73
   178
 74
     0
 42
0.0000000001
 43
0.0000000001
 40
0.0
 40
0.0
 40
0.0
 40
0.0
 40
1.0
 40
1.0
 40
1.0
 40
2.0
 40
2.0
 40
2.0
 40
3.0
 40
3.0
 40
3.0
 40
4.0
 40
4.0
 40
4.0
 40
5.0
 40
5.0
 40
5.0
 40
6.0
 40
6.0
 40
6.0
 40
7.0
 40
7.0
 40
7.0
 40
8.0
 40
8.0
 40
8.0
 40
9.0
 40
9.0
 40
9.0
 40
10.0
 40
10.0
 40
10.0
 40
11.0
 40
11.0
 40
11.0
 40
12.0
 40
12.0
 40
12.0
 40
13.0
 40
13.0
 40
13.0
 40
14.0
 40
14.0
 40
14.0
 40
15.0
 40
15.0
 40
15.0
 40
16.0
 40
16.0
 40
16.0
 40
17.0
 40
17.0
 40
17.0
 40
18.0
 40
18.0
 40
18.0
 40
19.0
 40
19.0
 40
19.0
 40
20.0
 40
20.0
 40
20.0
 40
21.0
 40
21.0
 40
21.0
 40
22.0
 40
22.0
 40
22.0
 40
23.0
 40
23.0
 40
23.0
 40
24.0
 40
24.0
 40
24.0
 40
25.0
 40
25.0
 40
25.0
 40
26.0
 40
26.0
 40
26.0
 40
27.0
 40
27.0
 40
27.0
 40
28.0
 40
28.0
 40
28.0
 40
29.0
 40
29.0
 40
29.0
 40
30.0
 40
30.0
 40
30.0
 40
31.0
 40
31.0
 40
31.0
 40
32.0
 40
32.0
 40
32.0
 40
33.0
 40
33.0
 40
33.0
 40
34.0
 40
34.0
 40
34.0
 40
35.0
 40
35.0
 40
35.0
 40
36.0
 40
36.0
 40
36.0
 40
37.0
 40
37.0
 40
37.0
 40
38.0
 40
38.0
 40
38.0
 40
39.0
 40
39.0
 40
39.0
 40
40.0
 40
40.0
 40
40.0
 40
41.0
 40
41.0
 40
41.0
 40
42.0
 40
42.0
 40
42.0
 40
43.0
 40
43.0
 40
43.0
 40
44.0
 40
44.0
 40
44.0
 40
45.0
 40
45.0
 40
45.0
 40
46.0
 40
46.0
 40
46.0
 40
47.0
 40
47.0
 40
47.0
 40
48.0
 40
48.0
 40
48.0
 40
49.0
 40
49.0
 40
49.0
 40
50.0
 40
50.0
 40
50.0
 40
51.0
 40
51.0
 40
51.0
 40
52.0
 40
52.0
 40
52.0
 40
53.0
 40
53.0
 40
53.0
 40
54.0
 40
54.0
 40
54.0
 40
55.0
 40
55.0
 40
55.0
 40
56.0
 40
56.0
 40
56.0
 40
57.0
 40
57.0
 40
57.0
 40
58.0
 40
58.0
 40
58.0
 40
59.0
 40
59.0
 40
59.0
 40
59.0
 10
537.4258956651869
 20
-143.2217303523269
 30
0.0
 10
537.4258956651869
 20
-143.2217303523269
 30
0.0
 10
537.4258956651869
 20
-173.9955410067971
 30
0.0
 10
537.4258956651869
 20
-173.9955410067971
 30
0.0
 10
537.4258956651869
 20
-173.9955410067971
 30
0.0
 10
523.471880911731
 20
-176.9450810383405
 30
0.0
 10
523.471880911731
 20
-176.9450810383405
 30
0.0
 10
523.471880911731
 20
-176.9450810383405
 30
0.0
 10
535.4125818636069
 20
-176.9450810383405
 30
0.0
 10
535.4125818636069
 20
-176.9450810383405
 30
0.0
 10
535.4125818636069
 20
-176.9450810383405
 30
0.0
 10
538.9074589786186
 20
-176.2063449070691
 30
0.0
 10
538.9074589786186
 20
-176.2063449070691
 30
0.0
 10
538.9074589786186
 20
-176.2063449070691
 30
0.0
 10
561.9735790357862
 20
-171.6682282835834
 30
0.0
 10
561.9735790357862
 20
-171.6682282835834
 30
0.0
 10
561.9735790357862
 20
-171.6682282835834
 30
0.0
 10
561.9735790357862
 20
-230.12288592956
 30
0.0
 10
561.9735790357862
 20
-230.12288592956
 30
0.0
 10
561.9735790357862
 20
-230.12288592956
 30
0.0
 10
538.9061670678136
 20
-225.6156675062076
 30
0.0
 10
538.9061670678136
 20
-225.6156675062076
 30
0.0
 10
538.9061670678136
 20
-225.6156675062076
 30
0.0
 10
530.997735062956
 20
-223.9450976417165
 30
0.0
 10
530.997735062956
 20
-223.9450976417165
 30
0.0
 10
530.997735062956
 20
-223.9450976417165
 30
0.0
 10
520.9498987617538
 20
-223.9450976417165
 30
0.0
 10
520.9498987617538
 20
-223.9450976417165
 30
0.0
 10
520.9498987617538
 20
-223.9450976417165
 30
0.0
 10
520.9498987617538
 20
-221.8225958451008
 30
0.0
 10
520.9498987617538
 20
-221.8225958451008
 30
0.0
 10
520.9498987617538
 20
-221.8225958451008
 30
0.0
 10
506.0424107690628
 20
-218.6735201894211
 30
0.0
 10
506.0424107690628
 20
-218.6735201894211
 30
0.0
 10
506.0517555905652
 20
-218.5811700985696
 30
0.0
 10
506.059593182796
 20
-218.4883463070889
 30
0.0
 10
506.0688088132172
 20
-218.3959531525438
 30
0.0
 10
506.0894793861287
 20
-218.1883861495575
 30
0.0
 10
506.1080398380567
 20
-217.9801731911677
 30
0.0
 10
506.1280644555635
 20
-217.7723908697136
 30
0.0
 10
506.1925738685267
 20
-217.1017384379694
 30
0.0
 10
506.2536381860008
 20
-216.4300955412731
 30
0.0
 10
506.3105683888966
 20
-215.757246861157
 30
0.0
 10
506.3334782738734
 20
-215.4859671235404
 30
0.0
 10
506.3558283308353
 20
-215.2145581948431
 30
0.0
 10
506.3775754960846
 20
-214.9429339476779
 30
0.0
 10
506.4308022213317
 20
-214.2767816719113
 30
0.0
 10
506.4799809593818
 20
-213.609509740112
 30
0.0
 10
506.5258007293356
 20
-212.9412473433606
 30
0.0
 10
506.5408299583932
 20
-212.7215794424824
 30
0.0
 10
506.5574094804147
 20
-212.5023637103866
 30
0.0
 10
506.5716204992894
 20
-212.2824804910405
 30
0.0
 10
506.628464574796
 20
-211.405552967117
 30
0.0
 10
506.6794519879777
 20
-210.5270320865315
 30
0.0
 10
506.7233769554146
 20
-209.6465948715823
 30
0.0
 10
506.7312145476456
 20
-209.489283198987
 30
0.0
 10
506.7368558915039
 20
-209.3313901665287
 30
0.0
 10
506.7443059104895
 20
-209.1739708346996
 30
0.0
 10
506.7784984831787
 20
-208.4487351713609
 30
0.0
 10
506.8084708139003
 20
-207.7224013838363
 30
0.0
 10
506.8338353294136
 20
-206.9948618128919
 30
0.0
 10
506.8436107878499
 20
-206.7149047410218
 30
0.0
 10
506.8519651444035
 20
-206.4346462232967
 30
0.0
 10
506.8604056283423
 20
-206.1543446418781
 30
0.0
 10
506.8796981630597
 20
-205.5149995153561
 30
0.0
 10
506.8953302838254
 20
-204.8747500512692
 30
0.0
 10
506.9077756912646
 20
-204.2337039088513
 30
0.0
 10
506.9129002708002
 20
-203.9670750501398
 30
0.0
 10
506.9189722515916
 20
-203.7006830417428
 30
0.0
 10
506.9229341113996
 20
-203.4337742690231
 30
0.0
 10
506.9361116016288
 20
-202.5473942643619
 30
0.0
 10
506.944810467731
 20
-201.6598946036679
 30
0.0
 10
506.944810467731
 20
-200.7703494175296
 30
0.0
 10
506.944810467731
 20
-199.7382203419956
 30
0.0
 10
506.9325803787584
 20
-198.7089980657772
 30
0.0
 10
506.9147520096203
 20
-197.6811538277529
 30
0.0
 10
506.9105317676528
 20
-197.4382100005024
 30
0.0
 10
506.9063115256814
 20
-197.1953307687923
 30
0.0
 10
506.9011008187612
 20
-196.9526237918565
 30
0.0
 10
506.8796550993675
 20
-195.9527924864966
 30
0.0
 10
506.8517928896293
 20
-194.9545760696455
 30
0.0
 10
506.8136384571282
 20
-193.9589650062551
 30
0.0
 10
506.807006648321
 20
-193.7856121078066
 30
0.0
 10
506.7980494000593
 20
-193.6128621010682
 30
0.0
 10
506.7909438906223
 20
-193.4396383937004
 30
0.0
 10
506.7555024708165
 20
-192.5804100478323
 30
0.0
 10
506.7133861785074
 20
-191.7229042497069
 30
0.0
 10
506.6656716060367
 20
-190.866927212703
 30
0.0
 10
506.6510299502244
 20
-190.6037434494767
 30
0.0
 10
506.6371634408982
 20
-190.3404089633229
 30
0.0
 10
506.621316001666
 20
-190.0775266459515
 30
0.0
 10
506.5638690344476
 20
-189.1237734927069
 30
0.0
 10
506.4991873667139
 20
-188.1719582056727
 30
0.0
 10
506.426538915668
 20
-187.2224037625507
 30
0.0
 10
506.4062559159974
 20
-186.9570668146461
 30
0.0
 10
506.3835182857947
 20
-186.6924404176854
 30
0.0
 10
506.362072566401
 20
-186.4274479793293
 30
0.0
 10
506.2974770260526
 20
-185.6297791834133
 30
0.0
 10
506.2276277150872
 20
-184.8335960849253
 30
0.0
 10
506.1524385061235
 20
-184.0390063430992
 30
0.0
 10
506.1301315128546
 20
-183.8033402800613
 30
0.0
 10
506.1095470673322
 20
-183.5671789845474
 30
0.0
 10
506.0862926728067
 20
-183.3317928355177
 30
0.0
 10
506.0802637557076
 20
-183.2704701358803
 30
0.0
 10
506.0751822398649
 20
-183.2088890540815
 30
0.0
 10
506.0690671953805
 20
-183.1475878862908
 30
0.0
 10
506.0690671953805
 20
-183.1475878862908
 30
0.0
 10
520.9498987617538
 20
-180.0021295808706
 30
0.0
 10
520.9498987617538
 20
-180.0021295808706
 30
0.0
 10
520.9498987617538
 20
-180.0021295808706
 30
0.0
 10
520.9498987617538
 20
-177.4781665009894
 30
0.0
 10
520.9498987617538
 20
-177.4781665009894
 30
0.0
 10
520.9498987617538
 20
-177.4781665009894
 30
0.0
 10
505.8066370467897
 20
-180.6790908437221
 30
0.0
 10
505.8066370467897
 20
-180.6790908437221
 30
0.0
 10
505.7950098495289
 20
-180.5771806128991
 30
0.0
 10
505.7805404484908
 20
-180.4761531877941
 30
0.0
 10
505.7687409964519
 20
-180.3742860206647
 30
0.0
 10
505.7025090357499
 20
-179.8032614439845
 30
0.0
 10
505.62775046372
 20
-179.2349068163054
 30
0.0
 10
505.5560924776267
 20
-178.6655832555214
 30
0.0
 10
505.4815492240641
 20
-178.0730268320585
 30
0.0
 10
505.4107955755345
 20
-177.4793076888689
 30
0.0
 10
505.3303525959539
 20
-176.8886030042295
 30
0.0
 10
505.2620535779607
 20
-176.38757846144
 30
0.0
 10
505.1850556938654
 20
-175.8893961224261
 30
0.0
 10
505.1125794975938
 20
-175.389749617831
 30
0.0
 10
505.0176240532823
 20
-174.7348584979317
 30
0.0
 10
504.9265874050826
 20
-174.0786754672256
 30
0.0
 10
504.8243972602526
 20
-173.4261743823192
 30
0.0
 10
504.82194262972
 20
-173.4105422615549
 30
0.0
 10
504.8190573622505
 20
-173.3950178000248
 30
0.0
 10
504.8166027317179
 20
-173.3793856792602
 30
0.0
 10
504.4970270617687
 20
-171.3420208048238
 30
0.0
 10
504.1382203669799
 20
-169.3178980161588
 30
0.0
 10
503.7491398956133
 20
-167.3046272782724
 30
0.0
 10
503.7143874949051
 20
-167.1250732079505
 30
0.0
 10
503.6832955081528
 20
-166.9442487586688
 30
0.0
 10
503.6480263431212
 20
-166.7649100068144
 30
0.0
 10
503.4925233456551
 20
-165.9737007649332
 30
0.0
 10
503.325651533087
 20
-165.1866687013279
 30
0.0
 10
503.1595118033128
 20
-164.3993351918676
 30
0.0
 10
503.0894471738808
 20
-164.0672925826299
 30
0.0
 10
503.0236027864197
 20
-163.7336566167302
 30
0.0
 10
502.9516864181631
 20
-163.4023030265895
 30
0.0
 10
502.7888195290999
 20
-162.6520258254425
 30
0.0
 10
502.6157034809661
 20
-161.9056889522567
 30
0.0
 10
502.4432764519294
 20
-161.159072165063
 30
0.0
 10
502.3591730583969
 20
-160.7951624225863
 30
0.0
 10
502.2786008877344
 20
-160.4299607693031
 30
0.0
 10
502.1923012458288
 20
-160.0669338325449
 30
0.0
 10
502.0185392422909
 20
-159.3362721438173
 30
0.0
 10
501.8356907994133
 20
-158.6092708690424
 30
0.0
 10
501.6528423565317
 20
-157.8822265305737
 30
0.0
 10
501.5584036765429
 20
-157.506861845609
 30
0.0
 10
501.4666780092461
 20
-157.1304636319989
 30
0.0
 10
501.3698708261107
 20
-156.7560894119859
 30
0.0
 10
501.18435243423
 20
-156.0388635956504
 30
0.0
 10
500.9907811316558
 20
-155.3249967474131
 30
0.0
 10
500.7964777462876
 20
-154.6113667494904
 30
0.0
 10
500.6929095632591
 20
-154.2310282079188
 30
0.0
 10
500.591193119059
 20
-153.8499360517098
 30
0.0
 10
500.4851272418062
 20
-153.4706525706309
 30
0.0
 10
500.4234169689273
 20
-153.2500157366471
 30
0.0
 10
500.3665298297284
 20
-153.0273764409129
 30
0.0
 10
500.3040013466711
 20
-152.8070841164779
 30
0.0
 10
500.3040013466711
 20
-152.8070841164779
 30
0.0
 10
511.3103493392506
 20
-150.0488760754465
 30
0.0
 10
511.3103493392506
 20
-150.0488760754465
 30
0.0
 10
511.3127609060902
 20
-150.0482731837366
 30
0.0
 10
511.3148279633813
 20
-150.0471319958571
 30
0.0
 10
511.3172395302211
 20
-150.0465075723004
 30
0.0
 10
511.3189620779636
 20
-150.0460769353648
 30
0.0
 10
511.3206846257063
 20
-150.0462276582926
 30
0.0
 10
511.3224071734489
 20
-150.0457754895098
 30
0.0
 10
511.3224071734489
 20
-150.0457754895098
 30
0.0
 10
537.4258956651869
 20
-143.2217303523269
 30
0.0
 10
537.4258956651869
 20
-143.2217303523269
 30
0.0
  0
SPLINE
  5
9A
330
88
100
AcDbEntity
  8
Etch Layer
 62
   251
370
   140
100
AcDbSpline
210
0.0
220
0.0
230
1.0
 70
    11
 71
     3
 72
    89
 73
    85
 74
     0
 42
0.0000000001
 43
0.0000000001
 40
0.0
 40
0.0
 40
0.0
 40
0.0
 40
1.0
 40
1.0
 40
1.0
 40
2.0
 40
2.0
 40
2.0
 40
3.0
 40
3.0
 40
3.0
 40
4.0
 40
4.0
 40
4.0
 40
5.0
 40
5.0
 40
5.0
 40
6.0
 40
6.0
 40
6.0
 40
7.0
 40
7.0
 40
7.0
 40
8.0
 40
8.0
 40
8.0
 40
9.0
 40
9.0
 40
9.0
 40
10.0
 40
10.0
 40
10.0
 40
11.0
 40
11.0
 40
11.0
 40
12.0
 40
12.0
 40
12.0
 40
13.0
 40
13.0
 40
13.0
 40
14.0
 40
14.0
 40
14.0
 40
15.0
 40
15.0
 40
15.0
 40
16.0
 40
16.0
 40
16.0
 40
17.0
 40
17.0
 40
17.0
 40
18.0
 40
18.0
 40
18.0
 40
19.0
 40
19.0
 40
19.0
 40
20.0
 40
20.0
 40
20.0
 40
21.0
 40
21.0
 40
21.0
 40
22.0
 40
22.0
 40
22.0
 40
23.0
 40
23.0
 40
23.0
 40
24.0
 40
24.0
 40
24.0
 40
25.0
 40
25.0
 40
25.0
 40
26.0
 40
26.0
 40
26.0
 40
27.0
 40
27.0
 40
27.0
 40
28.0
 40
28.0
 40
28.0
 40
28.0
 10
537.4258956651869
 20
-259.2484121809592
 30
0.0
 10
537.4258956651869
 20
-259.2484121809592
 30
0.0
 10
510.5751659626982
 20
-253.3628110539583
 30
0.0
 10
510.5751659626982
 20
-253.3628110539583
 30
0.0
 10
510.5738740518932
 20
-253.3625311399502
 30
0.0
 10
510.572496013699
 20
-253.3626818628777
 30
0.0
 10
510.5712041028902
 20
-253.3624019488695
 30
0.0
 10
510.5696968736186
 20
-253.3620789711678
 30
0.0
 10
510.5683618991168
 20
-253.3614114839175
 30
0.0
 10
510.5668977335336
 20
-253.3610885062157
 30
0.0
 10
510.5668977335336
 20
-253.3610885062157
 30
0.0
 10
499.6295808417367
 20
-251.0436804325221
 30
0.0
 10
499.6295808417367
 20
-251.0436804325221
 30
0.0
 10
499.8313773097871
 20
-250.368549376647
 30
0.0
 10
500.0281783893801
 20
-249.6912651360937
 30
0.0
 10
500.2220511378145
 20
-249.0127105165802
 30
0.0
 10
500.2607223346345
 20
-248.8772752003163
 30
0.0
 10
500.2981016206494
 20
-248.7412800560361
 30
0.0
 10
500.3364713716177
 20
-248.6057155486915
 30
0.0
 10
500.5307747569857
 20
-247.9191726140215
 30
0.0
 10
500.7208148366895
 20
-247.2308425360686
 30
0.0
 10
500.9069361202821
 20
-246.540897569607
 30
0.0
 10
500.9586125525609
 20
-246.3492426013932
 30
0.0
 10
501.0108057491624
 20
-246.1578029516472
 30
0.0
 10
501.0618792897293
 20
-245.965889601272
 30
0.0
 10
501.2723746238781
 20
-245.1746803593908
 30
0.0
 10
501.4783482702037
 20
-244.3816193786863
 30
0.0
 10
501.6780346172662
 20
-243.5860391719082
 30
0.0
 10
501.716016794993
 20
-243.4348640756461
 30
0.0
 10
501.7523625523624
 20
-243.2830645558273
 30
0.0
 10
501.7899140931517
 20
-243.1317387366377
 30
0.0
 10
501.9563983324744
 20
-242.4609140501192
 30
0.0
 10
502.1187484572187
 20
-241.7884529432452
 30
0.0
 10
502.2774812316997
 20
-241.1145922663303
 30
0.0
 10
502.3294160461418
 20
-240.8942353463551
 30
0.0
 10
502.3816092427433
 20
-240.6739860856137
 30
0.0
 10
502.4326827833102
 20
-240.4533061879366
 30
0.0
 10
502.6146699523205
 20
-239.666898547888
 30
0.0
 10
502.7924368793594
 20
-238.8789190830242
 30
0.0
 10
502.9638303797505
 20
-238.0884849876272
 30
0.0
 10
502.9998316275714
 20
-237.9224098533914
 30
0.0
 10
503.0339380728753
 20
-237.7556457000585
 30
0.0
 10
503.0694656200664
 20
-237.5894198428952
 30
0.0
 10
503.209681006316
 20
-236.9333014077294
 30
0.0
 10
503.346063723839
 20
-236.2757834025226
 30
0.0
 10
503.4789582821806
 20
-235.6169304228154
 30
0.0
 10
503.529084421491
 20
-235.3684529109417
 30
0.0
 10
503.5792105608014
 20
-235.1200184627617
 30
0.0
 10
503.6283031714662
 20
-234.8711749094928
 30
0.0
 10
503.7824281307388
 20
-234.089138234341
 30
0.0
 10
503.9328496123623
 20
-233.3057665846888
 30
0.0
 10
504.076553157794
 20
-232.5200049000436
 30
0.0
 10
504.1086356094991
 20
-232.3445203487637
 30
0.0
 10
504.1386079402207
 20
-232.1683037146932
 30
0.0
 10
504.1701736276037
 20
-231.992646908639
 30
0.0
 10
504.2866609186974
 20
-231.3445383204764
 30
0.0
 10
504.3994877958393
 20
-230.6951593533536
 30
0.0
 10
504.5087834501108
 20
-230.0445961346577
 30
0.0
 10
504.5545170926756
 20
-229.7724981868633
 30
0.0
 10
504.60007848047
 20
-229.5003571753754
 30
0.0
 10
504.6445632759226
 20
-229.2278070587985
 30
0.0
 10
504.7705245796008
 20
-228.4557826924008
 30
0.0
 10
504.8931699788757
 20
-227.6826386699704
 30
0.0
 10
505.009054378262
 20
-226.9072338036278
 30
0.0
 10
505.0378209255638
 20
-226.7146960296959
 30
0.0
 10
505.0643050971074
 20
-226.5214261729734
 30
0.0
 10
505.092425689005
 20
-226.3286730805737
 30
0.0
 10
505.1857447129624
 20
-225.6896078680598
 30
0.0
 10
505.2755755777384
 20
-225.04944453136
 30
0.0
 10
505.3619613470329
 20
-224.4081615386276
 30
0.0
 10
505.4018383272728
 20
-224.1125292822996
 30
0.0
 10
505.4411554795014
 20
-223.8167463030441
 30
0.0
 10
505.4795252304652
 20
-223.5206188142401
 30
0.0
 10
505.5694422226302
 20
-222.826259819188
 30
0.0
 10
505.6559141193099
 20
-222.1308242317967
 30
0.0
 10
505.7376920733924
 20
-221.4339244788243
 30
0.0
 10
505.7491900795751
 20
-221.335997639656
 30
0.0
 10
505.7626259519675
 20
-221.2386952240445
 30
0.0
 10
505.7739947670689
 20
-221.1407037893359
 30
0.0
 10
505.7739947670689
 20
-221.1407037893359
 30
0.0
 10
537.4258956651869
 20
-227.8268805115685
 30
0.0
 10
537.4258956651869
 20
-227.8268805115685
 30
0.0
 10
537.4258956651869
 20
-227.8268805115685
 30
0.0
 10
537.4258956651869
 20
-259.2484121809592
 30
0.0
 10
537.4258956651869
 20
-259.2484121809592
 30
0.0
  0
SPLINE
  5
9B
330
88
100
AcDbEntity
  8
Etch Layer
 62
   251
370
   140
100
AcDbSpline
210
0.0
220
0.0
230
1.0
 70
    11
 71
     3
 72
    65
 73
    61
 74
     0
 42
0.0000000001
 43
0.0000000001
 40
0.0
 40
0.0
 40
0.0
 40
0.0
 40
1.0
 40
1.0
 40
1.0
 40
2.0
 40
2.0
 40
2.0
 40
3.0
 40
3.0
 40
3.0
 40
4.0
 40
4.0
 40
4.0
 40
5.0
 40
5.0
 40
5.0
 40
6.0
 40
6.0
 40
6.0
 40
7.0
 40
7.0
 40
7.0
 40
8.0
 40
8.0
 40
8.0
 40
9.0
 40
9.0
 40
9.0
 40
10.0
 40
10.0
 40
10.0
 40
11.0
 40
11.0
 40
11.0
 40
12.0
 40
12.0
 40
12.0
 40
13.0
 40
13.0
 40
13.0
 40
14.0
 40
14.0
 40
14.0
 40
15.0
 40
15.0
 40
15.0
 40
16.0
 40
16.0
 40
16.0
 40
17.0
 40
17.0
 40
17.0
 40
18.0
 40
18.0
 40
18.0
 40
19.0
 40
19.0
 40
19.0
 40
20.0
 40
20.0
 40
20.0
 40
20.0
 10
509.076204917066
 20
-278.7473081179247
 30
0.0
 10
509.076204917066
 20
-278.7473081179247
 30
0.0
 10
490.8486784052397
 20
-274.2375058729584
 30
0.0
 10
490.8486784052397
 20
-274.2375058729584
 30
0.0
 10
490.9955686639926
 20
-273.9199326647587
 30
0.0
 10
491.1369683018141
 20
-273.5993234661627
 30
0.0
 10
491.282006821743
 20
-273.2807382611643
 30
0.0
 10
491.4650705830919
 20
-272.8786740861888
 30
0.0
 10
491.6487587679959
 20
-272.4769759526087
 30
0.0
 10
491.8288511344855
 20
-272.0732968891245
 30
0.0
 10
492.0219918001305
 20
-271.6403345140157
 30
0.0
 10
492.211278265197
 20
-271.2053266134626
 30
0.0
 10
492.4009953672003
 20
-270.7705124995305
 30
0.0
 10
492.5825303674248
 20
-270.3544956878398
 30
0.0
 10
492.7646036638203
 20
-269.9388018538508
 30
0.0
 10
492.9429734825711
 20
-269.5211055581111
 30
0.0
 10
493.1242285687881
 20
-269.0966697943283
 30
0.0
 10
493.3017371136669
 20
-268.6702961643351
 30
0.0
 10
493.479719359173
 20
-268.2441378528097
 30
0.0
 10
493.660220830752
 20
-267.8119936878786
 30
0.0
 10
493.8410668118828
 20
-267.3800863732622
 30
0.0
 10
494.0182093153618
 20
-266.9461981287418
 30
0.0
 10
494.1879663953994
 20
-266.5303320399786
 30
0.0
 10
494.3540630614814
 20
-266.112614212392
 30
0.0
 10
494.5206980237342
 20
-265.6951547669669
 30
0.0
 10
494.6991324380213
 20
-265.248218223296
 30
0.0
 10
494.8777606389316
 20
-264.8014539343995
 30
0.0
 10
495.052599234808
 20
-264.3527087155989
 30
0.0
 10
495.2113320092928
 20
-263.9452185152342
 30
0.0
 10
495.3665766245962
 20
-263.5360057671269
 30
0.0
 10
495.5223380042219
 20
-263.1270514011809
 30
0.0
 10
495.6988991478409
 20
-262.6635783991809
 30
0.0
 10
495.8755033551567
 20
-262.2001699927213
 30
0.0
 10
496.0482318300452
 20
-261.7348021882043
 30
0.0
 10
496.195100556954
 20
-261.3390037806427
 30
0.0
 10
496.3386318476076
 20
-260.9415904845724
 30
0.0
 10
496.4827229662762
 20
-260.5444140388166
 30
0.0
 10
496.6576046258488
 20
-260.0625313078173
 30
0.0
 10
496.8323570943367
 20
-259.5805839812777
 30
0.0
 10
497.0031046393232
 20
-259.0967203203743
 30
0.0
 10
497.1388629332901
 20
-258.7119462183654
 30
0.0
 10
497.271391450239
 20
-258.325643355235
 30
0.0
 10
497.4045443907439
 20
-257.9396204061128
 30
0.0
 10
497.5767561013134
 20
-257.4405121976872
 30
0.0
 10
497.7485802386389
 20
-256.9412747981809
 30
0.0
 10
497.9163779206187
 20
-256.440121064311
 30
0.0
 10
498.0420162465964
 20
-256.064777911193
 30
0.0
 10
498.1645539866342
 20
-255.6880351880342
 30
0.0
 10
498.2877161502319
 20
-255.3115723788835
 30
0.0
 10
498.4560090646864
 20
-254.7972842184761
 30
0.0
 10
498.623785214818
 20
-254.2828238032944
 30
0.0
 10
498.7874272503674
 20
-253.7664470537489
 30
0.0
 10
498.8248065363824
 20
-253.6485386607663
 30
0.0
 10
498.8644251344627
 20
-253.5316207327356
 30
0.0
 10
498.9015460383182
 20
-253.4136046805191
 30
0.0
 10
498.9015460383182
 20
-253.4136046805191
 30
0.0
 10
509.076204917066
 20
-255.5694162441076
 30
0.0
 10
509.076204917066
 20
-255.5694162441076
 30
0.0
 10
509.076204917066
 20
-255.5694162441076
 30
0.0
 10
509.076204917066
 20
-278.7473081179247
 30
0.0
 10
509.076204917066
 20
-278.7473081179247
 30
0.0
  0
SPLINE
  5
9C
330
88
100
AcDbEntity
  8
Etch Layer
 62
   251
370
   140
100
AcDbSpline
210
0.0
220
0.0
230
1.0
 70
     9
 71
     3
 72
   182
 73
   178
 74
     0
 42
0.0000000001
 43
0.0000000001
 40
0.0
 40
0.0
 40
0.0
 40
0.0
 40
1.0
 40
1.0
 40
1.0
 40
2.0
 40
2.0
 40
2.0
 40
3.0
 40
3.0
 40
3.0
 40
4.0
 40
4.0
 40
4.0
 40
5.0
 40
5.0
 40
5.0
 40
6.0
 40
6.0
 40
6.0
 40
7.0
 40
7.0
 40
7.0
 40
8.0
 40
8.0
 40
8.0
 40
9.0
 40
9.0
 40
9.0
 40
10.0
 40
10.0
 40
10.0
 40
11.0
 40
11.0
 40
11.0
 40
12.0
 40
12.0
 40
12.0
 40
13.0
 40
13.0
 40
13.0
 40
14.0
 40
14.0
 40
14.0
 40
15.0
 40
15.0
 40
15.0
 40
16.0
 40
16.0
 40
16.0
 40
17.0
 40
17.0
 40
17.0
 40
18.0
 40
18.0
 40
18.0
 40
19.0
 40
19.0
 40
19.0
 40
20.0
 40
20.0
 40
20.0
 40
21.0
 40
21.0
 40
21.0
 40
22.0
 40
22.0
 40
22.0
 40
23.0
 40
23.0
 40
23.0
 40
24.0
 40
24.0
 40
24.0
 40
25.0
 40
25.0
 40
25.0
 40
26.0
 40
26.0
 40
26.0
 40
27.0
 40
27.0
 40
27.0
 40
28.0
 40
28.0
 40
28.0
 40
29.0
 40
29.0
 40
29.0
 40
30.0
 40
30.0
 40
30.0
 40
31.0
 40
31.0
 40
31.0
 40
32.0
 40
32.0
 40
32.0
 40
33.0
 40
33.0
 40
33.0
 40
34.0
 40
34.0
 40
34.0
 40
35.0
 40
35.0
 40
35.0
 40
36.0
 40
36.0
 40
36.0
 40
37.0
 40
37.0
 40
37.0
 40
38.0
 40
38.0
 40
38.0
 40
39.0
 40
39.0
 40
39.0
 40
40.0
 40
40.0
 40
40.0
 40
41.0
 40
41.0
 40
41.0
 40
42.0
 40
42.0
 40
42.0
 40
43.0
 40
43.0
 40
43.0
 40
44.0
 40
44.0
 40
44.0
 40
45.0
 40
45.0
 40
45.0
 40
46.0
 40
46.0
 40
46.0
 40
47.0
 40
47.0
 40
47.0
 40
48.0
 40
48.0
 40
48.0
 40
49.0
 40
49.0
 40
49.0
 40
50.0
 40
50.0
 40
50.0
 40
51.0
 40
51.0
 40
51.0
 40
52.0
 40
52.0
 40
52.0
 40
53.0
 40
53.0
 40
53.0
 40
54.0
 40
54.0
 40
54.0
 40
55.0
 40
55.0
 40
55.0
 40
56.0
 40
56.0
 40
56.0
 40
57.0
 40
57.0
 40
57.0
 40
58.0
 40
58.0
 40
58.0
 40
59.0
 40
59.0
 40
59.0
 40
59.0
 10
497.9879713111709
 20
-145.3075634138715
 30
0.0
 10
497.9431635380146
 20
-145.1731400944067
 30
0.0
 10
497.8957504113995
 20
-145.0399440902079
 30
0.0
 10
497.8506196605428
 20
-144.9056714936703
 30
0.0
 10
497.7051074399839
 20
-144.4726875867147
 30
0.0
 10
497.5565376971844
 20
-144.0411463134936
 30
0.0
 10
497.4077526359139
 20
-143.6096911676596
 30
0.0
 10
497.241096141813
 20
-143.1264949940069
 30
0.0
 10
497.0727386318214
 20
-142.6441170305313
 30
0.0
 10
496.9019910868311
 20
-142.1628587230886
 30
0.0
 10
496.7461005161236
 20
-141.7233721984047
 30
0.0
 10
496.5892625441595
 20
-141.2844239698903
 30
0.0
 10
496.4299699416596
 20
-140.846552333715
 30
0.0
 10
496.2559280241135
 20
-140.3682438892816
 30
0.0
 10
496.0783979473899
 20
-139.8916364607444
 30
0.0
 10
495.9003295744947
 20
-139.415287414368
 30
0.0
 10
495.7396158701079
 20
-138.9853394978088
 30
0.0
 10
495.5801940765298
 20
-138.5547886895397
 30
0.0
 10
495.4162075314319
 20
-138.1264341296424
 30
0.0
 10
495.2126239200979
 20
-137.5947051733412
 30
0.0
 10
495.0035066241432
 20
-137.0657322934276
 30
0.0
 10
494.7949060925114
 20
-136.5365225631997
 30
0.0
 10
494.5391292845802
 20
-135.887617296706
 30
0.0
 10
494.279735126389
 20
-135.2406068327293
 30
0.0
 10
494.0164652357749
 20
-134.5955342349631
 30
0.0
 10
493.794127385895
 20
-134.0508000432047
 30
0.0
 10
493.5722417047962
 20
-133.5058720648254
 30
0.0
 10
493.3446070206103
 20
-132.963915481302
 30
0.0
 10
493.1637395076347
 20
-132.5333000774925
 30
0.0
 10
492.9781134565206
 20
-132.1052469634502
 30
0.0
 10
492.793908507293
 20
-131.6764187029238
 30
0.0
 10
492.5994543989987
 20
-131.2236900924687
 30
0.0
 10
492.404828035927
 20
-130.771090673094
 30
0.0
 10
492.2066704499841
 20
-130.3203429925423
 30
0.0
 10
492.0145202492963
 20
-129.883268034698
 30
0.0
 10
491.8196785677573
 20
-129.4477003061285
 30
0.0
 10
491.6240617397361
 20
-129.0125201508011
 30
0.0
 10
491.4239447557354
 20
-128.5672846230261
 30
0.0
 10
491.2219329692216
 20
-128.1231256875903
 30
0.0
 10
491.0182201668062
 20
-127.6798926215665
 30
0.0
 10
490.9018190031016
 20
-127.4266781034006
 30
0.0
 10
490.7896811450567
 20
-127.1711166139351
 30
0.0
 10
490.6721172616205
 20
-126.9185695830195
 30
0.0
 10
490.6721172616205
 20
-126.9185695830195
 30
0.0
 10
509.7755593005717
 20
-122.635217770668
 30
0.0
 10
509.7755593005717
 20
-122.635217770668
 30
0.0
 10
509.7755593005717
 20
-122.635217770668
 30
0.0
 10
509.7755593005717
 20
-147.8877246138558
 30
0.0
 10
509.7755593005717
 20
-147.8877246138558
 30
0.0
 10
509.7755593005717
 20
-147.8877246138558
 30
0.0
 10
499.6107189439569
 20
-150.4350497474963
 30
0.0
 10
499.6107189439569
 20
-150.4350497474963
 30
0.0
 10
499.3090147068342
 20
-149.4268425537379
 30
0.0
 10
498.9942191068714
 20
-148.424341299377
 30
0.0
 10
498.6741697362917
 20
-147.4242300800089
 30
0.0
 10
498.6741697362917
 20
-147.4242300800089
 30
0.0
 10
448.7868616704196
 20
-147.4242300800086
 30
0.0
 10
448.7868616704196
 20
-147.4242300800086
 30
0.0
 10
448.7868616704196
 20
-147.4242300800086
 30
0.0
 10
501.3846847366973
 20
-200.0220531462866
 30
0.0
 10
501.3846847366973
 20
-200.0220531462866
 30
0.0
 10
501.5831222366476
 20
-200.220490646237
 30
0.0
 10
501.6947433303697
 20
-200.4897248584093
 30
0.0
 10
501.6947433303697
 20
-200.7703278856828
 30
0.0
 10
501.6947433303697
 20
-201.0509309129564
 30
0.0
 10
501.5831222366476
 20
-201.3201651251288
 30
0.0
 10
501.3846847366973
 20
-201.5187748798534
 30
0.0
 10
501.3846847366973
 20
-201.5187748798534
 30
0.0
 10
440.8315548351178
 20
-262.0719047814361
 30
0.0
 10
440.8315548351178
 20
-262.0719047814361
 30
0.0
 10
440.8315548351178
 20
-262.0719047814361
 30
0.0
 10
449.9480526355718
 20
-267.3353216638008
 30
0.0
 10
449.9480526355718
 20
-267.3353216638008
 30
0.0
 10
450.8421625732274
 20
-266.3664531541146
 30
0.0
 10
452.1187642371348
 20
-265.7559391704347
 30
0.0
 10
453.5411149719131
 20
-265.7559391704347
 30
0.0
 10
456.2437493163987
 20
-265.7559391704347
 30
0.0
 10
458.4346793220875
 20
-267.9468691761262
 30
0.0
 10
458.4346793220875
 20
-270.6495250524579
 30
0.0
 10
458.4346793220875
 20
-271.1573105951369
 30
0.0
 10
458.3572077373662
 20
-271.6469663228248
 30
0.0
 10
458.2136549148645
 20
-272.1074894618156
 30
0.0
 10
458.2136549148645
 20
-272.1074894618156
 30
0.0
 10
484.0282936820086
 20
-287.0115754227163
 30
0.0
 10
484.0282936820086
 20
-287.0115754227163
 30
0.0
 10
484.0958821490604
 20
-287.0506126609336
 30
0.0
 10
484.1528338838004
 20
-287.1001574403808
 30
0.0
 10
484.2082353255757
 20
-287.15069268478
 30
0.0
 10
486.1830717169548
 20
-283.673988448453
 30
0.0
 10
488.0379111262134
 20
-280.1203293917243
 30
0.0
 10
489.7763278399146
 20
-276.4999431418156
 30
0.0
 10
489.7763278399146
 20
-276.4999431418156
 30
0.0
 10
489.7763493717627
 20
-276.5160920269027
 30
0.0
 10
489.7763493717627
 20
-276.5160920269027
 30
0.0
 10
489.7763493717627
 20
-276.5160920269027
 30
0.0
 10
510.0143044176995
 20
-281.5233660599391
 30
0.0
 10
510.0143044176995
 20
-281.5233660599391
 30
0.0
 10
510.3829296346213
 20
-281.6146610902982
 30
0.0
 10
510.7729144435515
 20
-281.5311175247809
 30
0.0
 10
511.0719487316712
 20
-281.2970232865581
 30
0.0
 10
511.3709830197909
 20
-281.0631013031097
 30
0.0
 10
511.5456493608931
 20
-280.7044668630951
 30
0.0
 10
511.5456493608931
 20
-280.3248173406207
 30
0.0
 10
511.5456493608931
 20
-280.3248173406207
 30
0.0
 10
511.5456493608931
 20
-256.1035567672488
 30
0.0
 10
511.5456493608931
 20
-256.1035567672488
 30
0.0
 10
511.5456493608931
 20
-256.1035567672488
 30
0.0
 10
538.3963790633818
 20
-261.9891578942497
 30
0.0
 10
538.3963790633818
 20
-261.9891578942497
 30
0.0
 10
538.7615591848183
 20
-262.0690841095075
 30
0.0
 10
539.143275764584
 20
-261.9793393721167
 30
0.0
 10
539.434730842636
 20
-261.7450728791197
 30
0.0
 10
539.7258414111397
 20
-261.5106341313484
 30
0.0
 10
539.895340109014
 20
-261.1569950797876
 30
0.0
 10
539.895340109014
 20
-260.7830299648637
 30
0.0
 10
539.895340109014
 20
-260.7830299648637
 30
0.0
 10
539.895340109014
 20
-228.3250628505824
 30
0.0
 10
539.895340109014
 20
-228.3250628505824
 30
0.0
 10
539.895340109014
 20
-228.3250628505824
 30
0.0
 10
562.971623197863
 20
-232.8340038216774
 30
0.0
 10
562.971623197863
 20
-232.8340038216774
 30
0.0
 10
563.3337027333627
 20
-232.9048005338993
 30
0.0
 10
563.708529122158
 20
-232.8098881532806
 30
0.0
 10
563.9930940092396
 20
-232.5752771507351
 30
0.0
 10
564.2780034058697
 20
-232.3408384029639
 30
0.0
 10
564.4430234796131
 20
-231.991161211211
 30
0.0
 10
564.4430234796131
 20
-231.6221914847407
 30
0.0
 10
564.4430234796131
 20
-231.6221914847407
 30
0.0
 10
564.4430234796131
 20
-170.1668556711115
 30
0.0
 10
564.4430234796131
 20
-170.1668556711115
 30
0.0
 10
564.4430234796131
 20
-169.7975414350927
 30
0.0
 10
564.2776588963211
 20
-169.4476919885656
 30
0.0
 10
563.992749499691
 20
-169.2132532407943
 30
0.0
 10
563.7074955935124
 20
-168.9786422382488
 30
0.0
 10
563.3323246951687
 20
-168.8840743671787
 30
0.0
 10
562.9699006501204
 20
-168.9553878437234
 30
0.0
 10
562.9699006501204
 20
-168.9553878437234
 30
0.0
 10
539.895340109014
 20
-173.4951624194114
 30
0.0
 10
539.895340109014
 20
-173.4951624194114
 30
0.0
 10
539.895340109014
 20
-173.4951624194114
 30
0.0
 10
539.895340109014
 20
-141.6226892828482
 30
0.0
 10
539.895340109014
 20
-141.6226892828482
 30
0.0
 10
539.895340109014
 20
-141.2401114292112
 30
0.0
 10
539.7179176915236
 20
-140.8792376771313
 30
0.0
 10
539.4150937983702
 20
-140.6454879484571
 30
0.0
 10
539.1126144147652
 20
-140.4115659650086
 30
0.0
 10
538.7184954912527
 20
-140.3312952402023
 30
0.0
 10
538.3484922361368
 20
-140.4281024233378
 30
0.0
 10
538.3484922361368
 20
-140.4281024233378
 30
0.0
 10
512.2450037443988
 20
-147.2521475605207
 30
0.0
 10
512.2450037443988
 20
-147.2521475605207
 30
0.0
 10
512.2450037443988
 20
-147.2521475605207
 30
0.0
 10
512.2450037443988
 20
-121.0930207766959
 30
0.0
 10
512.2450037443988
 20
-121.0930207766959
 30
0.0
 10
512.2450037443988
 20
-120.7180221331265
 30
0.0
 10
512.074471517879
 20
-120.3635218076943
 30
0.0
 10
511.7819829111812
 20
-120.129083059923
 30
0.0
 10
511.489149794935
 20
-119.894816566926
 30
0.0
 10
511.1060551769752
 20
-119.8061053581809
 30
0.0
 10
510.7401860364417
 20
-119.8882708855041
 30
0.0
 10
510.7401860364417
 20
-119.8882708855041
 30
0.0
 10
489.5864384831364
 20
-124.6313706903621
 30
0.0
 10
489.5864384831364
 20
-124.6313706903621
 30
0.0
 10
489.5864384831364
 20
-124.6313706903621
 30
0.0
 10
489.5864600149851
 20
-124.6440098844236
 30
0.0
 10
489.5864600149851
 20
-124.6440098844236
 30
0.0
 10
486.8057081303728
 20
-118.8891285992416
 30
0.0
 10
483.7232735404865
 20
-113.3079016583626
 30
0.0
 10
480.351795439387
 20
-107.9260380868453
 30
0.0
 10
480.351795439387
 20
-107.9260380868453
 30
0.0
 10
409.2886696772559
 20
-107.926038086845
 30
0.0
 10
409.2886696772559
 20
-107.926038086845
 30
0.0
 10
409.2886696772559
 20
-107.926038086845
 30
0.0
 10
446.6701950042821
 20
-145.3075634138711
 30
0.0
 10
446.6701950042821
 20
-145.3075634138711
 30
0.0
 10
446.6701950042821
 20
-145.3075634138711
 30
0.0
 10
497.9879713111709
 20
-145.3075634138715
 30
0.0
 10
497.9879713111709
 20
-145.3075634138715
 30
0.0
  0
SPLINE
  5
9D
330
88
100
AcDbEntity
  8
Etch Layer
 62
   251
370
   140
100
AcDbSpline
210
0.0
220
0.0
230
1.0
 70
    11
 71
     3
 72
    17
 73
    13
 74
     0
 42
0.0000000001
 43
0.0000000001
 40
0.0
 40
0.0
 40
0.0
 40
0.0
 40
1.0
 40
1.0
 40
1.0
 40
2.0
 40
2.0
 40
2.0
 40
3.0
 40
3.0
 40
3.0
 40
4.0
 40
4.0
 40
4.0
 40
4.0
 10
215.5860874299482
 20
-130.3489588169163
 30
0.0
 10
215.5860874299482
 20
-133.0515931614013
 30
0.0
 10
213.3951574242568
 20
-135.2425231670927
 30
0.0
 10
210.6925230797719
 20
-135.2425231670927
 30
0.0
 10
207.9898672034401
 20
-135.2425231670927
 30
0.0
 10
205.7989587295955
 20
-133.0515931614013
 30
0.0
 10
205.7989587295955
 20
-130.3489588169163
 30
0.0
 10
205.7989587295955
 20
-127.6463244724314
 30
0.0
 10
207.9898672034401
 20
-125.45539446674
 30
0.0
 10
210.6925230797719
 20
-125.45539446674
 30
0.0
 10
213.3951574242568
 20
-125.45539446674
 30
0.0
 10
215.5860874299482
 20
-127.6463244724314
 30
0.0
 10
215.5860874299482
 20
-130.3489588169163
 30
0.0
  0
SPLINE
  5
9E
330
88
100
AcDbEntity
  8
Etch Layer
 62
   251
370
   140
100
AcDbSpline
210
0.0
220
0.0
230
1.0
 70
     9
 71
     3
 72
    80
 73
    76
 74
     0
 42
0.0000000001
 43
0.0000000001
 40
0.0
 40
0.0
 40
0.0
 40
0.0
 40
1.0
 40
1.0
 40
1.0
 40
2.0
 40
2.0
 40
2.0
 40
3.0
 40
3.0
 40
3.0
 40
4.0
 40
4.0
 40
4.0
 40
5.0
 40
5.0
 40
5.0
 40
6.0
 40
6.0
 40
6.0
 40
7.0
 40
7.0
 40
7.0
 40
8.0
 40
8.0
 40
8.0
 40
9.0
 40
9.0
 40
9.0
 40
10.0
 40
10.0
 40
10.0
 40
11.0
 40
11.0
 40
11.0
 40
12.0
 40
12.0
 40
12.0
 40
13.0
 40
13.0
 40
13.0
 40
14.0
 40
14.0
 40
14.0
 40
15.0
 40
15.0
 40
15.0
 40
16.0
 40
16.0
 40
16.0
 40
17.0
 40
17.0
 40
17.0
 40
18.0
 40
18.0
 40
18.0
 40
19.0
 40
19.0
 40
19.0
 40
20.0
 40
20.0
 40
20.0
 40
21.0
 40
21.0
 40
21.0
 40
22.0
 40
22.0
 40
22.0
 40
23.0
 40
23.0
 40
23.0
 40
24.0
 40
24.0
 40
24.0
 40
25.0
 40
25.0
 40
25.0
 40
25.0
 10
153.4147100515566
 20
-148.177844717407
 30
0.0
 10
153.4161957489846
 20
-148.1781676951088
 30
0.0
 10
153.4177029782594
 20
-148.1779954403345
 30
0.0
 10
153.4192102075341
 20
-148.1783184180363
 30
0.0
 10
153.4205882457283
 20
-148.1786198638912
 30
0.0
 10
153.4217724973013
 20
-148.1792658192947
 30
0.0
 10
153.4231505354954
 20
-148.1795672651496
 30
0.0
 10
153.4231505354954
 20
-148.1795672651496
 30
0.0
 10
164.2660933428433
 20
-150.4771014442628
 30
0.0
 10
164.2660933428433
 20
-150.4771014442628
 30
0.0
 10
163.9401011825515
 20
-151.5673019105701
 30
0.0
 10
163.6259300061435
 20
-152.6625838927182
 30
0.0
 10
163.3207160779972
 20
-153.7616339480532
 30
0.0
 10
163.3180461289961
 20
-153.7712371517183
 30
0.0
 10
163.3152900526079
 20
-153.7807757598431
 30
0.0
 10
163.3126416354536
 20
-153.7903789635082
 30
0.0
 10
163.0302945285906
 20
-154.8077802558429
 30
0.0
 10
162.7578951349413
 20
-155.8293156627598
 30
0.0
 10
162.4935486519887
 20
-156.8541239103877
 30
0.0
 10
162.470811021786
 20
-156.9422752911165
 30
0.0
 10
162.4479657323495
 20
-157.0303405444582
 30
0.0
 10
162.4253572932275
 20
-157.1185349888806
 30
0.0
 10
162.1691067846652
 20
-158.1183447623937
 30
0.0
 10
161.921189100808
 20
-159.1214919721581
 30
0.0
 10
161.6822286652123
 20
-160.1281273411013
 30
0.0
 10
161.6607829458166
 20
-160.2183888428149
 30
0.0
 10
161.6398970544373
 20
-160.3088441311495
 30
0.0
 10
161.6186020579691
 20
-160.3991702284034
 30
0.0
 10
161.3762395905818
 20
-161.4275096989036
 30
0.0
 10
161.1413271421813
 20
-162.4587344368729
 30
0.0
 10
160.9171590853255
 20
-163.494028693884
 30
0.0
 10
160.9154150057361
 20
-163.5020816045807
 30
0.0
 10
160.9137785853806
 20
-163.5101991108179
 30
0.0
 10
160.9120345057912
 20
-163.5182520215146
 30
0.0
 10
160.6867252610558
 20
-164.5595106000846
 30
0.0
 10
160.4714929206149
 20
-165.604494188148
 30
0.0
 10
160.2647871914998
 20
-166.6525998939949
 30
0.0
 10
160.252083401898
 20
-166.7169585840288
 30
0.0
 10
160.2387767205862
 20
-166.7811234874415
 30
0.0
 10
160.2261375265247
 20
-166.8455252411689
 30
0.0
 10
160.0313604405274
 20
-167.8390477154214
 30
0.0
 10
159.8464449403566
 20
-168.8360798806995
 30
0.0
 10
159.6685272903902
 20
-169.8355666765109
 30
0.0
 10
159.6408373354275
 20
-169.9910696739763
 30
0.0
 10
159.6129105301502
 20
-170.1464650122078
 30
0.0
 10
159.5856296802764
 20
-170.302097200754
 30
0.0
 10
159.4164970237974
 20
-171.2674775512614
 30
0.0
 10
159.2551158321603
 20
-172.235506318923
 30
0.0
 10
159.1018521467602
 20
-173.2062696311261
 30
0.0
 10
159.0742913828782
 20
-173.3807421856072
 30
0.0
 10
159.0476564884079
 20
-173.55553771779
 30
0.0
 10
159.0206124888487
 20
-173.7301825270454
 30
0.0
 10
158.8691574785784
 20
-174.7088049633242
 30
0.0
 10
158.7238821083347
 20
-175.6894298613538
 30
0.0
 10
158.5886621105387
 20
-176.6733706637879
 30
0.0
 10
158.5718457382013
 20
-176.7956500216675
 30
0.0
 10
158.5565150632919
 20
-176.9183815483295
 30
0.0
 10
158.5399570731159
 20
-177.0407470335963
 30
0.0
 10
158.4139527057429
 20
-177.9723654483482
 30
0.0
 10
158.2953337618164
 20
-178.9063093025526
 30
0.0
 10
158.1840141139493
 20
-179.842535532516
 30
0.0
 10
158.1669824231441
 20
-179.9857223136217
 30
0.0
 10
158.1486157578384
 20
-180.1284784577918
 30
0.0
 10
158.1319285765817
 20
-180.2717513662846
 30
0.0
 10
158.1277513983058
 20
-180.3076880185654
 30
0.0
 10
158.1230143920136
 20
-180.3434524160714
 30
0.0
 10
158.1188587455845
 20
-180.3794106001987
 30
0.0
 10
158.1188587455845
 20
-180.3794106001987
 30
0.0
 10
126.5641526038421
 20
-173.7138183234905
 30
0.0
 10
126.5641526038421
 20
-173.7138183234905
 30
0.0
 10
126.5641526038421
 20
-173.7138183234905
 30
0.0
 10
126.5641526038421
 20
-142.2924158451805
 30
0.0
 10
126.5641526038421
 20
-142.2924158451805
 30
0.0
 10
126.5641526038421
 20
-142.2924158451805
 30
0.0
 10
153.4147100515566
 20
-148.177844717407
 30
0.0
 10
153.4147100515566
 20
-148.177844717407
 30
0.0
  0
SPLINE
  5
9F
330
88
100
AcDbEntity
  8
Etch Layer
 62
   251
370
   140
100
AcDbSpline
210
0.0
220
0.0
230
1.0
 70
     9
 71
     3
 72
    89
 73
    85
 74
     0
 42
0.0000000001
 43
0.0000000001
 40
0.0
 40
0.0
 40
0.0
 40
0.0
 40
1.0
 40
1.0
 40
1.0
 40
2.0
 40
2.0
 40
2.0
 40
3.0
 40
3.0
 40
3.0
 40
4.0
 40
4.0
 40
4.0
 40
5.0
 40
5.0
 40
5.0
 40
6.0
 40
6.0
 40
6.0
 40
7.0
 40
7.0
 40
7.0
 40
8.0
 40
8.0
 40
8.0
 40
9.0
 40
9.0
 40
9.0
 40
10.0
 40
10.0
 40
10.0
 40
11.0
 40
11.0
 40
11.0
 40
12.0
 40
12.0
 40
12.0
 40
13.0
 40
13.0
 40
13.0
 40
14.0
 40
14.0
 40
14.0
 40
15.0
 40
15.0
 40
15.0
 40
16.0
 40
16.0
 40
16.0
 40
17.0
 40
17.0
 40
17.0
 40
18.0
 40
18.0
 40
18.0
 40
19.0
 40
19.0
 40
19.0
 40
20.0
 40
20.0
 40
20.0
 40
21.0
 40
21.0
 40
21.0
 40
22.0
 40
22.0
 40
22.0
 40
23.0
 40
23.0
 40
23.0
 40
24.0
 40
24.0
 40
24.0
 40
25.0
 40
25.0
 40
25.0
 40
26.0
 40
26.0
 40
26.0
 40
27.0
 40
27.0
 40
27.0
 40
28.0
 40
28.0
 40
28.0
 40
28.0
 10
157.8026205118854
 20
-183.3384677080201
 30
0.0
 10
157.7850289930638
 20
-183.5167513993818
 30
0.0
 10
157.768750916896
 20
-183.6954226639859
 30
0.0
 10
157.7516761623972
 20
-183.8738570782747
 30
0.0
 10
157.6624266574825
 20
-184.8075856140116
 30
0.0
 10
157.5798089613768
 20
-185.7432089522648
 30
0.0
 10
157.5052657078147
 20
-186.6811792618177
 30
0.0
 10
157.495425653835
 20
-186.8047935941981
 30
0.0
 10
157.484315220895
 20
-186.9280203533358
 30
0.0
 10
157.4747335490767
 20
-187.0516992812563
 30
0.0
 10
157.3964437541744
 20
-188.063437697887
 30
0.0
 10
157.3281877998729
 20
-189.0779537227531
 30
0.0
 10
157.2671450142436
 20
-190.0944506775225
 30
0.0
 10
157.2537737373915
 20
-190.3170038458696
 30
0.0
 10
157.2415867121124
 20
-190.539836928225
 30
0.0
 10
157.2290551772848
 20
-190.7626054150402
 30
0.0
 10
157.1755485380295
 20
-191.7135378963563
 30
0.0
 10
157.128113879567
 20
-192.6660852661808
 30
0.0
 10
157.0898302559872
 20
-193.6210226709985
 30
0.0
 10
157.0862990331148
 20
-193.7090017969531
 30
0.0
 10
157.0815620268225
 20
-193.7966148815127
 30
0.0
 10
157.0781599950309
 20
-193.8846370711608
 30
0.0
 10
157.0388643746522
 20
-194.9020168316483
 30
0.0
 10
157.0106576553668
 20
-195.9221957322179
 30
0.0
 10
156.9887812990354
 20
-196.9439895212962
 30
0.0
 10
156.9835921239608
 20
-197.1863304568371
 30
0.0
 10
156.9791780953703
 20
-197.4288651789987
 30
0.0
 10
156.9749578534009
 20
-197.6714429648535
 30
0.0
 10
156.9570864205711
 20
-198.7025169798955
 30
0.0
 10
156.9448132679049
 20
-199.7349690331314
 30
0.0
 10
156.9448132679049
 20
-200.7703494175296
 30
0.0
 10
156.9448132679049
 20
-201.6550499381418
 30
0.0
 10
156.953533665852
 20
-202.5376834014628
 30
0.0
 10
156.9666250286959
 20
-203.4192402724447
 30
0.0
 10
156.9707160795846
 20
-203.6949771023454
 30
0.0
 10
156.9767449966838
 20
-203.9701756360765
 30
0.0
 10
156.9821064265328
 20
-204.2455894882754
 30
0.0
 10
156.9943149836586
 20
-204.8706374685337
 30
0.0
 10
157.0096671904147
 20
-205.4948672386141
 30
0.0
 10
157.0283998971158
 20
-206.1182787985169
 30
0.0
 10
157.0372710179903
 20
-206.4145139465548
 30
0.0
 10
157.0458406930099
 20
-206.7108352219799
 30
0.0
 10
157.0561759794656
 20
-207.0067043286225
 30
0.0
 10
157.0813036446612
 20
-207.7235425717158
 30
0.0
 10
157.1109314658343
 20
-208.4391965632362
 30
0.0
 10
157.1446503378962
 20
-209.1537954942641
 30
0.0
 10
157.1532415447626
 20
-209.3362994275952
 30
0.0
 10
157.1601102038863
 20
-209.5192555297087
 30
0.0
 10
157.1692397069222
 20
-209.7016087401124
 30
0.0
 10
157.2102794068902
 20
-210.5177949242616
 30
0.0
 10
157.2581447022884
 20
-211.3321509014344
 30
0.0
 10
157.3102948351964
 20
-212.1453441588808
 30
0.0
 10
157.3321927233745
 20
-212.4873560131789
 30
0.0
 10
157.3568036242473
 20
-212.828592720993
 30
0.0
 10
157.3806609104826
 20
-213.1700878109684
 30
0.0
 10
157.4175664958683
 20
-213.6976180571472
 30
0.0
 10
157.4564745430049
 20
-214.2245454116162
 30
0.0
 10
157.4980310072957
 20
-214.7507622151413
 30
0.0
 10
157.5268836819847
 20
-215.1166744193684
 30
0.0
 10
157.5559732069883
 20
-215.482543559902
 30
0.0
 10
157.5870651937426
 20
-215.8478098087256
 30
0.0
 10
157.6352965305361
 20
-216.4139681880328
 30
0.0
 10
157.6874466634441
 20
-216.9790069113073
 30
0.0
 10
157.7410394300865
 20
-217.5436149976462
 30
0.0
 10
157.7685571302749
 20
-217.8335843782704
 30
0.0
 10
157.7934479451559
 20
-218.1243289053786
 30
0.0
 10
157.822386747232
 20
-218.4138891809139
 30
0.0
 10
157.822386747232
 20
-218.4138891809139
 30
0.0
 10
125.0826108222572
 20
-225.3343108642966
 30
0.0
 10
125.0826108222572
 20
-225.3343108642966
 30
0.0
 10
125.0826108222572
 20
-225.3343108642966
 30
0.0
 10
102.0166414880172
 20
-229.8724274877824
 30
0.0
 10
102.0166414880172
 20
-229.8724274877824
 30
0.0
 10
102.0166414880172
 20
-229.8724274877824
 30
0.0
 10
102.0166414880172
 20
-171.4177698418054
 30
0.0
 10
102.0166414880172
 20
-171.4177698418054
 30
0.0
 10
102.0166414880172
 20
-171.4177698418054
 30
0.0
 10
125.0883167616546
 20
-175.9258710708758
 30
0.0
 10
125.0883167616546
 20
-175.9258710708758
 30
0.0
 10
125.0883167616546
 20
-175.9258710708758
 30
0.0
 10
157.8494307467912
 20
-182.8463142861054
 30
0.0
 10
157.8494307467912
 20
-182.8463142861054
 30
0.0
 10
157.8328081610749
 20
-183.0100639808886
 30
0.0
 10
157.8187909288193
 20
-183.1745888221561
 30
0.0
 10
157.8026205118854
 20
-183.3384677080201
 30
0.0
  0
SPLINE
  5
A0
330
88
100
AcDbEntity
  8
Etch Layer
 62
   251
370
   140
100
AcDbSpline
210
0.0
220
0.0
230
1.0
 70
     9
 71
     3
 72
    74
 73
    70
 74
     0
 42
0.0000000001
 43
0.0000000001
 40
0.0
 40
0.0
 40
0.0
 40
0.0
 40
1.0
 40
1.0
 40
1.0
 40
2.0
 40
2.0
 40
2.0
 40
3.0
 40
3.0
 40
3.0
 40
4.0
 40
4.0
 40
4.0
 40
5.0
 40
5.0
 40
5.0
 40
6.0
 40
6.0
 40
6.0
 40
7.0
 40
7.0
 40
7.0
 40
8.0
 40
8.0
 40
8.0
 40
9.0
 40
9.0
 40
9.0
 40
10.0
 40
10.0
 40
10.0
 40
11.0
 40
11.0
 40
11.0
 40
12.0
 40
12.0
 40
12.0
 40
13.0
 40
13.0
 40
13.0
 40
14.0
 40
14.0
 40
14.0
 40
15.0
 40
15.0
 40
15.0
 40
16.0
 40
16.0
 40
16.0
 40
17.0
 40
17.0
 40
17.0
 40
18.0
 40
18.0
 40
18.0
 40
19.0
 40
19.0
 40
19.0
 40
20.0
 40
20.0
 40
20.0
 40
21.0
 40
21.0
 40
21.0
 40
22.0
 40
22.0
 40
22.0
 40
23.0
 40
23.0
 40
23.0
 40
23.0
 10
158.1016332681583
 20
-221.0138166162448
 30
0.0
 10
158.2253767916191
 20
-222.0902797643047
 30
0.0
 10
158.3595632607696
 20
-223.1635131353471
 30
0.0
 10
158.5027285100285
 20
-224.2339258344611
 30
0.0
 10
158.5459213946748
 20
-224.5569465998968
 30
0.0
 10
158.5938512856133
 20
-224.878438604211
 30
0.0
 10
158.6388097816958
 20
-225.2008995416304
 30
0.0
 10
158.7451340411094
 20
-225.963514490984
 30
0.0
 10
158.8547742049274
 20
-226.7250313161517
 30
0.0
 10
158.9708739227804
 20
-227.4844595521814
 30
0.0
 10
159.0325196001195
 20
-227.8877295105767
 30
0.0
 10
159.0967060353791
 20
-228.2901166632539
 30
0.0
 10
159.1611077891065
 20
-228.6924607522375
 30
0.0
 10
159.2725781599011
 20
-229.3889083364275
 30
0.0
 10
159.3883764318991
 20
-230.0838702231896
 30
0.0
 10
159.5080289044712
 20
-230.7775401991446
 30
0.0
 10
159.5764355817001
 20
-231.1742429442711
 30
0.0
 10
159.6442393672192
 20
-231.5711394760187
 30
0.0
 10
159.7153159934493
 20
-231.9669163517335
 30
0.0
 10
159.8558974210943
 20
-232.749577450442
 30
0.0
 10
160.0033259760162
 20
-233.5297623867703
 30
0.0
 10
160.1542642219637
 20
-234.3087415396789
 30
0.0
 10
160.2099240458973
 20
-234.5961270986891
 30
0.0
 10
160.2621387743456
 20
-234.8847184411191
 30
0.0
 10
160.3192197001668
 20
-235.1715872358065
 30
0.0
 10
160.5248273050959
 20
-236.2049005629136
 30
0.0
 10
160.7401242410772
 20
-237.2346611353016
 30
0.0
 10
160.9638185973038
 20
-238.261299589906
 30
0.0
 10
161.0394169113583
 20
-238.6083498963514
 30
0.0
 10
161.1200106138663
 20
-238.9534623365863
 30
0.0
 10
161.1976759852119
 20
-239.2997374965475
 30
0.0
 10
161.3560427182995
 20
-240.0057452207091
 30
0.0
 10
161.5169071456139
 20
-240.7107409480719
 30
0.0
 10
161.6837574263339
 20
-241.4134973633693
 30
0.0
 10
161.7827177941477
 20
-241.8303539170845
 30
0.0
 10
161.8843696428094
 20
-242.2461123466138
 30
0.0
 10
161.9863014054792
 20
-242.6618061806028
 30
0.0
 10
162.1442159697843
 20
-243.3057375904896
 30
0.0
 10
162.3059201391232
 20
-243.9481402392547
 30
0.0
 10
162.4709402128667
 20
-244.589250977213
 30
0.0
 10
162.5776305136755
 20
-245.0037605596289
 30
0.0
 10
162.6838686457019
 20
-245.4183993331255
 30
0.0
 10
162.79350880952
 20
-245.8317246639683
 30
0.0
 10
162.9803191122077
 20
-246.5358806493066
 30
0.0
 10
163.1734167141559
 20
-247.2373882174906
 30
0.0
 10
163.3687320963228
 20
-247.9379914481097
 30
0.0
 10
163.4446964517726
 20
-248.210498500993
 30
0.0
 10
163.5152347818331
 20
-248.4852448659416
 30
0.0
 10
163.592469516243
 20
-248.7572136226553
 30
0.0
 10
163.592469516243
 20
-248.7572136226553
 30
0.0
 10
152.680043439327
 20
-251.4917796959192
 30
0.0
 10
152.680043439327
 20
-251.4917796959192
 30
0.0
 10
152.6778471909552
 20
-251.4923395239355
 30
0.0
 10
152.6759739202851
 20
-251.493480711815
 30
0.0
 10
152.6737776719132
 20
-251.4940405398314
 30
0.0
 10
152.6717967420092
 20
-251.4945357723074
 30
0.0
 10
152.6697942802584
 20
-251.4943635175331
 30
0.0
 10
152.6678133503544
 20
-251.4948802818559
 30
0.0
 10
152.6678133503544
 20
-251.4948802818559
 30
0.0
 10
126.5641526038421
 20
-258.3189254190388
 30
0.0
 10
126.5641526038421
 20
-258.3189254190388
 30
0.0
 10
126.5641526038421
 20
-258.3189254190388
 30
0.0
 10
126.5641526038421
 20
-227.5451147645686
 30
0.0
 10
126.5641526038421
 20
-227.5451147645686
 30
0.0
 10
126.5641526038421
 20
-227.5451147645686
 30
0.0
 10
158.0852475327565
 20
-220.8823000960954
 30
0.0
 10
158.0852475327565
 20
-220.8823000960954
 30
0.0
 10
158.0902644530569
 20
-220.9262681272259
 30
0.0
 10
158.0965732841643
 20
-220.9698485851143
 30
0.0
 10
158.1016332681583
 20
-221.0138166162448
 30
0.0
  0
SPLINE
  5
A1
330
88
100
AcDbEntity
  8
Etch Layer
 62
   251
370
   140
100
AcDbSpline
210
0.0
220
0.0
230
1.0
 70
     9
 71
     3
 72
    65
 73
    61
 74
     0
 42
0.0000000001
 43
0.0000000001
 40
0.0
 40
0.0
 40
0.0
 40
0.0
 40
1.0
 40
1.0
 40
1.0
 40
2.0
 40
2.0
 40
2.0
 40
3.0
 40
3.0
 40
3.0
 40
4.0
 40
4.0
 40
4.0
 40
5.0
 40
5.0
 40
5.0
 40
6.0
 40
6.0
 40
6.0
 40
7.0
 40
7.0
 40
7.0
 40
8.0
 40
8.0
 40
8.0
 40
9.0
 40
9.0
 40
9.0
 40
10.0
 40
10.0
 40
10.0
 40
11.0
 40
11.0
 40
11.0
 40
12.0
 40
12.0
 40
12.0
 40
13.0
 40
13.0
 40
13.0
 40
14.0
 40
14.0
 40
14.0
 40
15.0
 40
15.0
 40
15.0
 40
16.0
 40
16.0
 40
16.0
 40
17.0
 40
17.0
 40
17.0
 40
18.0
 40
18.0
 40
18.0
 40
19.0
 40
19.0
 40
19.0
 40
20.0
 40
20.0
 40
20.0
 40
20.0
 10
164.3617808699461
 20
-251.3740004940172
 30
0.0
 10
164.5789295447507
 20
-252.0951881701607
 30
0.0
 10
164.8028392194452
 20
-252.8134044514481
 30
0.0
 10
165.0290097380518
 20
-253.5306302677836
 30
0.0
 10
165.1051248164291
 20
-253.7720668657593
 30
0.0
 10
165.1782254362567
 20
-254.0147953745419
 30
0.0
 10
165.2553740432795
 20
-254.2557798037351
 30
0.0
 10
165.5601142707967
 20
-255.2076596863097
 30
0.0
 10
165.8721968580667
 20
-256.1562451963264
 30
0.0
 10
166.1927199292757
 20
-257.1009549739223
 30
0.0
 10
166.2653683803209
 20
-257.3151537857177
 30
0.0
 10
166.3420217548677
 20
-257.5274362631494
 30
0.0
 10
166.4154668842439
 20
-257.7412475017027
 30
0.0
 10
166.6635137591819
 20
-258.4630811332497
 30
0.0
 10
166.9136922869514
 20
-259.1839242998446
 30
0.0
 10
167.1708686649252
 20
-259.9014300301883
 30
0.0
 10
167.3091246531177
 20
-260.2872807245363
 30
0.0
 10
167.4523544979169
 20
-260.6707198520446
 30
0.0
 10
167.5932373714169
 20
-261.0553216992792
 30
0.0
 10
167.7914380210526
 20
-261.5961801586166
 30
0.0
 10
167.9895956069949
 20
-262.1370816816476
 30
0.0
 10
168.1929638998585
 20
-262.6754209149114
 30
0.0
 10
168.3572088271178
 20
-263.1103642199242
 30
0.0
 10
168.5254156141851
 20
-263.5432619994927
 30
0.0
 10
168.6930195095425
 20
-263.9765258204564
 30
0.0
 10
168.8798728759238
 20
-264.4594420801013
 30
0.0
 10
169.0674152614021
 20
-264.9420138301977
 30
0.0
 10
169.2584242742124
 20
-265.4228415007046
 30
0.0
 10
169.4403253158336
 20
-265.8808669454686
 30
0.0
 10
169.6249393701494
 20
-266.3374497564981
 30
0.0
 10
169.8105869531108
 20
-266.7935803987453
 30
0.0
 10
169.9939952240068
 20
-267.2441127608287
 30
0.0
 10
170.1791045107986
 20
-267.6937192535007
 30
0.0
 10
170.3661516638009
 20
-268.1423568130673
 30
0.0
 10
170.5633403166379
 20
-268.6153899550389
 30
0.0
 10
170.7619285395158
 20
-269.0876264186795
 30
0.0
 10
170.9631221158543
 20
-269.5585494396663
 30
0.0
 10
171.1449370300884
 20
-269.9839756684012
 30
0.0
 10
171.3294864888639
 20
-270.4078516041676
 30
0.0
 10
171.5145527119622
 20
-270.8315122214662
 30
0.0
 10
171.7257801289015
 20
-271.3151605639017
 30
0.0
 10
171.9370721413813
 20
-271.7987227789501
 30
0.0
 10
172.1525413321369
 20
-272.2800887456267
 30
0.0
 10
172.3328920807897
 20
-272.6829280670862
 30
0.0
 10
172.5171400937102
 20
-273.0835926720208
 30
0.0
 10
172.7004191735255
 20
-273.4848171049717
 30
0.0
 10
172.8765496802089
 20
-273.8703878853115
 30
0.0
 10
173.048050839834
 20
-274.2584994235717
 30
0.0
 10
173.226894359212
 20
-274.6425414427899
 30
0.0
 10
173.226894359212
 20
-274.6425414427899
 30
0.0
 10
154.2148334780058
 20
-278.9054380006977
 30
0.0
 10
154.2148334780058
 20
-278.9054380006977
 30
0.0
 10
154.2148334780058
 20
-278.9054380006977
 30
0.0
 10
154.2148334780058
 20
-253.65293115751
 30
0.0
 10
154.2148334780058
 20
-253.65293115751
 30
0.0
 10
154.2148334780058
 20
-253.65293115751
 30
0.0
 10
164.2860318329641
 20
-251.1291833960966
 30
0.0
 10
164.2860318329641
 20
-251.1291833960966
 30
0.0
 10
164.3105566064498
 20
-251.2111120731052
 30
0.0
 10
164.3371269053798
 20
-251.292136412549
 30
0.0
 10
164.3617808699461
 20
-251.3740004940172
 30
0.0
  0
SPLINE
  5
A2
330
88
100
AcDbEntity
  8
Etch Layer
 62
   251
370
   140
100
AcDbSpline
210
0.0
220
0.0
230
1.0
 70
    11
 71
     3
 72
   182
 73
   178
 74
     0
 42
0.0000000001
 43
0.0000000001
 40
0.0
 40
0.0
 40
0.0
 40
0.0
 40
1.0
 40
1.0
 40
1.0
 40
2.0
 40
2.0
 40
2.0
 40
3.0
 40
3.0
 40
3.0
 40
4.0
 40
4.0
 40
4.0
 40
5.0
 40
5.0
 40
5.0
 40
6.0
 40
6.0
 40
6.0
 40
7.0
 40
7.0
 40
7.0
 40
8.0
 40
8.0
 40
8.0
 40
9.0
 40
9.0
 40
9.0
 40
10.0
 40
10.0
 40
10.0
 40
11.0
 40
11.0
 40
11.0
 40
12.0
 40
12.0
 40
12.0
 40
13.0
 40
13.0
 40
13.0
 40
14.0
 40
14.0
 40
14.0
 40
15.0
 40
15.0
 40
15.0
 40
16.0
 40
16.0
 40
16.0
 40
17.0
 40
17.0
 40
17.0
 40
18.0
 40
18.0
 40
18.0
 40
19.0
 40
19.0
 40
19.0
 40
20.0
 40
20.0
 40
20.0
 40
21.0
 40
21.0
 40
21.0
 40
22.0
 40
22.0
 40
22.0
 40
23.0
 40
23.0
 40
23.0
 40
24.0
 40
24.0
 40
24.0
 40
25.0
 40
25.0
 40
25.0
 40
26.0
 40
26.0
 40
26.0
 40
27.0
 40
27.0
 40
27.0
 40
28.0
 40
28.0
 40
28.0
 40
29.0
 40
29.0
 40
29.0
 40
30.0
 40
30.0
 40
30.0
 40
31.0
 40
31.0
 40
31.0
 40
32.0
 40
32.0
 40
32.0
 40
33.0
 40
33.0
 40
33.0
 40
34.0
 40
34.0
 40
34.0
 40
35.0
 40
35.0
 40
35.0
 40
36.0
 40
36.0
 40
36.0
 40
37.0
 40
37.0
 40
37.0
 40
38.0
 40
38.0
 40
38.0
 40
39.0
 40
39.0
 40
39.0
 40
40.0
 40
40.0
 40
40.0
 40
41.0
 40
41.0
 40
41.0
 40
42.0
 40
42.0
 40
42.0
 40
43.0
 40
43.0
 40
43.0
 40
44.0
 40
44.0
 40
44.0
 40
45.0
 40
45.0
 40
45.0
 40
46.0
 40
46.0
 40
46.0
 40
47.0
 40
47.0
 40
47.0
 40
48.0
 40
48.0
 40
48.0
 40
49.0
 40
49.0
 40
49.0
 40
50.0
 40
50.0
 40
50.0
 40
51.0
 40
51.0
 40
51.0
 40
52.0
 40
52.0
 40
52.0
 40
53.0
 40
53.0
 40
53.0
 40
54.0
 40
54.0
 40
54.0
 40
55.0
 40
55.0
 40
55.0
 40
56.0
 40
56.0
 40
56.0
 40
57.0
 40
57.0
 40
57.0
 40
58.0
 40
58.0
 40
58.0
 40
59.0
 40
59.0
 40
59.0
 40
59.0
 10
174.1237603732565
 20
-125.0024720696636
 30
0.0
 10
174.1237603732565
 20
-125.0024720696636
 30
0.0
 10
153.9757438513295
 20
-120.0172897114263
 30
0.0
 10
153.9757438513295
 20
-120.0172897114263
 30
0.0
 10
153.6071186344078
 20
-119.9259946810672
 30
0.0
 10
153.2171338254775
 20
-120.0095382465845
 30
0.0
 10
152.9180995373578
 20
-120.2436324848072
 30
0.0
 10
152.6190652492381
 20
-120.4775544682557
 30
0.0
 10
152.4443989081359
 20
-120.8361889082702
 30
0.0
 10
152.4443989081359
 20
-121.2158384307448
 30
0.0
 10
152.4443989081359
 20
-121.2158384307448
 30
0.0
 10
152.4443989081359
 20
-145.4370990041165
 30
0.0
 10
152.4443989081359
 20
-145.4370990041165
 30
0.0
 10
152.4443989081359
 20
-145.4370990041165
 30
0.0
 10
125.5938414604215
 20
-139.55167013189
 30
0.0
 10
125.5938414604215
 20
-139.55167013189
 30
0.0
 10
125.228661338985
 20
-139.4715716618579
 30
0.0
 10
124.8467725044451
 20
-139.5613163992487
 30
0.0
 10
124.5554896811672
 20
-139.7957551470199
 30
0.0
 10
124.2642068578893
 20
-140.0301938947912
 30
0.0
 10
124.094708160015
 20
-140.3838329463521
 30
0.0
 10
124.094708160015
 20
-140.7577980612759
 30
0.0
 10
124.094708160015
 20
-140.7577980612759
 30
0.0
 10
124.094708160015
 20
-173.215592920783
 30
0.0
 10
124.094708160015
 20
-173.215592920783
 30
0.0
 10
124.094708160015
 20
-173.215592920783
 30
0.0
 10
101.0187695807146
 20
-168.706651949688
 30
0.0
 10
101.0187695807146
 20
-168.706651949688
 30
0.0
 10
100.6565177904405
 20
-168.6358552374661
 30
0.0
 10
100.2818636564196
 20
-168.7307676180848
 30
0.0
 10
99.99695425978949
 20
-168.9653786206303
 30
0.0
 10
99.7122171179336
 20
-169.1998173684015
 30
0.0
 10
99.54719704419012
 20
-169.5494945601544
 30
0.0
 10
99.54719704419012
 20
-169.9184642866247
 30
0.0
 10
99.54719704419012
 20
-169.9184642866247
 30
0.0
 10
99.54719704419012
 20
-231.3738001002542
 30
0.0
 10
99.54719704419012
 20
-231.3738001002542
 30
0.0
 10
99.54719704419012
 20
-231.743114336273
 30
0.0
 10
99.71238937270785
 20
-232.0929637828001
 30
0.0
 10
99.99764327888655
 20
-232.3274025305714
 30
0.0
 10
100.2828971850652
 20
-232.5620135331169
 30
0.0
 10
100.6578958286346
 20
-232.656581404187
 30
0.0
 10
101.0203198736829
 20
-232.5852679276423
 30
0.0
 10
101.0203198736829
 20
-232.5852679276423
 30
0.0
 10
124.094708160015
 20
-228.0454933519544
 30
0.0
 10
124.094708160015
 20
-228.0454933519544
 30
0.0
 10
124.094708160015
 20
-228.0454933519544
 30
0.0
 10
124.094708160015
 20
-259.9179664885175
 30
0.0
 10
124.094708160015
 20
-259.9179664885175
 30
0.0
 10
124.094708160015
 20
-260.3005443421545
 30
0.0
 10
124.2719583227311
 20
-260.6614180942344
 30
0.0
 10
124.5747822158846
 20
-260.8951678229086
 30
0.0
 10
124.877606109038
 20
-261.129089806357
 30
0.0
 10
125.2715527777764
 20
-261.2093605311634
 30
0.0
 10
125.6417282876665
 20
-261.1125533480278
 30
0.0
 10
125.6417282876665
 20
-261.1125533480278
 30
0.0
 10
151.7453890341788
 20
-254.288508210845
 30
0.0
 10
151.7453890341788
 20
-254.288508210845
 30
0.0
 10
151.7453890341788
 20
-254.288508210845
 30
0.0
 10
151.7453890341788
 20
-280.4476349946698
 30
0.0
 10
151.7453890341788
 20
-280.4476349946698
 30
0.0
 10
151.7453890341788
 20
-280.8226336382393
 30
0.0
 10
151.9157490059243
 20
-281.1771339636715
 30
0.0
 10
152.2084098673963
 20
-281.4115727114427
 30
0.0
 10
152.5010707288683
 20
-281.6458392044397
 30
0.0
 10
152.8843376016024
 20
-281.7345504131849
 30
0.0
 10
153.2502067421359
 20
-281.6523848858617
 30
0.0
 10
153.2502067421359
 20
-281.6523848858617
 30
0.0
 10
174.3131114338645
 20
-276.9296111443666
 30
0.0
 10
174.3131114338645
 20
-276.9296111443666
 30
0.0
 10
174.3131114338645
 20
-276.9296111443666
 30
0.0
 10
174.3174178032211
 20
-276.9261445170346
 30
0.0
 10
174.3174178032211
 20
-276.9261445170346
 30
0.0
 10
176.0305130651083
 20
-280.469123777759
 30
0.0
 10
177.8557031213469
 20
-283.9475505618287
 30
0.0
 10
179.7955933253975
 20
-287.3522092388204
 30
0.0
 10
179.7955933253975
 20
-287.3522092388204
 30
0.0
 10
206.3012751831917
 20
-271.9962559413356
 30
0.0
 10
206.3012751831917
 20
-271.9962559413356
 30
0.0
 10
206.1397863323206
 20
-271.5105620734557
 30
0.0
 10
206.0489434707439
 20
-270.9926780946355
 30
0.0
 10
206.0489434707439
 20
-270.4527670365566
 30
0.0
 10
206.0489434707439
 20
-267.7501326920716
 30
0.0
 10
208.2398734764353
 20
-265.5592026863802
 30
0.0
 10
210.9425078209203
 20
-265.5592026863802
 30
0.0
 10
212.3925915743555
 20
-265.5592026863802
 30
0.0
 10
213.6913710404479
 20
-266.193617019989
 30
0.0
 10
214.5874619080082
 20
-267.1956876374142
 30
0.0
 10
214.5874619080082
 20
-267.1956876374142
 30
0.0
 10
223.6685398205057
 20
-261.9346177263488
 30
0.0
 10
223.6685398205057
 20
-261.9346177263488
 30
0.0
 10
223.6685398205057
 20
-261.9346177263488
 30
0.0
 10
163.2526969740102
 20
-201.5187748798534
 30
0.0
 10
163.2526969740102
 20
-201.5187748798534
 30
0.0
 10
162.8554774645609
 20
-201.1215553704041
 30
0.0
 10
162.8554774645609
 20
-200.4189281461874
 30
0.0
 10
163.2526969740102
 20
-200.0220531462866
 30
0.0
 10
163.2526969740102
 20
-200.0220531462866
 30
0.0
 10
215.8505200402879
 20
-147.4242300800086
 30
0.0
 10
215.8505200402879
 20
-147.4242300800086
 30
0.0
 10
215.8505200402879
 20
-147.4242300800086
 30
0.0
 10
165.2112337573748
 20
-147.4242300800086
 30
0.0
 10
165.2112337573748
 20
-147.4242300800086
 30
0.0
 10
165.1816920635888
 20
-147.5167739574811
 30
0.0
 10
165.1545619366424
 20
-147.6104159591396
 30
0.0
 10
165.1251709657839
 20
-147.7030244321525
 30
0.0
 10
165.0823010588393
 20
-147.8380937070211
 30
0.0
 10
165.0369334576679
 20
-147.9720217940101
 30
0.0
 10
164.9943865284251
 20
-148.1072417918062
 30
0.0
 10
164.9943865284251
 20
-148.1072417918062
 30
0.0
 10
154.913843351963
 20
-145.9712610591045
 30
0.0
 10
154.913843351963
 20
-145.9712610591045
 30
0.0
 10
154.913843351963
 20
-145.9712610591045
 30
0.0
 10
154.913843351963
 20
-122.7933476534407
 30
0.0
 10
154.913843351963
 20
-122.7933476534407
 30
0.0
 10
154.913843351963
 20
-122.7933476534407
 30
0.0
 10
173.0511298939239
 20
-127.2809720962207
 30
0.0
 10
173.0511298939239
 20
-127.2809720962207
 30
0.0
 10
172.9268265424467
 20
-127.5495818848362
 30
0.0
 10
172.8074324520361
 20
-127.8209046861464
 30
0.0
 10
172.6844640750594
 20
-128.0902680893994
 30
0.0
 10
172.5769986277664
 20
-128.3256973021227
 30
0.0
 10
172.4657220435928
 20
-128.5590163938612
 30
0.0
 10
172.3592685930986
 20
-128.7950054346008
 30
0.0
 10
172.2669185022471
 20
-128.9997302338118
 30
0.0
 10
172.1775613380985
 20
-129.2060914533783
 30
0.0
 10
172.0859648618844
 20
-129.4112468895249
 30
0.0
 10
171.966743026248
 20
-129.6782417896318
 30
0.0
 10
171.848167146015
 20
-129.9455381355936
 30
0.0
 10
171.7302587530324
 20
-130.2132435866443
 30
0.0
 10
171.49067389388
 20
-130.757245695612
 30
0.0
 10
171.2542757480515
 20
-131.3029488204756
 30
0.0
 10
171.0200738505949
 20
-131.849857728759
 30
0.0
 10
170.9159889032468
 20
-132.0928876833966
 30
0.0
 10
170.810784299866
 20
-132.3353147463243
 30
0.0
 10
170.7077544130102
 20
-132.578926060825
 30
0.0
 10
170.3808579151536
 20
-133.3520054877151
 30
0.0
 10
170.0580094044921
 20
-134.1272596311302
 30
0.0
 10
169.7419434255672
 20
-134.9060019337241
 30
0.0
 10
169.7052531586493
 20
-134.9963926265184
 30
0.0
 10
169.6700701210062
 20
-135.0875154021032
 30
0.0
 10
169.6335305770157
 20
-135.1779706904378
 30
0.0
 10
169.3530567408228
 20
-135.8723296854899
 30
0.0
 10
169.0770615287608
 20
-136.568971056301
 30
0.0
 10
168.8052650268213
 20
-137.2677225480968
 30
0.0
 10
168.6999312323598
 20
-137.5384855213907
 30
0.0
 10
168.5967936862701
 20
-137.8103035551769
 30
0.0
 10
168.4927948663092
 20
-138.0817124838742
 30
0.0
 10
168.2891681912841
 20
-138.6130969306272
 30
0.0
 10
168.0876731690906
 20
-139.145493374179
 30
0.0
 10
167.8890849462127
 20
-139.6793539833121
 30
0.0
 10
167.7800907377981
 20
-139.9723808861793
 30
0.0
 10
167.671548698166
 20
-140.2656446393612
 30
0.0
 10
167.5640832508729
 20
-140.5594036250191
 30
0.0
 10
167.3622437191309
 20
-141.1111571988287
 30
0.0
 10
167.1638062191805
 20
-141.6645471929937
 30
0.0
 10
166.9673496491341
 20
-142.218906120264
 30
0.0
 10
166.877346529582
 20
-142.4728742530672
 30
0.0
 10
166.7859223081421
 20
-142.7261318349266
 30
0.0
 10
166.6970603764695
 20
-142.9806382638995
 30
0.0
 10
166.4270294859662
 20
-143.7539976047977
 30
0.0
 10
166.1610681145049
 20
-144.5292732800596
 30
0.0
 10
165.9016308926188
 20
-145.3075634138711
 30
0.0
 10
165.9016308926188
 20
-145.3075634138711
 30
0.0
 10
217.9671867064254
 20
-145.3075634138711
 30
0.0
 10
217.9671867064254
 20
-145.3075634138711
 30
0.0
 10
217.9671867064254
 20
-145.3075634138711
 30
0.0
 10
255.3487120334516
 20
-107.926038086845
 30
0.0
 10
255.3487120334516
 20
-107.926038086845
 30
0.0
 10
255.3487120334516
 20
-107.926038086845
 30
0.0
 10
183.5378282962502
 20
-107.926038086845
 30
0.0
 10
183.5378282962502
 20
-107.926038086845
 30
0.0
 10
180.0958549287838
 20
-113.4204055578021
 30
0.0
 10
176.9562532856885
 20
-119.1232013056169
 30
0.0
 10
174.1304352457591
 20
-125.0058741014552
 30
0.0
 10
174.1304352457591
 20
-125.0058741014552
 30
0.0
 10
174.1237603732565
 20
-125.0024720696636
 30
0.0
 10
174.1237603732565
 20
-125.0024720696636
 30
0.0
  0
SPLINE
  5
A3
330
88
100
AcDbEntity
  8
Etch Layer
 62
   251
370
   140
100
AcDbSpline
210
0.0
220
0.0
230
1.0
 70
     9
 71
     3
 72
    50
 73
    46
 74
     0
 42
0.0000000001
 43
0.0000000001
 40
0.0
 40
0.0
 40
0.0
 40
0.0
 40
1.0
 40
1.0
 40
1.0
 40
2.0
 40
2.0
 40
2.0
 40
3.0
 40
3.0
 40
3.0
 40
4.0
 40
4.0
 40
4.0
 40
5.0
 40
5.0
 40
5.0
 40
6.0
 40
6.0
 40
6.0
 40
7.0
 40
7.0
 40
7.0
 40
8.0
 40
8.0
 40
8.0
 40
9.0
 40
9.0
 40
9.0
 40
10.0
 40
10.0
 40
10.0
 40
11.0
 40
11.0
 40
11.0
 40
12.0
 40
12.0
 40
12.0
 40
13.0
 40
13.0
 40
13.0
 40
14.0
 40
14.0
 40
14.0
 40
15.0
 40
15.0
 40
15.0
 40
15.0
 10
402.1486016248424
 20
-326.6891707632744
 30
0.0
 10
399.445945748512
 20
-326.6891707632744
 30
0.0
 10
397.2550372746674
 20
-324.4982622894297
 30
0.0
 10
397.2550372746674
 20
-321.7956064130981
 30
0.0
 10
397.2550372746674
 20
-320.3799090189749
 30
0.0
 10
397.8598022552549
 20
-319.1084965301435
 30
0.0
 10
398.8207685771731
 20
-318.2149679523504
 30
0.0
 10
398.8207685771731
 20
-318.2149679523504
 30
0.0
 10
393.6434575500928
 20
-309.2600020664598
 30
0.0
 10
393.6434575500928
 20
-309.2600020664598
 30
0.0
 10
393.6434575500928
 20
-309.2600020664598
 30
0.0
 10
333.0671378495251
 20
-369.8363217670275
 30
0.0
 10
333.0671378495251
 20
-369.8363217670275
 30
0.0
 10
332.6537263912958
 20
-370.2497332252575
 30
0.0
 10
331.9836553194146
 20
-370.2497332252575
 30
0.0
 10
331.5702438611847
 20
-369.8363217670275
 30
0.0
 10
331.5702438611847
 20
-369.8363217670275
 30
0.0
 10
270.4957848852963
 20
-308.7618627911394
 30
0.0
 10
270.4957848852963
 20
-308.7618627911394
 30
0.0
 10
270.4957848852963
 20
-308.7618627911394
 30
0.0
 10
265.1162252213851
 20
-318.0608645249258
 30
0.0
 10
265.1162252213851
 20
-318.0608645249258
 30
0.0
 10
266.1766040798982
 20
-318.9585056854544
 30
0.0
 10
266.8514982854587
 20
-320.2975066413371
 30
0.0
 10
266.8514982854587
 20
-321.7956064130981
 30
0.0
 10
266.8514982854587
 20
-324.4982622894297
 30
0.0
 10
264.6605898116141
 20
-326.6891707632744
 30
0.0
 10
261.9579339352823
 20
-326.6891707632744
 30
0.0
 10
261.3734304225161
 20
-326.6891707632744
 30
0.0
 10
260.8154326131395
 20
-326.5813823382796
 30
0.0
 10
260.2957830228832
 20
-326.3934093158657
 30
0.0
 10
260.2957830228832
 20
-326.3934093158657
 30
0.0
 10
245.0520967745239
 20
-352.7434374532675
 30
0.0
 10
245.0520967745239
 20
-352.7434374532675
 30
0.0
 10
270.6471107044859
 20
-367.3963113577512
 30
0.0
 10
300.3083708356886
 20
-375.7703480174441
 30
0.0
 10
331.9448118678185
 20
-375.7703480174441
 30
0.0
 10
363.5645011231507
 20
-375.7703480174441
 30
0.0
 10
393.2109904074601
 20
-367.4050102238528
 30
0.0
 10
418.7967456433047
 20
-352.7665411248635
 30
0.0
 10
418.7967456433047
 20
-352.7665411248635
 30
0.0
 10
403.5943359452274
 20
-326.4715914515341
 30
0.0
 10
403.5943359452274
 20
-326.4715914515341
 30
0.0
 10
403.1373440291091
 20
-326.6127327071954
 30
0.0
 10
402.6519300752374
 20
-326.6891707632744
 30
0.0
 10
402.1486016248424
 20
-326.6891707632744
 30
0.0
  0
SPLINE
  5
A4
330
88
100
AcDbEntity
  8
Etch Layer
 62
   251
370
   140
100
AcDbSpline
210
0.0
220
0.0
230
1.0
 70
     9
 71
     3
 72
    17
 73
    13
 74
     0
 42
0.0000000001
 43
0.0000000001
 40
0.0
 40
0.0
 40
0.0
 40
0.0
 40
1.0
 40
1.0
 40
1.0
 40
2.0
 40
2.0
 40
2.0
 40
3.0
 40
3.0
 40
3.0
 40
4.0
 40
4.0
 40
4.0
 40
4.0
 10
362.8464570966376
 20
-219.4913427939258
 30
0.0
 10
359.9236596187984
 20
-224.3386352053659
 30
0.0
 10
355.8929194329029
 20
-228.4448445142352
 30
0.0
 10
351.107767931278
 20
-231.4591092772077
 30
0.0
 10
351.107767931278
 20
-231.4591092772077
 30
0.0
 10
394.0959277783869
 20
-305.8141529665725
 30
0.0
 10
394.0959277783869
 20
-305.8141529665725
 30
0.0
 10
394.0959277783869
 20
-305.8141529665725
 30
0.0
 10
437.3843061651884
 20
-262.5258176434645
 30
0.0
 10
437.3843061651884
 20
-262.5258176434645
 30
0.0
 10
437.3843061651884
 20
-262.5258176434645
 30
0.0
 10
362.8464570966376
 20
-219.4913427939258
 30
0.0
 10
362.8464570966376
 20
-219.4913427939258
 30
0.0
  0
SPLINE
  5
A5
330
88
100
AcDbEntity
  8
Etch Layer
 62
   251
370
   140
100
AcDbSpline
210
0.0
220
0.0
230
1.0
 70
     9
 71
     3
 72
    68
 73
    64
 74
     0
 42
0.0000000001
 43
0.0000000001
 40
0.0
 40
0.0
 40
0.0
 40
0.0
 40
1.0
 40
1.0
 40
1.0
 40
2.0
 40
2.0
 40
2.0
 40
3.0
 40
3.0
 40
3.0
 40
4.0
 40
4.0
 40
4.0
 40
5.0
 40
5.0
 40
5.0
 40
6.0
 40
6.0
 40
6.0
 40
7.0
 40
7.0
 40
7.0
 40
8.0
 40
8.0
 40
8.0
 40
9.0
 40
9.0
 40
9.0
 40
10.0
 40
10.0
 40
10.0
 40
11.0
 40
11.0
 40
11.0
 40
12.0
 40
12.0
 40
12.0
 40
13.0
 40
13.0
 40
13.0
 40
14.0
 40
14.0
 40
14.0
 40
15.0
 40
15.0
 40
15.0
 40
16.0
 40
16.0
 40
16.0
 40
17.0
 40
17.0
 40
17.0
 40
18.0
 40
18.0
 40
18.0
 40
19.0
 40
19.0
 40
19.0
 40
20.0
 40
20.0
 40
20.0
 40
21.0
 40
21.0
 40
21.0
 40
21.0
 10
331.9448979952056
 20
-166.9865157739028
 30
0.0
 10
313.2294167715859
 20
-166.9865157739028
 30
0.0
 10
298.0031282554268
 20
-182.2126320352872
 30
0.0
 10
298.0031282554268
 20
-200.9281132589073
 30
0.0
 10
298.0031282554268
 20
-206.5914411315692
 30
0.0
 10
299.3993393282115
 20
-211.9340736782478
 30
0.0
 10
301.8626041320122
 20
-216.6332054519754
 30
0.0
 10
301.8626041320122
 20
-216.6332054519754
 30
0.0
 10
310.3182464910094
 20
-211.7344734585712
 30
0.0
 10
310.3182464910094
 20
-211.7344734585712
 30
0.0
 10
308.7291316028975
 20
-208.5672249242067
 30
0.0
 10
307.8160521082257
 20
-205.0066756765075
 30
0.0
 10
307.7680576217468
 20
-201.2395714226207
 30
0.0
 10
307.7657106504474
 20
-201.2133241013924
 30
0.0
 10
307.7601554339775
 20
-201.1880241814226
 30
0.0
 10
307.7601554339775
 20
-201.1611739684845
 30
0.0
 10
307.7601554339775
 20
-201.1220936665737
 30
0.0
 10
307.7629115103657
 20
-201.0836808519131
 30
0.0
 10
307.7631052969867
 20
-201.0446436136959
 30
0.0
 10
307.7629115103657
 20
-201.0056063754787
 30
0.0
 10
307.7601554339775
 20
-200.9671935608181
 30
0.0
 10
307.7601554339775
 20
-200.9281132589073
 30
0.0
 10
307.7601554339775
 20
-200.9281132589073
 30
0.0
 10
307.7660766918428
 20
-200.9281132589073
 30
0.0
 10
307.7660766918428
 20
-200.9281132589073
 30
0.0
 10
307.8343326461443
 20
-193.7693770953321
 30
0.0
 10
311.0284098616001
 20
-187.3483004706895
 30
0.0
 10
316.0466436046489
 20
-182.9595933320297
 30
0.0
 10
316.0466436046489
 20
-182.9595933320297
 30
0.0
 10
316.0466436046489
 20
-182.8022601275877
 30
0.0
 10
316.0466436046489
 20
-182.8022601275877
 30
0.0
 10
316.0466436046489
 20
-182.8022601275877
 30
0.0
 10
316.2282216685684
 20
-182.8022601275877
 30
0.0
 10
316.2282216685684
 20
-182.8022601275877
 30
0.0
 10
320.4589281155358
 20
-179.1752420688699
 30
0.0
 10
325.9483863254265
 20
-176.9766036620303
 30
0.0
 10
331.9448979952056
 20
-176.9766036620303
 30
0.0
 10
345.2020129956884
 20
-176.9766036620303
 30
0.0
 10
355.9974134853399
 20
-187.7000877834274
 30
0.0
 10
356.1235470437936
 20
-200.9281132589073
 30
0.0
 10
356.1235470437936
 20
-200.9281132589073
 30
0.0
 10
356.1294683016588
 20
-200.9281132589073
 30
0.0
 10
356.1294683016588
 20
-200.9281132589073
 30
0.0
 10
356.1294683016588
 20
-200.9671935608181
 30
0.0
 10
356.1267122252707
 20
-201.0056063754787
 30
0.0
 10
356.1265184386495
 20
-201.0446436136959
 30
0.0
 10
356.1267122252707
 20
-201.0836808519131
 30
0.0
 10
356.1294683016588
 20
-201.1220936665737
 30
0.0
 10
356.1294683016588
 20
-201.1611739684845
 30
0.0
 10
356.1294683016588
 20
-201.1880241814226
 30
0.0
 10
356.1239130851888
 20
-201.2133241013924
 30
0.0
 10
356.1215661138895
 20
-201.2395714226207
 30
0.0
 10
356.0737223503381
 20
-204.9936704410507
 30
0.0
 10
355.1670808778543
 20
-208.5428508736486
 30
0.0
 10
353.5881074895772
 20
-211.701874242542
 30
0.0
 10
353.5881074895772
 20
-211.701874242542
 30
0.0
 10
362.0508768898595
 20
-216.5878593826508
 30
0.0
 10
362.0508768898595
 20
-216.5878593826508
 30
0.0
 10
364.4992847193797
 20
-211.899751914476
 30
0.0
 10
365.8863232254349
 20
-206.5732036573441
 30
0.0
 10
365.8863232254349
 20
-200.9281132589073
 30
0.0
 10
365.8863232254349
 20
-182.2126320352872
 30
0.0
 10
350.6603792188247
 20
-166.9865157739028
 30
0.0
 10
331.9448979952056
 20
-166.9865157739028
 30
0.0
  0
SPLINE
  5
A6
330
88
100
AcDbEntity
  8
Etch Layer
 62
   251
370
   140
100
AcDbSpline
210
0.0
220
0.0
230
1.0
 70
     9
 71
     3
 72
    44
 73
    40
 74
     0
 42
0.0000000001
 43
0.0000000001
 40
0.0
 40
0.0
 40
0.0
 40
0.0
 40
1.0
 40
1.0
 40
1.0
 40
2.0
 40
2.0
 40
2.0
 40
3.0
 40
3.0
 40
3.0
 40
4.0
 40
4.0
 40
4.0
 40
5.0
 40
5.0
 40
5.0
 40
6.0
 40
6.0
 40
6.0
 40
7.0
 40
7.0
 40
7.0
 40
8.0
 40
8.0
 40
8.0
 40
9.0
 40
9.0
 40
9.0
 40
10.0
 40
10.0
 40
10.0
 40
11.0
 40
11.0
 40
11.0
 40
12.0
 40
12.0
 40
12.0
 40
13.0
 40
13.0
 40
13.0
 40
13.0
 10
453.5411149719131
 20
-275.5430894026342
 30
0.0
 10
450.8384590955826
 20
-275.5430894026342
 30
0.0
 10
448.647550621738
 20
-273.3521593969428
 30
0.0
 10
448.647550621738
 20
-270.6495250524579
 30
0.0
 10
448.647550621738
 20
-270.1308013316132
 30
0.0
 10
448.7296730853644
 20
-269.6315639321069
 30
0.0
 10
448.879233293121
 20
-269.1624065225562
 30
0.0
 10
448.879233293121
 20
-269.1624065225562
 30
0.0
 10
439.2820154813896
 20
-263.6214441351611
 30
0.0
 10
439.2820154813896
 20
-263.6214441351611
 30
0.0
 10
439.2820154813896
 20
-263.6214441351611
 30
0.0
 10
395.1925447350335
 20
-307.7109148815172
 30
0.0
 10
395.1925447350335
 20
-307.7109148815172
 30
0.0
 10
395.1925447350335
 20
-307.7109148815172
 30
0.0
 10
400.6439992353556
 20
-317.1401196927992
 30
0.0
 10
400.6439992353556
 20
-317.1401196927992
 30
0.0
 10
401.1183027562862
 20
-316.9869206029395
 30
0.0
 10
401.6232891588828
 20
-316.9020420629217
 30
0.0
 10
402.1486016248424
 20
-316.9020420629217
 30
0.0
 10
404.8512359693286
 20
-316.9020420629217
 30
0.0
 10
407.0421659750214
 20
-319.092972068613
 30
0.0
 10
407.0421659750214
 20
-321.7956064130981
 30
0.0
 10
407.0421659750214
 20
-323.2338476508027
 30
0.0
 10
406.417893141246
 20
-324.5230669769235
 30
0.0
 10
405.4300550745429
 20
-325.4184042298464
 30
0.0
 10
405.4300550745429
 20
-325.4184042298464
 30
0.0
 10
420.6272755975474
 20
-351.7044827823013
 30
0.0
 10
420.6272755975474
 20
-351.7044827823013
 30
0.0
 10
446.47466430365
 20
-336.4977667148695
 30
0.0
 10
468.0592210473857
 20
-314.8399801602254
 30
0.0
 10
483.1800896416958
 20
-288.9360488244705
 30
0.0
 10
483.1083670600616
 20
-288.913289662421
 30
0.0
 10
483.0378071981551
 20
-288.8838771597157
 30
0.0
 10
482.9699603489398
 20
-288.8447107304178
 30
0.0
 10
482.9699603489398
 20
-288.8447107304178
 30
0.0
 10
457.1552139225625
 20
-273.9405386421299
 30
0.0
 10
457.1552139225625
 20
-273.9405386421299
 30
0.0
 10
456.2601996473388
 20
-274.9228214923618
 30
0.0
 10
454.974705330714
 20
-275.5430894026342
 30
0.0
 10
453.5411149719131
 20
-275.5430894026342
 30
0.0
  0
SPLINE
  5
A7
330
88
100
AcDbEntity
  8
Etch Layer
 62
   251
370
   140
100
AcDbSpline
210
0.0
220
0.0
230
1.0
 70
     9
 71
     3
 72
    14
 73
    10
 74
     0
 42
0.0000000001
 43
0.0000000001
 40
0.0
 40
0.0
 40
0.0
 40
0.0
 40
1.0
 40
1.0
 40
1.0
 40
2.0
 40
2.0
 40
2.0
 40
3.0
 40
3.0
 40
3.0
 40
3.0
 10
498.5132837771305
 20
-146.9179732984515
 30
0.0
 10
498.3399093468334
 20
-146.3803876798254
 30
0.0
 10
498.1664272573069
 20
-145.8428451248921
 30
0.0
 10
497.9879713111709
 20
-145.3075634138715
 30
0.0
 10
498.1667717668554
 20
-145.8438571216909
 30
0.0
 10
498.3405983659305
 20
-146.3824116734226
 30
0.0
 10
498.5142742420839
 20
-146.9210523525414
 30
0.0
 10
498.5139727962276
 20
-146.9200188238958
 30
0.0
 10
498.5136282866791
 20
-146.9190068270971
 30
0.0
 10
498.5132837771305
 20
-146.9179732984515
 30
0.0
  0
SPLINE
  5
A8
330
88
100
AcDbEntity
  8
Etch Layer
 62
   251
370
   140
100
AcDbSpline
210
0.0
220
0.0
230
1.0
 70
     9
 71
     3
 72
    35
 73
    31
 74
     0
 42
0.0000000001
 43
0.0000000001
 40
0.0
 40
0.0
 40
0.0
 40
0.0
 40
1.0
 40
1.0
 40
1.0
 40
2.0
 40
2.0
 40
2.0
 40
3.0
 40
3.0
 40
3.0
 40
4.0
 40
4.0
 40
4.0
 40
5.0
 40
5.0
 40
5.0
 40
6.0
 40
6.0
 40
6.0
 40
7.0
 40
7.0
 40
7.0
 40
8.0
 40
8.0
 40
8.0
 40
9.0
 40
9.0
 40
9.0
 40
10.0
 40
10.0
 40
10.0
 40
10.0
 10
467.7402267372959
 20
-209.9115442462448
 30
0.0
 10
465.2559683828822
 20
-212.3678973272279
 30
0.0
 10
462.2146380885036
 20
-213.5953848486225
 30
0.0
 10
458.6165803637087
 20
-213.5953848486225
 30
0.0
 10
455.7037521309299
 20
-213.5953848486225
 30
0.0
 10
453.105805625503
 20
-212.7106843280103
 30
0.0
 10
450.8206737901368
 20
-210.9395607390434
 30
0.0
 10
450.8206737901368
 20
-210.9395607390434
 30
0.0
 10
438.6987608157368
 20
-201.5589102422566
 30
0.0
 10
438.6987608157368
 20
-201.5589102422566
 30
0.0
 10
438.6987608157368
 20
-201.5589102422566
 30
0.0
 10
438.6987608157368
 20
-200.0168855030588
 30
0.0
 10
438.6987608157368
 20
-200.0168855030588
 30
0.0
 10
438.6987608157368
 20
-200.0168855030588
 30
0.0
 10
447.2656797589076
 20
-206.6562735222322
 30
0.0
 10
447.2656797589076
 20
-206.6562735222322
 30
0.0
 10
446.3520404362193
 20
-204.9147777544384
 30
0.0
 10
445.8948762653267
 20
-202.958308028365
 30
0.0
 10
445.8948762653267
 20
-200.7878978726576
 30
0.0
 10
445.8948762653267
 20
-198.3322338107709
 30
0.0
 10
446.5522004839122
 20
-196.0481355040506
 30
0.0
 10
447.865126373341
 20
-193.9345694238498
 30
0.0
 10
447.865126373341
 20
-193.9345694238498
 30
0.0
 10
469.5392555996932
 20
-193.9345694238501
 30
0.0
 10
469.5392555996932
 20
-193.9345694238501
 30
0.0
 10
470.8242762156915
 20
-195.9906024094472
 30
0.0
 10
471.4667865236906
 20
-198.2895146267544
 30
0.0
 10
471.4667865236906
 20
-200.8309615662233
 30
0.0
 10
471.4667865236906
 20
-204.4290192910182
 30
0.0
 10
470.2244850917095
 20
-207.4558801843587
 30
0.0
 10
467.7402267372959
 20
-209.9115442462448
 30
0.0
  0
SPLINE
  5
A9
330
88
100
AcDbEntity
  8
Etch Layer
 62
   251
370
   140
100
AcDbSpline
210
0.0
220
0.0
230
1.0
 70
     9
 71
     3
 72
    20
 73
    16
 74
     0
 42
0.0000000001
 43
0.0000000001
 40
0.0
 40
0.0
 40
0.0
 40
0.0
 40
1.0
 40
1.0
 40
1.0
 40
2.0
 40
2.0
 40
2.0
 40
3.0
 40
3.0
 40
3.0
 40
4.0
 40
4.0
 40
4.0
 40
5.0
 40
5.0
 40
5.0
 40
5.0
 10
448.422198313306
 20
-193.1204933606853
 30
0.0
 10
449.6500303442489
 20
-191.4930302534532
 30
0.0
 10
451.1565705999487
 20
-190.2293692294636
 30
0.0
 10
452.9411300613081
 20
-189.3298547982649
 30
0.0
 10
454.7260340322161
 20
-188.4303403670661
 30
0.0
 10
456.6463302556943
 20
-187.9804108966925
 30
0.0
 10
458.7023632412914
 20
-187.9804108966925
 30
0.0
 10
460.7583962268885
 20
-187.9804108966925
 30
0.0
 10
462.6859271508858
 20
-188.4303403670661
 30
0.0
 10
464.4849560132833
 20
-189.3298547982649
 30
0.0
 10
466.2839848756807
 20
-190.2293692294639
 30
0.0
 10
467.7829459213129
 20
-191.4930302534536
 30
0.0
 10
468.9825281692769
 20
-193.1204933606856
 30
0.0
 10
468.9825281692769
 20
-193.1204933606856
 30
0.0
 10
448.422198313306
 20
-193.1204933606853
 30
0.0
 10
448.422198313306
 20
-193.1204933606853
 30
0.0
  0
SPLINE
  5
AA
330
88
100
AcDbEntity
  8
Etch Layer
 62
   251
370
   140
100
AcDbSpline
210
0.0
220
0.0
230
1.0
 70
    11
 71
     3
 72
    56
 73
    52
 74
     0
 42
0.0000000001
 43
0.0000000001
 40
0.0
 40
0.0
 40
0.0
 40
0.0
 40
1.0
 40
1.0
 40
1.0
 40
2.0
 40
2.0
 40
2.0
 40
3.0
 40
3.0
 40
3.0
 40
4.0
 40
4.0
 40
4.0
 40
5.0
 40
5.0
 40
5.0
 40
6.0
 40
6.0
 40
6.0
 40
7.0
 40
7.0
 40
7.0
 40
8.0
 40
8.0
 40
8.0
 40
9.0
 40
9.0
 40
9.0
 40
10.0
 40
10.0
 40
10.0
 40
11.0
 40
11.0
 40
11.0
 40
12.0
 40
12.0
 40
12.0
 40
13.0
 40
13.0
 40
13.0
 40
14.0
 40
14.0
 40
14.0
 40
15.0
 40
15.0
 40
15.0
 40
16.0
 40
16.0
 40
16.0
 40
17.0
 40
17.0
 40
17.0
 40
17.0
 10
225.8378518520272
 20
-194.3443635318203
 30
0.0
 10
225.8378518520272
 20
-194.3443635318203
 30
0.0
 10
225.8378518520272
 20
-200.1696754878296
 30
0.0
 10
225.8378518520272
 20
-200.1696754878296
 30
0.0
 10
225.8378518520272
 20
-200.1696754878296
 30
0.0
 10
200.5656649008799
 20
-183.9353520326864
 30
0.0
 10
200.5656649008799
 20
-183.9353520326864
 30
0.0
 10
198.5671650098865
 20
-184.9354632520544
 30
0.0
 10
197.0179055701697
 20
-186.3489859296525
 30
0.0
 10
195.9182310912779
 20
-188.1759200654804
 30
0.0
 10
194.8192456314832
 20
-190.003887729954
 30
0.0
 10
194.2690638824888
 20
-192.0599207155511
 30
0.0
 10
194.2690638824888
 20
-194.3443635318203
 30
0.0
 10
194.2690638824888
 20
-197.5713844728538
 30
0.0
 10
195.3900979533891
 20
-200.3054122499484
 30
0.0
 10
197.6314770760927
 20
-202.546791372652
 30
0.0
 10
199.8737174726675
 20
-204.789204024001
 30
0.0
 10
202.6077452497618
 20
-205.9095490758043
 30
0.0
 10
205.8342494264725
 20
-205.9095490758043
 30
0.0
 10
207.9190489593715
 20
-205.9095490758043
 30
0.0
 10
209.853986838662
 20
-205.3886506384345
 30
0.0
 10
211.6383740452472
 20
-204.3458202350494
 30
0.0
 10
213.4232780161551
 20
-203.3040233603098
 30
0.0
 10
214.8442076490464
 20
-201.8829214726443
 30
0.0
 10
215.9003016700498
 20
-200.0838926102468
 30
0.0
 10
215.9003016700498
 20
-200.0838926102468
 30
0.0
 10
216.9712096016397
 20
-200.726402918246
 30
0.0
 10
216.9712096016397
 20
-200.726402918246
 30
0.0
 10
215.77179960845
 20
-202.8399689984467
 30
0.0
 10
214.151571201737
 20
-204.4316031126321
 30
0.0
 10
212.1094908528551
 20
-205.5023387894478
 30
0.0
 10
210.0680995230703
 20
-206.573418975812
 30
0.0
 10
207.7905468977716
 20
-207.1087868142198
 30
0.0
 10
205.2775219960561
 20
-207.1087868142198
 30
0.0
 10
204.2782720505595
 20
-207.1087868142198
 30
0.0
 10
203.1076286046715
 20
-206.8945018750372
 30
0.0
 10
201.7650748940697
 20
-206.4662765062207
 30
0.0
 10
199.0524067089839
 20
-205.609481259039
 30
0.0
 10
196.9181700558717
 20
-204.0247373358242
 30
0.0
 10
195.3613314060873
 20
-201.7117002270274
 30
0.0
 10
193.8051817753999
 20
-199.3986631182306
 30
0.0
 10
193.026934705282
 20
-196.7859027022168
 30
0.0
 10
193.026934705282
 20
-193.8730744694381
 30
0.0
 10
193.026934705282
 20
-190.4751767923362
 30
0.0
 10
194.3119553212802
 20
-187.5695832600765
 30
0.0
 10
196.8819965532765
 20
-185.1562938726589
 30
0.0
 10
199.4520377852729
 20
-182.74334899479
 30
0.0
 10
202.4504766408601
 20
-181.5086267728764
 30
0.0
 10
205.8771408652639
 20
-181.4510936782727
 30
0.0
 10
205.8771408652639
 20
-181.4510936782727
 30
0.0
 10
225.8378518520272
 20
-194.3443635318203
 30
0.0
 10
225.8378518520272
 20
-194.3443635318203
 30
0.0
  0
SPLINE
  5
AB
330
88
100
AcDbEntity
  8
Etch Layer
 62
   251
370
   140
100
AcDbSpline
210
0.0
220
0.0
230
1.0
 70
    11
 71
     3
 72
    23
 73
    19
 74
     0
 42
0.0000000001
 43
0.0000000001
 40
0.0
 40
0.0
 40
0.0
 40
0.0
 40
1.0
 40
1.0
 40
1.0
 40
2.0
 40
2.0
 40
2.0
 40
3.0
 40
3.0
 40
3.0
 40
4.0
 40
4.0
 40
4.0
 40
5.0
 40
5.0
 40
5.0
 40
6.0
 40
6.0
 40
6.0
 40
6.0
 10
224.6384418588375
 20
-181.7508169854895
 30
0.0
 10
224.6384418588375
 20
-181.7508169854895
 30
0.0
 10
225.8378518520272
 20
-181.7508169854895
 30
0.0
 10
225.8378518520272
 20
-181.7508169854895
 30
0.0
 10
225.8378518520272
 20
-181.7508169854895
 30
0.0
 10
225.8378518520272
 20
-193.3163470390217
 30
0.0
 10
225.8378518520272
 20
-193.3163470390217
 30
0.0
 10
225.8378518520272
 20
-193.3163470390217
 30
0.0
 10
207.6761697276614
 20
-181.5795957398726
 30
0.0
 10
207.6761697276614
 20
-181.5795957398726
 30
0.0
 10
209.4183545145522
 20
-181.7797557875656
 30
0.0
 10
211.1316004993669
 20
-182.4222660955647
 30
0.0
 10
212.8162521916541
 20
-183.5071266638698
 30
0.0
 10
212.8162521916541
 20
-183.5071266638698
 30
0.0
 10
224.6384418588375
 20
-191.1314674822763
 30
0.0
 10
224.6384418588375
 20
-191.1314674822763
 30
0.0
 10
224.6384418588375
 20
-191.1314674822763
 30
0.0
 10
224.6384418588375
 20
-181.7508169854895
 30
0.0
 10
224.6384418588375
 20
-181.7508169854895
 30
0.0
  0
SPLINE
  5
AC
330
88
100
AcDbEntity
  8
Etch Layer
 62
   251
370
   140
100
AcDbSpline
210
0.0
220
0.0
230
1.0
 70
    11
 71
     3
 72
    17
 73
    13
 74
     0
 42
0.0000000001
 43
0.0000000001
 40
0.0
 40
0.0
 40
0.0
 40
0.0
 40
1.0
 40
1.0
 40
1.0
 40
2.0
 40
2.0
 40
2.0
 40
3.0
 40
3.0
 40
3.0
 40
4.0
 40
4.0
 40
4.0
 40
4.0
 10
225.8378518520272
 20
-209.1644752902684
 30
0.0
 10
225.8378518520272
 20
-209.1644752902684
 30
0.0
 10
225.8378518520272
 20
-210.3640575382323
 30
0.0
 10
225.8378518520272
 20
-210.3640575382323
 30
0.0
 10
225.8378518520272
 20
-210.3640575382323
 30
0.0
 10
193.1554367668818
 20
-210.3640575382323
 30
0.0
 10
193.1554367668818
 20
-210.3640575382323
 30
0.0
 10
193.1554367668818
 20
-210.3640575382323
 30
0.0
 10
192.3415329584915
 20
-209.1644752902684
 30
0.0
 10
192.3415329584915
 20
-209.1644752902684
 30
0.0
 10
192.3415329584915
 20
-209.1644752902684
 30
0.0
 10
225.8378518520272
 20
-209.1644752902684
 30
0.0
 10
225.8378518520272
 20
-209.1644752902684
 30
0.0
  0
SPLINE
  5
AD
330
88
100
AcDbEntity
  8
Etch Layer
 62
   251
370
   140
100
AcDbSpline
210
0.0
220
0.0
230
1.0
 70
    11
 71
     3
 72
    23
 73
    19
 74
     0
 42
0.0000000001
 43
0.0000000001
 40
0.0
 40
0.0
 40
0.0
 40
0.0
 40
1.0
 40
1.0
 40
1.0
 40
2.0
 40
2.0
 40
2.0
 40
3.0
 40
3.0
 40
3.0
 40
4.0
 40
4.0
 40
4.0
 40
5.0
 40
5.0
 40
5.0
 40
6.0
 40
6.0
 40
6.0
 40
6.0
 10
225.8378518520272
 20
-211.6060144606649
 30
0.0
 10
225.8378518520272
 20
-211.6060144606649
 30
0.0
 10
225.8378518520272
 20
-216.6175948630578
 30
0.0
 10
225.8378518520272
 20
-216.6175948630578
 30
0.0
 10
225.8378518520272
 20
-216.6175948630578
 30
0.0
 10
199.0665316004735
 20
-216.6175948630578
 30
0.0
 10
199.0665316004735
 20
-216.6175948630578
 30
0.0
 10
199.0665316004735
 20
-216.6175948630578
 30
0.0
 10
200.7799498400625
 20
-219.0591340334544
 30
0.0
 10
200.7799498400625
 20
-219.0591340334544
 30
0.0
 10
200.7799498400625
 20
-219.0591340334544
 30
0.0
 10
199.794652531281
 20
-219.7874272190362
 30
0.0
 10
199.794652531281
 20
-219.7874272190362
 30
0.0
 10
199.794652531281
 20
-219.7874272190362
 30
0.0
 10
194.0120597592891
 20
-211.6060144606649
 30
0.0
 10
194.0120597592891
 20
-211.6060144606649
 30
0.0
 10
194.0120597592891
 20
-211.6060144606649
 30
0.0
 10
225.8378518520272
 20
-211.6060144606649
 30
0.0
 10
225.8378518520272
 20
-211.6060144606649
 30
0.0
  0
SPLINE
  5
AE
330
88
100
AcDbEntity
  8
Etch Layer
 62
   251
370
   140
100
AcDbSpline
210
0.0
220
0.0
230
1.0
 70
    11
 71
     3
 72
    38
 73
    34
 74
     0
 42
0.0000000001
 43
0.0000000001
 40
0.0
 40
0.0
 40
0.0
 40
0.0
 40
1.0
 40
1.0
 40
1.0
 40
2.0
 40
2.0
 40
2.0
 40
3.0
 40
3.0
 40
3.0
 40
4.0
 40
4.0
 40
4.0
 40
5.0
 40
5.0
 40
5.0
 40
6.0
 40
6.0
 40
6.0
 40
7.0
 40
7.0
 40
7.0
 40
8.0
 40
8.0
 40
8.0
 40
9.0
 40
9.0
 40
9.0
 40
10.0
 40
10.0
 40
10.0
 40
11.0
 40
11.0
 40
11.0
 40
11.0
 10
445.7935904580603
 20
-147.4242300800086
 30
0.0
 10
445.7935904580603
 20
-147.4242300800086
 30
0.0
 10
218.8438989118811
 20
-147.4242300800086
 30
0.0
 10
218.8438989118811
 20
-147.4242300800086
 30
0.0
 10
218.8438989118811
 20
-147.4242300800086
 30
0.0
 10
165.4976934469733
 20
-200.7703278856828
 30
0.0
 10
165.4976934469733
 20
-200.7703278856828
 30
0.0
 10
165.4976934469733
 20
-200.7703278856828
 30
0.0
 10
225.5639021654095
 20
-260.836536604119
 30
0.0
 10
225.5639021654095
 20
-260.836536604119
 30
0.0
 10
225.5639021654095
 20
-260.836536604119
 30
0.0
 10
300.0300501841736
 20
-217.6948762212955
 30
0.0
 10
300.0300501841736
 20
-217.6948762212955
 30
0.0
 10
297.3862408450993
 20
-212.6828221182733
 30
0.0
 10
295.8864615892894
 20
-206.9777439946996
 30
0.0
 10
295.8864615892894
 20
-200.9281132589073
 30
0.0
 10
295.8864615892894
 20
-181.0456059396589
 30
0.0
 10
312.0622184211832
 20
-164.8698491077653
 30
0.0
 10
331.9448979952056
 20
-164.8698491077653
 30
0.0
 10
351.8272330596788
 20
-164.8698491077653
 30
0.0
 10
368.0029898915724
 20
-181.0456059396589
 30
0.0
 10
368.0029898915724
 20
-200.9281132589073
 30
0.0
 10
368.0029898915724
 20
-206.9583438007483
 30
0.0
 10
366.5128569031211
 20
-212.6462825742829
 30
0.0
 10
363.8848519395854
 20
-217.6467094800424
 30
0.0
 10
363.8848519395854
 20
-217.6467094800424
 30
0.0
 10
438.9338455189128
 20
-260.9762782897395
 30
0.0
 10
438.9338455189128
 20
-260.9762782897395
 30
0.0
 10
438.9338455189128
 20
-260.9762782897395
 30
0.0
 10
499.1398605185085
 20
-200.7703278856828
 30
0.0
 10
499.1398605185085
 20
-200.7703278856828
 30
0.0
 10
499.1398605185085
 20
-200.7703278856828
 30
0.0
 10
445.7935904580603
 20
-147.4242300800086
 30
0.0
 10
445.7935904580603
 20
-147.4242300800086
 30
0.0
  0
SPLINE
  5
AF
330
88
100
AcDbEntity
  8
Etch Layer
 62
   251
370
   140
100
AcDbSpline
210
0.0
220
0.0
230
1.0
 70
     9
 71
     3
 72
    41
 73
    37
 74
     0
 42
0.0000000001
 43
0.0000000001
 40
0.0
 40
0.0
 40
0.0
 40
0.0
 40
1.0
 40
1.0
 40
1.0
 40
2.0
 40
2.0
 40
2.0
 40
3.0
 40
3.0
 40
3.0
 40
4.0
 40
4.0
 40
4.0
 40
5.0
 40
5.0
 40
5.0
 40
6.0
 40
6.0
 40
6.0
 40
7.0
 40
7.0
 40
7.0
 40
8.0
 40
8.0
 40
8.0
 40
9.0
 40
9.0
 40
9.0
 40
10.0
 40
10.0
 40
10.0
 40
11.0
 40
11.0
 40
11.0
 40
12.0
 40
12.0
 40
12.0
 40
12.0
 10
257.064369585106
 20
-321.7956064130981
 30
0.0
 10
257.064369585106
 20
-319.092972068613
 30
0.0
 10
259.2552995907974
 20
-316.9020420629217
 30
0.0
 10
261.9579339352823
 20
-316.9020420629217
 30
0.0
 10
262.4022435936456
 20
-316.9020420629217
 30
0.0
 10
262.8305766216961
 20
-316.9665299440362
 30
0.0
 10
263.2397678379567
 20
-317.077483550508
 30
0.0
 10
263.2397678379567
 20
-317.077483550508
 30
0.0
 10
268.9466115729666
 20
-307.2126894788097
 30
0.0
 10
268.9466115729666
 20
-307.2126894788097
 30
0.0
 10
268.9466115729666
 20
-307.2126894788097
 30
0.0
 10
225.2173686232869
 20
-263.4834465291301
 30
0.0
 10
225.2173686232869
 20
-263.4834465291301
 30
0.0
 10
225.2173686232869
 20
-263.4834465291301
 30
0.0
 10
215.6268902796016
 20
-269.0396534640474
 30
0.0
 10
215.6268902796016
 20
-269.0396534640474
 30
0.0
 10
215.7617657678492
 20
-269.4872790268153
 30
0.0
 10
215.8360937029434
 20
-269.9611734426582
 30
0.0
 10
215.8360937029434
 20
-270.4527670365566
 30
0.0
 10
215.8360937029434
 20
-273.1554229128883
 30
0.0
 10
213.645163697252
 20
-275.3463529185797
 30
0.0
 10
210.9425078209203
 20
-275.3463529185797
 30
0.0
 10
209.5418827195452
 20
-275.3463529185797
 30
0.0
 10
208.2820758961297
 20
-274.7547654282219
 30
0.0
 10
207.3900545476114
 20
-273.8116274754412
 30
0.0
 10
207.3900545476114
 20
-273.8116274754412
 30
0.0
 10
180.8545295501762
 20
-289.1848708458926
 30
0.0
 10
180.8545295501762
 20
-289.1848708458926
 30
0.0
 10
195.960261256198
 20
-314.9651878492674
 30
0.0
 10
217.47490409343
 20
-336.5239063768639
 30
0.0
 10
243.2215452884364
 20
-351.6807116234531
 30
0.0
 10
243.2215452884364
 20
-351.6807116234531
 30
0.0
 10
258.5047640074889
 20
-325.2623414043646
 30
0.0
 10
258.5047640074889
 20
-325.2623414043646
 30
0.0
 10
257.6152188213506
 20
-324.3762628455583
 30
0.0
 10
257.064369585106
 20
-323.1503902126725
 30
0.0
 10
257.064369585106
 20
-321.7956064130981
 30
0.0
  0
SPLINE
  5
B0
330
88
100
AcDbEntity
  8
Etch Layer
 62
   251
370
   140
100
AcDbSpline
210
0.0
220
0.0
230
1.0
 70
     9
 71
     3
 72
    35
 73
    31
 74
     0
 42
0.0000000001
 43
0.0000000001
 40
0.0
 40
0.0
 40
0.0
 40
0.0
 40
1.0
 40
1.0
 40
1.0
 40
2.0
 40
2.0
 40
2.0
 40
3.0
 40
3.0
 40
3.0
 40
4.0
 40
4.0
 40
4.0
 40
5.0
 40
5.0
 40
5.0
 40
6.0
 40
6.0
 40
6.0
 40
7.0
 40
7.0
 40
7.0
 40
8.0
 40
8.0
 40
8.0
 40
9.0
 40
9.0
 40
9.0
 40
10.0
 40
10.0
 40
10.0
 40
10.0
 10
331.977281892767
 20
-309.5199345208219
 30
0.0
 10
332.5770730167489
 20
-309.591592506915
 30
0.0
 10
333.1980514779646
 20
-309.7486888610425
 30
0.0
 10
333.8405617859637
 20
-309.991223583204
 30
0.0
 10
334.4830720939628
 20
-310.2341028149141
 30
0.0
 10
334.9690028121573
 20
-310.4125587610501
 30
0.0
 10
335.2969759023531
 20
-310.5265914216119
 30
0.0
 10
335.6256380116459
 20
-310.6409685917222
 30
0.0
 10
336.1396462580452
 20
-310.9406918989389
 30
0.0
 10
336.8390006415509
 20
-311.4261058528106
 30
0.0
 10
337.5390440441536
 20
-311.9118643162309
 30
0.0
 10
337.9676139225188
 20
-312.2043529229285
 30
0.0
 10
338.1240212575491
 20
-312.3042606920008
 30
0.0
 10
338.281462121225
 20
-312.4045129706216
 30
0.0
 10
338.7878911575567
 20
-312.8041440469106
 30
0.0
 10
339.6446864047384
 20
-313.5034984304163
 30
0.0
 10
340.50148165192
 20
-314.203541833019
 30
0.0
 10
340.9872401153402
 20
-314.5955936992404
 30
0.0
 10
341.1009282663534
 20
-314.6813765768232
 30
0.0
 10
341.1009282663534
 20
-314.6813765768232
 30
0.0
 10
319.5554733563759
 20
-314.6813765768232
 30
0.0
 10
319.5554733563759
 20
-314.6813765768232
 30
0.0
 10
320.7547110947913
 20
-313.0256636866121
 30
0.0
 10
322.2753762419806
 20
-311.7330638605463
 30
0.0
 10
324.1172965431695
 20
-310.8049551368201
 30
0.0
 10
325.9592168443583
 20
-309.8771909226423
 30
0.0
 10
327.9227490161764
 20
-309.4127920512306
 30
0.0
 10
330.0070317847526
 20
-309.4127920512306
 30
0.0
 10
330.7210278240706
 20
-309.4127920512306
 30
0.0
 10
331.3776630235592
 20
-309.4489655538257
 30
0.0
 10
331.977281892767
 20
-309.5199345208219
 30
0.0
  0
SPLINE
  5
B1
330
88
100
AcDbEntity
  8
Etch Layer
 62
   251
370
   140
100
AcDbSpline
210
0.0
220
0.0
230
1.0
 70
    11
 71
     3
 72
    35
 73
    31
 74
     0
 42
0.0000000001
 43
0.0000000001
 40
0.0
 40
0.0
 40
0.0
 40
0.0
 40
1.0
 40
1.0
 40
1.0
 40
2.0
 40
2.0
 40
2.0
 40
3.0
 40
3.0
 40
3.0
 40
4.0
 40
4.0
 40
4.0
 40
5.0
 40
5.0
 40
5.0
 40
6.0
 40
6.0
 40
6.0
 40
7.0
 40
7.0
 40
7.0
 40
8.0
 40
8.0
 40
8.0
 40
9.0
 40
9.0
 40
9.0
 40
10.0
 40
10.0
 40
10.0
 40
10.0
 10
342.1720084527176
 20
-315.4951081304392
 30
0.0
 10
342.1720084527176
 20
-315.4951081304392
 30
0.0
 10
349.9248513327239
 20
-321.4919858416136
 30
0.0
 10
349.9248513327239
 20
-321.4919858416136
 30
0.0
 10
349.9248513327239
 20
-321.4919858416136
 30
0.0
 10
349.9248513327239
 20
-322.9912913967943
 30
0.0
 10
349.9248513327239
 20
-322.9912913967943
 30
0.0
 10
349.9248513327239
 20
-322.9912913967943
 30
0.0
 10
341.3579323895531
 20
-316.3946225616379
 30
0.0
 10
341.3579323895531
 20
-316.3946225616379
 30
0.0
 10
342.2722607313384
 20
-318.2225902261115
 30
0.0
 10
342.728735883134
 20
-320.1642460415983
 30
0.0
 10
342.728735883134
 20
-322.2202790271954
 30
0.0
 10
342.728735883134
 20
-325.904119629573
 30
0.0
 10
341.4650748591443
 20
-328.9664650064116
 30
0.0
 10
338.9380973207136
 20
-331.4080041768082
 30
0.0
 10
336.4106030179601
 20
-333.8495433472048
 30
0.0
 10
333.3051939475559
 20
-335.0704851871773
 30
0.0
 10
329.6215255999531
 20
-335.0704851871773
 30
0.0
 10
326.1666115925703
 20
-335.0704851871773
 30
0.0
 10
323.2177821119707
 20
-333.7854645711791
 30
0.0
 10
320.7762429415741
 20
-331.2154233391827
 30
0.0
 10
318.3347037711776
 20
-328.6453821071863
 30
0.0
 10
317.1139341859793
 20
-325.6329906148839
 30
0.0
 10
317.1139341859793
 20
-322.1775598431783
 30
0.0
 10
317.1139341859793
 20
-319.6361129037095
 30
0.0
 10
317.7423196024889
 20
-317.4088586724955
 30
0.0
 10
318.9985736711852
 20
-315.4951081304392
 30
0.0
 10
318.9985736711852
 20
-315.4951081304392
 30
0.0
 10
342.1720084527176
 20
-315.4951081304392
 30
0.0
 10
342.1720084527176
 20
-315.4951081304392
 30
0.0
  0
SPLINE
  5
B2
330
88
100
AcDbEntity
  8
Etch Layer
 62
   251
370
   140
100
AcDbSpline
210
0.0
220
0.0
230
1.0
 70
    11
 71
     3
 72
    23
 73
    19
 74
     0
 42
0.0000000001
 43
0.0000000001
 40
0.0
 40
0.0
 40
0.0
 40
0.0
 40
1.0
 40
1.0
 40
1.0
 40
2.0
 40
2.0
 40
2.0
 40
3.0
 40
3.0
 40
3.0
 40
4.0
 40
4.0
 40
4.0
 40
5.0
 40
5.0
 40
5.0
 40
6.0
 40
6.0
 40
6.0
 40
6.0
 10
332.3186908553552
 20
-367.5913252940645
 30
0.0
 10
332.3186908553552
 20
-367.5913252940645
 30
0.0
 10
392.5468405934442
 20
-307.3632401515151
 30
0.0
 10
392.5468405934442
 20
-307.3632401515151
 30
0.0
 10
392.5468405934442
 20
-307.3632401515151
 30
0.0
 10
349.2848171871048
 20
-232.5347757469367
 30
0.0
 10
349.2848171871048
 20
-232.5347757469367
 30
0.0
 10
344.1365741531813
 20
-235.3705415000797
 30
0.0
 10
338.2261898705335
 20
-236.9865496648233
 30
0.0
 10
331.9448979952056
 20
-236.9865496648233
 30
0.0
 10
325.6600748970047
 20
-236.9865496648233
 30
0.0
 10
319.7466546239605
 20
-235.3687328249499
 30
0.0
 10
314.5964091282862
 20
-232.5301033361848
 30
0.0
 10
314.5964091282862
 20
-232.5301033361848
 30
0.0
 10
271.5928324788805
 20
-306.8654669175901
 30
0.0
 10
271.5928324788805
 20
-306.8654669175901
 30
0.0
 10
271.5928324788805
 20
-306.8654669175901
 30
0.0
 10
332.3186908553552
 20
-367.5913252940645
 30
0.0
 10
332.3186908553552
 20
-367.5913252940645
 30
0.0
  0
SPLINE
  5
B3
330
88
100
AcDbEntity
  8
Etch Layer
 62
   251
370
   140
100
AcDbSpline
210
0.0
220
0.0
230
1.0
 70
     9
 71
     3
 72
    17
 73
    13
 74
     0
 42
0.0000000001
 43
0.0000000001
 40
0.0
 40
0.0
 40
0.0
 40
0.0
 40
1.0
 40
1.0
 40
1.0
 40
2.0
 40
2.0
 40
2.0
 40
3.0
 40
3.0
 40
3.0
 40
4.0
 40
4.0
 40
4.0
 40
4.0
 10
316.8841463171132
 20
-184.5661490160357
 30
0.0
 10
315.6259543822064
 20
-185.7090379114205
 30
0.0
 10
314.5017335979822
 20
-186.9956088203871
 30
0.0
 10
313.5287740374073
 20
-188.3948558835681
 30
0.0
 10
313.5287740374073
 20
-188.3948558835681
 30
0.0
 10
350.360849698229
 20
-188.3948558835681
 30
0.0
 10
350.360849698229
 20
-188.3948558835681
 30
0.0
 10
349.3878686058073
 20
-186.9956088203871
 30
0.0
 10
348.2636908852767
 20
-185.7090379114205
 30
0.0
 10
347.00549895037
 20
-184.5661490160357
 30
0.0
 10
347.00549895037
 20
-184.5661490160357
 30
0.0
 10
316.8841463171132
 20
-184.5661490160357
 30
0.0
 10
316.8841463171132
 20
-184.5661490160357
 30
0.0
  0
SPLINE
  5
B4
330
88
100
AcDbEntity
  8
Etch Layer
 62
   251
370
   140
100
AcDbSpline
210
0.0
220
0.0
230
1.0
 70
    11
 71
     3
 72
    17
 73
    13
 74
     0
 42
0.0000000001
 43
0.0000000001
 40
0.0
 40
0.0
 40
0.0
 40
0.0
 40
1.0
 40
1.0
 40
1.0
 40
2.0
 40
2.0
 40
2.0
 40
3.0
 40
3.0
 40
3.0
 40
4.0
 40
4.0
 40
4.0
 40
4.0
 10
270.0436806983976
 20
-305.3163151371072
 30
0.0
 10
270.0436806983976
 20
-305.3163151371072
 30
0.0
 10
312.7735875751938
 20
-231.4540062295202
 30
0.0
 10
312.7735875751938
 20
-231.4540062295202
 30
0.0
 10
308.0072979713506
 20
-228.4498829663824
 30
0.0
 10
303.9895414890651
 20
-224.3624278960609
 30
0.0
 10
301.070705871034
 20
-219.5381314969849
 30
0.0
 10
301.070705871034
 20
-219.5381314969849
 30
0.0
 10
227.1127525000375
 20
-262.385386938747
 30
0.0
 10
227.1127525000375
 20
-262.385386938747
 30
0.0
 10
227.1127525000375
 20
-262.385386938747
 30
0.0
 10
270.0436806983976
 20
-305.3163151371072
 30
0.0
 10
270.0436806983976
 20
-305.3163151371072
 30
0.0
  0
SPLINE
  5
B5
330
88
100
AcDbEntity
  8
Etch Layer
 62
   251
370
   140
100
AcDbSpline
210
0.0
220
0.0
230
1.0
 70
     9
 71
     3
 72
    14
 73
    10
 74
     0
 42
0.0000000001
 43
0.0000000001
 40
0.0
 40
0.0
 40
0.0
 40
0.0
 40
1.0
 40
1.0
 40
1.0
 40
2.0
 40
2.0
 40
2.0
 40
3.0
 40
3.0
 40
3.0
 40
3.0
 10
344.7913576138466
 20
-182.8022601275877
 30
0.0
 10
341.150150068099
 20
-180.2466452329358
 30
0.0
 10
336.7213506307296
 20
-178.7404925504782
 30
0.0
 10
331.9448979952056
 20
-178.7404925504782
 30
0.0
 10
327.1683807641406
 20
-178.7404925504782
 30
0.0
 10
322.7395382630777
 20
-180.2466452329358
 30
0.0
 10
319.0983091854832
 20
-182.8022601275877
 30
0.0
 10
319.0983091854832
 20
-182.8022601275877
 30
0.0
 10
344.7913576138466
 20
-182.8022601275877
 30
0.0
 10
344.7913576138466
 20
-182.8022601275877
 30
0.0
  0
SPLINE
  5
B6
330
88
100
AcDbEntity
  8
Etch Layer
 62
   251
370
   140
100
AcDbSpline
210
0.0
220
0.0
230
1.0
 70
     9
 71
     3
 72
    17
 73
    13
 74
     0
 42
0.0000000001
 43
0.0000000001
 40
0.0
 40
0.0
 40
0.0
 40
0.0
 40
1.0
 40
1.0
 40
1.0
 40
2.0
 40
2.0
 40
2.0
 40
3.0
 40
3.0
 40
3.0
 40
4.0
 40
4.0
 40
4.0
 40
4.0
 10
313.8337941789326
 20
-229.621344622448
 30
0.0
 10
313.8337941789326
 20
-229.621344622448
 30
0.0
 10
318.7257867042938
 20
-221.1650993717409
 30
0.0
 10
318.7257867042938
 20
-221.1650993717409
 30
0.0
 10
315.7454130681574
 20
-219.2116225723703
 30
0.0
 10
313.2196197812997
 20
-216.6211906814706
 30
0.0
 10
311.3469089392115
 20
-213.5846619889246
 30
0.0
 10
311.3469089392115
 20
-213.5846619889246
 30
0.0
 10
302.9017741214442
 20
-218.4773220015361
 30
0.0
 10
302.9017741214442
 20
-218.4773220015361
 30
0.0
 10
305.6343807966509
 20
-222.9828394089926
 30
0.0
 10
309.386089780088
 20
-226.8039455346107
 30
0.0
 10
313.8337941789326
 20
-229.621344622448
 30
0.0
  0
LWPOLYLINE
  5
B7
330
88
100
AcDbEntity
  8
Etch Layer
 62
   251
370
   140
100
AcDbPolyline
 90
        3
 70
     1
 43
0.0
 10
336.4368503391883
 20
-200.9281563226009
 10
336.4368503391883
 20
-200.9281347907541
 10
336.4368503391883
 20
-200.9281347907541
  0
SPLINE
  5
B8
330
88
100
AcDbEntity
  8
Etch Layer
 62
   251
370
   140
100
AcDbSpline
210
0.0
220
0.0
230
1.0
 70
     9
 71
     3
 72
    32
 73
    28
 74
     0
 42
0.0000000001
 43
0.0000000001
 40
0.0
 40
0.0
 40
0.0
 40
0.0
 40
1.0
 40
1.0
 40
1.0
 40
2.0
 40
2.0
 40
2.0
 40
3.0
 40
3.0
 40
3.0
 40
4.0
 40
4.0
 40
4.0
 40
5.0
 40
5.0
 40
5.0
 40
6.0
 40
6.0
 40
6.0
 40
7.0
 40
7.0
 40
7.0
 40
8.0
 40
8.0
 40
8.0
 40
9.0
 40
9.0
 40
9.0
 40
9.0
 10
351.4689000655193
 20
-190.158744772016
 30
0.0
 10
351.4689000655193
 20
-190.158744772016
 30
0.0
 10
312.4207452019638
 20
-190.158744772016
 30
0.0
 10
312.4207452019638
 20
-190.158744772016
 30
0.0
 10
310.6162472504835
 20
-193.3481495767203
 30
0.0
 10
309.570187070081
 20
-197.0188772844069
 30
0.0
 10
309.5299655802906
 20
-200.9281347907541
 30
0.0
 10
309.5299655802906
 20
-200.9281347907541
 30
0.0
 10
327.452773396448
 20
-200.9281347907541
 30
0.0
 10
327.452773396448
 20
-200.9281347907541
 30
0.0
 10
327.4509431894714
 20
-200.8752956387491
 30
0.0
 10
327.4448066131384
 20
-200.8236192064703
 30
0.0
 10
327.4448066131384
 20
-200.7703494175296
 30
0.0
 10
327.4448066131384
 20
-198.2850575344704
 30
0.0
 10
329.4595199847592
 20
-196.2703656946963
 30
0.0
 10
331.9448118678185
 20
-196.2703656946963
 30
0.0
 10
334.4300822190303
 20
-196.2703656946963
 30
0.0
 10
336.444817122498
 20
-198.2850575344704
 30
0.0
 10
336.444817122498
 20
-200.7703494175296
 30
0.0
 10
336.444817122498
 20
-200.8236192064703
 30
0.0
 10
336.4386805461649
 20
-200.8752956387491
 30
0.0
 10
336.4368503391883
 20
-200.9281347907541
 30
0.0
 10
336.4368503391883
 20
-200.9281347907541
 30
0.0
 10
354.3596581553456
 20
-200.9281347907541
 30
0.0
 10
354.3596581553456
 20
-200.9281347907541
 30
0.0
 10
354.3194366655554
 20
-197.0188772844069
 30
0.0
 10
353.2733980169996
 20
-193.3481495767203
 30
0.0
 10
351.4689000655193
 20
-190.158744772016
 30
0.0
  0
LWPOLYLINE
  5
B9
330
88
100
AcDbEntity
  8
Etch Layer
 62
   251
370
   140
100
AcDbPolyline
 90
        3
 70
     1
 43
0.0
 10
327.452773396448
 20
-200.9281347907541
 10
327.452773396448
 20
-200.9281347907541
 10
327.452773396448
 20
-200.9281563226009
  0
ENDBLK
  5
8B
330
88
100
AcDbEntity
  8
0
100
AcDbBlockEnd
  0
ENDSEC
  0
SECTION
  2
ENTITIES
  0
SPLINE
  5
79
330
70
100
AcDbEntity
  8
Outline
 62
    41
370
   140
100
AcDbSpline
210
0.0
220
0.0
230
1.0
 70
    11
 71
     3
 72
    32
 73
    28
 74
     0
 42
0.0000000001
 43
0.0000000001
 40
0.0
 40
0.0
 40
0.0
 40
0.0
 40
1.0
 40
1.0
 40
1.0
 40
2.0
 40
2.0
 40
2.0
 40
3.0
 40
3.0
 40
3.0
 40
4.0
 40
4.0
 40
4.0
 40
5.0
 40
5.0
 40
5.0
 40
6.0
 40
6.0
 40
6.0
 40
7.0
 40
7.0
 40
7.0
 40
8.0
 40
8.0
 40
8.0
 40
9.0
 40
9.0
 40
9.0
 40
9.0
 10
523.471880911731
 20
-176.9450810383405
 30
0.0
 10
523.471880911731
 20
-176.9450810383405
 30
0.0
 10
535.4125818636069
 20
-176.9450810383405
 30
0.0
 10
535.4125818636069
 20
-176.9450810383405
 30
0.0
 10
535.4125818636069
 20
-176.9450810383405
 30
0.0
 10
547.9498872261468
 20
-176.9450810383405
 30
0.0
 10
547.9498872261468
 20
-176.9450810383405
 30
0.0
 10
547.9498872261468
 20
-176.9450810383405
 30
0.0
 10
547.9498872261468
 20
-223.9450761098697
 30
0.0
 10
547.9498872261468
 20
-223.9450761098697
 30
0.0
 10
547.9498872261468
 20
-223.9450761098697
 30
0.0
 10
520.9498987617538
 20
-223.9450976417165
 30
0.0
 10
520.9498987617538
 20
-223.9450976417165
 30
0.0
 10
520.9498987617538
 20
-223.9450976417165
 30
0.0
 10
520.9498987617538
 20
-221.8225958451008
 30
0.0
 10
520.9498987617538
 20
-221.8225958451008
 30
0.0
 10
520.9498987617538
 20
-221.8225958451008
 30
0.0
 10
520.9498987617538
 20
-180.0021295808706
 30
0.0
 10
520.9498987617538
 20
-180.0021295808706
 30
0.0
 10
520.9498987617538
 20
-180.0021295808706
 30
0.0
 10
520.9498987617538
 20
-177.4781665009894
 30
0.0
 10
520.9498987617538
 20
-177.4781665009894
 30
0.0
 10
520.9498987617538
 20
-177.4781665009894
 30
0.0
 10
520.9785791816743
 20
-176.9450810383405
 30
0.0
 10
520.9785791816743
 20
-176.9450810383405
 30
0.0
 10
520.9785791816743
 20
-176.9450810383405
 30
0.0
 10
523.471880911731
 20
-176.9450810383405
 30
0.0
 10
523.471880911731
 20
-176.9450810383405
 30
0.0
  0
SPLINE
  5
7A
330
70
100
AcDbEntity
  8
Outline
 62
    41
370
   140
100
AcDbSpline
210
0.0
220
0.0
230
1.0
 70
    11
 71
     3
 72
    17
 73
    13
 74
     0
 42
0.0000000001
 43
0.0000000001
 40
0.0
 40
0.0
 40
0.0
 40
0.0
 40
1.0
 40
1.0
 40
1.0
 40
2.0
 40
2.0
 40
2.0
 40
3.0
 40
3.0
 40
3.0
 40
4.0
 40
4.0
 40
4.0
 40
4.0
 10
327.4448066131384
 20
-200.7703494175296
 30
0.0
 10
327.4448066131384
 20
-198.2850575344704
 30
0.0
 10
329.4595199847592
 20
-196.2703656946963
 30
0.0
 10
331.9448118678185
 20
-196.2703656946963
 30
0.0
 10
334.4300822190303
 20
-196.2703656946963
 30
0.0
 10
336.444817122498
 20
-198.2850575344704
 30
0.0
 10
336.444817122498
 20
-200.7703494175296
 30
0.0
 10
336.444817122498
 20
-203.2556413005889
 30
0.0
 10
334.4300822190303
 20
-205.270333140363
 30
0.0
 10
331.9448118678185
 20
-205.270333140363
 30
0.0
 10
329.4595199847592
 20
-205.270333140363
 30
0.0
 10
327.4448066131384
 20
-203.2556413005889
 30
0.0
 10
327.4448066131384
 20
-200.7703494175296
 30
0.0
  0
SPLINE
  5
7B
330
70
100
AcDbEntity
  8
Outline
 62
    41
370
   140
100
AcDbSpline
210
0.0
220
0.0
230
1.0
 70
     9
 71
     3
 72
   104
 73
   100
 74
     0
 42
0.0000000001
 43
0.0000000001
 40
0.0
 40
0.0
 40
0.0
 40
0.0
 40
1.0
 40
1.0
 40
1.0
 40
2.0
 40
2.0
 40
2.0
 40
3.0
 40
3.0
 40
3.0
 40
4.0
 40
4.0
 40
4.0
 40
5.0
 40
5.0
 40
5.0
 40
6.0
 40
6.0
 40
6.0
 40
7.0
 40
7.0
 40
7.0
 40
8.0
 40
8.0
 40
8.0
 40
9.0
 40
9.0
 40
9.0
 40
10.0
 40
10.0
 40
10.0
 40
11.0
 40
11.0
 40
11.0
 40
12.0
 40
12.0
 40
12.0
 40
13.0
 40
13.0
 40
13.0
 40
14.0
 40
14.0
 40
14.0
 40
15.0
 40
15.0
 40
15.0
 40
16.0
 40
16.0
 40
16.0
 40
17.0
 40
17.0
 40
17.0
 40
18.0
 40
18.0
 40
18.0
 40
19.0
 40
19.0
 40
19.0
 40
20.0
 40
20.0
 40
20.0
 40
21.0
 40
21.0
 40
21.0
 40
22.0
 40
22.0
 40
22.0
 40
23.0
 40
23.0
 40
23.0
 40
24.0
 40
24.0
 40
24.0
 40
25.0
 40
25.0
 40
25.0
 40
26.0
 40
26.0
 40
26.0
 40
27.0
 40
27.0
 40
27.0
 40
28.0
 40
28.0
 40
28.0
 40
29.0
 40
29.0
 40
29.0
 40
30.0
 40
30.0
 40
30.0
 40
31.0
 40
31.0
 40
31.0
 40
32.0
 40
32.0
 40
32.0
 40
33.0
 40
33.0
 40
33.0
 40
33.0
 10
331.9448118678185
 20
-25.77032928576935
 30
0.0
 10
267.2860109535361
 20
-25.77032928576935
 30
0.0
 10
210.8806252932665
 20
-60.7486851933659
 30
0.0
 10
180.5823024113011
 20
-112.8315095482922
 30
0.0
 10
180.5823024113011
 20
-112.8315095482922
 30
0.0
 10
180.5812904145023
 20
-112.8312511661308
 30
0.0
 10
180.5812904145023
 20
-112.8312511661308
 30
0.0
 10
180.7361905202579
 20
-112.5649883488146
 30
0.0
 10
180.8875594031411
 20
-112.2964000920458
 30
0.0
 10
181.0438160152442
 20
-112.0310200804476
 30
0.0
 10
181.0438160152442
 20
-112.0310200804476
 30
0.0
 10
138.9984065476737
 20
-102.3746758174538
 30
0.0
 10
138.9984065476737
 20
-102.3746758174538
 30
0.0
 10
138.9984065476737
 20
-102.3746758174538
 30
0.0
 10
138.9984065476737
 20
-129.7977220074296
 30
0.0
 10
138.9984065476737
 20
-129.7977220074296
 30
0.0
 10
138.9984065476737
 20
-129.7977220074296
 30
0.0
 10
112.4333183246057
 20
-123.6966301578264
 30
0.0
 10
112.4333183246057
 20
-123.6966301578264
 30
0.0
 10
112.4333183246057
 20
-123.6966301578264
 30
0.0
 10
112.4333183246057
 20
-155.8527207802127
 30
0.0
 10
112.4333183246057
 20
-155.8527207802127
 30
0.0
 10
112.4333183246057
 20
-155.8527207802127
 30
0.0
 10
86.5673261028818
 20
-149.9121703802221
 30
0.0
 10
86.5673261028818
 20
-149.9121703802221
 30
0.0
 10
86.5673261028818
 20
-149.9121703802221
 30
0.0
 10
86.5673261028818
 20
-250.9294324534925
 30
0.0
 10
86.5673261028818
 20
-250.9294324534925
 30
0.0
 10
86.5673261028818
 20
-250.9294324534925
 30
0.0
 10
112.4333183246057
 20
-244.9476270350661
 30
0.0
 10
112.4333183246057
 20
-244.9476270350661
 30
0.0
 10
112.4333183246057
 20
-244.9476270350661
 30
0.0
 10
112.4333183246057
 20
-277.1449726758882
 30
0.0
 10
112.4333183246057
 20
-277.1449726758882
 30
0.0
 10
112.4333183246057
 20
-277.1449726758882
 30
0.0
 10
138.9984065476737
 20
-271.0015061518165
 30
0.0
 10
138.9984065476737
 20
-271.0015061518165
 30
0.0
 10
138.9984065476737
 20
-271.0015061518165
 30
0.0
 10
138.9984065476737
 20
-299.1660230176052
 30
0.0
 10
138.9984065476737
 20
-299.1660230176052
 30
0.0
 10
138.9984065476737
 20
-299.1660230176052
 30
0.0
 10
181.0093650603917
 20
-289.4505953670393
 30
0.0
 10
181.0093650603917
 20
-289.4505953670393
 30
0.0
 10
180.870312393868
 20
-289.2142187530576
 30
0.0
 10
180.7357598833222
 20
-288.9749353397602
 30
0.0
 10
180.5977838091379
 20
-288.7378481748346
 30
0.0
 10
180.5977838091379
 20
-288.7378481748346
 30
0.0
 10
180.5992049110256
 20
-288.7374821334394
 30
0.0
 10
180.5992049110256
 20
-288.7374821334394
 30
0.0
 10
210.9014681209522
 20
-340.804609772061
 30
0.0
 10
267.2978104055728
 20
-375.7703480174441
 30
0.0
 10
331.9448118678185
 20
-375.7703480174441
 30
0.0
 10
396.4402506605577
 20
-375.7703480174441
 30
0.0
 10
452.7244981508269
 20
-340.9689192948607
 30
0.0
 10
483.0777918376282
 20
-289.1039756975295
 30
0.0
 10
483.0777918376282
 20
-289.1039756975295
 30
0.0
 10
483.1682686578127
 20
-289.1257013309335
 30
0.0
 10
483.1682686578127
 20
-289.1257013309335
 30
0.0
 10
483.093596213168
 20
-289.253234459428
 30
0.0
 10
483.0213138035187
 20
-289.3823394127378
 30
0.0
 10
482.9463399130217
 20
-289.5096787546113
 30
0.0
 10
482.9463399130217
 20
-289.5096787546113
 30
0.0
 10
524.9917709124418
 20
-299.1660230176052
 30
0.0
 10
524.9917709124418
 20
-299.1660230176052
 30
0.0
 10
524.9917709124418
 20
-299.1660230176052
 30
0.0
 10
524.9917709124418
 20
-271.7429768276294
 30
0.0
 10
524.9917709124418
 20
-271.7429768276294
 30
0.0
 10
524.9917709124418
 20
-271.7429768276294
 30
0.0
 10
551.5568160718105
 20
-277.8440686772326
 30
0.0
 10
551.5568160718105
 20
-277.8440686772326
 30
0.0
 10
551.5568160718105
 20
-277.8440686772326
 30
0.0
 10
551.5568160718105
 20
-245.6879780548463
 30
0.0
 10
551.5568160718105
 20
-245.6879780548463
 30
0.0
 10
551.5568160718105
 20
-245.6879780548463
 30
0.0
 10
577.4228513572333
 20
-251.6285284548368
 30
0.0
 10
577.4228513572333
 20
-251.6285284548368
 30
0.0
 10
577.4228513572333
 20
-251.6285284548368
 30
0.0
 10
577.4228513572333
 20
-150.6112663815668
 30
0.0
 10
577.4228513572333
 20
-150.6112663815668
 30
0.0
 10
577.4228513572333
 20
-150.6112663815668
 30
0.0
 10
551.5568160718105
 20
-156.5930717999932
 30
0.0
 10
551.5568160718105
 20
-156.5930717999932
 30
0.0
 10
551.5568160718105
 20
-156.5930717999932
 30
0.0
 10
551.5568160718105
 20
-124.395726159171
 30
0.0
 10
551.5568160718105
 20
-124.395726159171
 30
0.0
 10
551.5568160718105
 20
-124.395726159171
 30
0.0
 10
524.9917709124418
 20
-130.5391926832428
 30
0.0
 10
524.9917709124418
 20
-130.5391926832428
 30
0.0
 10
524.9917709124418
 20
-130.5391926832428
 30
0.0
 10
524.9917709124418
 20
-102.3746758174541
 30
0.0
 10
524.9917709124418
 20
-102.3746758174541
 30
0.0
 10
524.9917709124418
 20
-102.3746758174541
 30
0.0
 10
482.9807908678741
 20
-112.09010346802
 30
0.0
 10
482.9807908678741
 20
-112.09010346802
 30
0.0
 10
482.9807908678741
 20
-112.09010346802
 30
0.0
 10
482.8749403090879
 20
-112.0917398883755
 30
0.0
 10
482.8749403090879
 20
-112.0917398883755
 30
0.0
 10
452.4742765593645
 20
-60.41761151723339
 30
0.0
 10
396.2970638794533
 20
-25.77032928576935
 30
0.0
 10
331.9448118678185
 20
-25.77032928576935
 30
0.0
  0
SPLINE
  5
7C
330
70
100
AcDbEntity
  8
Outline
 62
    41
370
   140
100
AcDbSpline
210
0.0
220
0.0
230
1.0
 70
    11
 71
     3
 72
    32
 73
    28
 74
     0
 42
0.0000000001
 43
0.0000000001
 40
0.0
 40
0.0
 40
0.0
 40
0.0
 40
1.0
 40
1.0
 40
1.0
 40
2.0
 40
2.0
 40
2.0
 40
3.0
 40
3.0
 40
3.0
 40
4.0
 40
4.0
 40
4.0
 40
5.0
 40
5.0
 40
5.0
 40
6.0
 40
6.0
 40
6.0
 40
7.0
 40
7.0
 40
7.0
 40
8.0
 40
8.0
 40
8.0
 40
9.0
 40
9.0
 40
9.0
 40
9.0
 10
80.61030594383987
 20
-101.6312080276497
 30
0.0
 10
80.61030594383987
 20
-101.6312080276497
 30
0.0
 10
80.61030594383987
 20
-113.5719089795257
 30
0.0
 10
80.61030594383987
 20
-113.5719089795257
 30
0.0
 10
80.61030594383987
 20
-113.5719089795257
 30
0.0
 10
80.61030594383987
 20
-126.1092143420597
 30
0.0
 10
80.61030594383987
 20
-126.1092143420597
 30
0.0
 10
80.61030594383987
 20
-126.1092143420597
 30
0.0
 10
33.61033240415757
 20
-126.1092143420597
 30
0.0
 10
33.61033240415757
 20
-126.1092143420597
 30
0.0
 10
33.61033240415757
 20
-126.1092143420597
 30
0.0
 10
33.61028934046401
 20
-99.10922587767261
 30
0.0
 10
33.61028934046401
 20
-99.10922587767261
 30
0.0
 10
33.61028934046401
 20
-99.10922587767261
 30
0.0
 10
35.73276960523287
 20
-99.10922587767261
 30
0.0
 10
35.73276960523287
 20
-99.10922587767261
 30
0.0
 10
35.73276960523287
 20
-99.10922587767261
 30
0.0
 10
77.55325740130986
 20
-99.10922587767261
 30
0.0
 10
77.55325740130986
 20
-99.10922587767261
 30
0.0
 10
77.55325740130986
 20
-99.10922587767261
 30
0.0
 10
80.07722048119104
 20
-99.10922587767261
 30
0.0
 10
80.07722048119104
 20
-99.10922587767261
 30
0.0
 10
80.07722048119104
 20
-99.10922587767261
 30
0.0
 10
80.61030594383987
 20
-99.13790629758732
 30
0.0
 10
80.61030594383987
 20
-99.13790629758732
 30
0.0
 10
80.61030594383987
 20
-99.13790629758732
 30
0.0
 10
80.61030594383987
 20
-101.6312080276497
 30
0.0
 10
80.61030594383987
 20
-101.6312080276497
 30
0.0
  0
SPLINE
  5
7D
330
70
100
AcDbEntity
  8
Outline
 62
    41
370
   140
100
AcDbSpline
210
0.0
220
0.0
230
1.0
 70
    11
 71
     3
 72
    77
 73
    73
 74
     0
 42
0.0000000001
 43
0.0000000001
 40
0.0
 40
0.0
 40
0.0
 40
0.0
 40
1.0
 40
1.0
 40
1.0
 40
2.0
 40
2.0
 40
2.0
 40
3.0
 40
3.0
 40
3.0
 40
4.0
 40
4.0
 40
4.0
 40
5.0
 40
5.0
 40
5.0
 40
6.0
 40
6.0
 40
6.0
 40
7.0
 40
7.0
 40
7.0
 40
8.0
 40
8.0
 40
8.0
 40
9.0
 40
9.0
 40
9.0
 40
10.0
 40
10.0
 40
10.0
 40
11.0
 40
11.0
 40
11.0
 40
12.0
 40
12.0
 40
12.0
 40
13.0
 40
13.0
 40
13.0
 40
14.0
 40
14.0
 40
14.0
 40
15.0
 40
15.0
 40
15.0
 40
16.0
 40
16.0
 40
16.0
 40
17.0
 40
17.0
 40
17.0
 40
18.0
 40
18.0
 40
18.0
 40
19.0
 40
19.0
 40
19.0
 40
20.0
 40
20.0
 40
20.0
 40
21.0
 40
21.0
 40
21.0
 40
22.0
 40
22.0
 40
22.0
 40
23.0
 40
23.0
 40
23.0
 40
24.0
 40
24.0
 40
24.0
 40
24.0
 10
85.29236296306867
 20
-104.7355405057148
 30
0.0
 10
85.29236296306867
 20
-104.7355405057148
 30
0.0
 10
85.29236296306867
 20
-95.28969157686969
 30
0.0
 10
85.29236296306867
 20
-95.28969157686969
 30
0.0
 10
85.29236296306867
 20
-95.28969157686969
 30
0.0
 10
74.26245913010565
 20
-95.28969157686969
 30
0.0
 10
74.26245913010565
 20
-95.28969157686969
 30
0.0
 10
74.26245913010565
 20
-95.28969157686969
 30
0.0
 10
74.26245913010565
 20
-88.2989253500475
 30
0.0
 10
74.26245913010565
 20
-88.2989253500475
 30
0.0
 10
74.26245913010565
 20
-88.2989253500475
 30
0.0
 10
65.26839141045747
 20
-88.2989253500475
 30
0.0
 10
65.26839141045747
 20
-88.2989253500475
 30
0.0
 10
65.26839141045747
 20
-88.2989253500475
 30
0.0
 10
57.13912878499413
 20
-81.62603377727995
 30
0.0
 10
57.13912878499413
 20
-81.62603377727995
 30
0.0
 10
57.13912878499413
 20
-81.62603377727995
 30
0.0
 10
49.00982309583721
 20
-88.2989253500475
 30
0.0
 10
49.00982309583721
 20
-88.2989253500475
 30
0.0
 10
49.00982309583721
 20
-88.2989253500475
 30
0.0
 10
39.92980024383205
 20
-88.2989253500475
 30
0.0
 10
39.92980024383205
 20
-88.2989253500475
 30
0.0
 10
39.92980024383205
 20
-88.2989253500475
 30
0.0
 10
39.92980024383205
 20
-95.28969157686969
 30
0.0
 10
39.92980024383205
 20
-95.28969157686969
 30
0.0
 10
39.92980024383205
 20
-95.28969157686969
 30
0.0
 10
28.89985334717547
 20
-95.28969157686969
 30
0.0
 10
28.89985334717547
 20
-95.28969157686969
 30
0.0
 10
28.89985334717547
 20
-95.28969157686969
 30
0.0
 10
28.89985334717547
 20
-104.8061218994688
 30
0.0
 10
28.89985334717547
 20
-104.8061218994688
 30
0.0
 10
28.89985334717547
 20
-104.8061218994688
 30
0.0
 10
20.04871402647159
 20
-112.0715483638526
 30
0.0
 10
20.04871402647159
 20
-112.0715483638526
 30
0.0
 10
20.04871402647159
 20
-112.0715483638526
 30
0.0
 10
28.89985334717547
 20
-119.5718872766368
 30
0.0
 10
28.89985334717547
 20
-119.5718872766368
 30
0.0
 10
28.89985334717547
 20
-119.5718872766368
 30
0.0
 10
28.89985334717547
 20
-129.6223504631433
 30
0.0
 10
28.89985334717547
 20
-129.6223504631433
 30
0.0
 10
28.89985334717547
 20
-129.6223504631433
 30
0.0
 10
39.92980024383205
 20
-129.6223504631433
 30
0.0
 10
39.92980024383205
 20
-129.6223504631433
 30
0.0
 10
39.92980024383205
 20
-129.6223504631433
 30
0.0
 10
39.92980024383205
 20
-136.6131812855058
 30
0.0
 10
39.92980024383205
 20
-136.6131812855058
 30
0.0
 10
39.92980024383205
 20
-136.6131812855058
 30
0.0
 10
49.01025373277287
 20
-136.6131812855058
 30
0.0
 10
49.01025373277287
 20
-136.6131812855058
 30
0.0
 10
49.01025373277287
 20
-136.6131812855058
 30
0.0
 10
57.13912878499413
 20
-143.5014774534886
 30
0.0
 10
57.13912878499413
 20
-143.5014774534886
 30
0.0
 10
57.13912878499413
 20
-143.5014774534886
 30
0.0
 10
65.2679607735218
 20
-136.6131812855058
 30
0.0
 10
65.2679607735218
 20
-136.6131812855058
 30
0.0
 10
65.2679607735218
 20
-136.6131812855058
 30
0.0
 10
74.26245913010565
 20
-136.6131812855058
 30
0.0
 10
74.26245913010565
 20
-136.6131812855058
 30
0.0
 10
74.26245913010565
 20
-136.6131812855058
 30
0.0
 10
74.26245913010565
 20
-129.6223504631433
 30
0.0
 10
74.26245913010565
 20
-129.6223504631433
 30
0.0
 10
74.26245913010565
 20
-129.6223504631433
 30
0.0
 10
85.29236296306867
 20
-129.6223504631433
 30
0.0
 10
85.29236296306867
 20
-129.6223504631433
 30
0.0
 10
85.29236296306867
 20
-129.6223504631433
 30
0.0
 10
85.29236296306867
 20
-119.6447510461498
 30
0.0
 10
85.29236296306867
 20
-119.6447510461498
 30
0.0
 10
85.29236296306867
 20
-119.6447510461498
 30
0.0
 10
94.22950047982309
 20
-112.0715483638526
 30
0.0
 10
94.22950047982309
 20
-112.0715483638526
 30
0.0
 10
94.22950047982309
 20
-112.0715483638526
 30
0.0
 10
85.29236296306867
 20
-104.7355405057148
 30
0.0
 10
85.29236296306867
 20
-104.7355405057148
 30
0.0
  0
SPLINE
  5
7E
330
70
100
AcDbEntity
  8
Outline
 62
    41
370
   140
100
AcDbSpline
210
0.0
220
0.0
230
1.0
 70
     9
 71
     3
 72
    17
 73
    13
 74
     0
 42
0.0000000001
 43
0.0000000001
 40
0.0
 40
0.0
 40
0.0
 40
0.0
 40
1.0
 40
1.0
 40
1.0
 40
2.0
 40
2.0
 40
2.0
 40
3.0
 40
3.0
 40
3.0
 40
4.0
 40
4.0
 40
4.0
 40
4.0
 10
123.2194708531271
 20
-59.52725791435901
 30
0.0
 10
119.4889492069243
 20
-59.52725791435901
 30
0.0
 10
116.255662498477
 20
-57.36317812160576
 30
0.0
 10
114.7051111479532
 20
-54.22525596255951
 30
0.0
 10
114.7051111479532
 20
-54.22525596255951
 30
0.0
 10
122.2183261051135
 20
-54.49821518422521
 30
0.0
 10
122.2183261051135
 20
-54.49821518422521
 30
0.0
 10
122.2183261051135
 20
-54.49821518422521
 30
0.0
 10
132.1544336533565
 20
-53.23664274937351
 30
0.0
 10
132.1544336533565
 20
-53.23664274937351
 30
0.0
 10
130.8378688818215
 20
-56.89989890622679
 30
0.0
 10
127.3302018498208
 20
-59.52725791435901
 30
0.0
 10
123.2194708531271
 20
-59.52725791435901
 30
0.0
  0
SPLINE
  5
7F
330
70
100
AcDbEntity
  8
Outline
 62
    41
370
   140
100
AcDbSpline
210
0.0
220
0.0
230
1.0
 70
     9
 71
     3
 72
    23
 73
    19
 74
     0
 42
0.0000000001
 43
0.0000000001
 40
0.0
 40
0.0
 40
0.0
 40
0.0
 40
1.0
 40
1.0
 40
1.0
 40
2.0
 40
2.0
 40
2.0
 40
3.0
 40
3.0
 40
3.0
 40
4.0
 40
4.0
 40
4.0
 40
5.0
 40
5.0
 40
5.0
 40
6.0
 40
6.0
 40
6.0
 40
6.0
 10
76.72620626378473
 20
-50.03515857862439
 30
0.0
 10
76.72620626378473
 20
-49.80024613022393
 30
0.0
 10
76.70398539790487
 20
-49.5710396212209
 30
0.0
 10
76.67203213727917
 20
-49.34495523000137
 30
0.0
 10
76.67203213727917
 20
-49.34495523000137
 30
0.0
 10
111.4198250295254
 20
-48.08299522190758
 30
0.0
 10
111.4198250295254
 20
-48.08299522190758
 30
0.0
 10
111.3149864675399
 20
-48.71867993447652
 30
0.0
 10
111.2579270735654
 20
-49.37023361812439
 30
0.0
 10
111.2579270735654
 20
-50.03515857862439
 30
0.0
 10
111.2579270735654
 20
-50.70025579389866
 30
0.0
 10
111.3150295312334
 20
-51.3519817323208
 30
0.0
 10
111.4199111569125
 20
-51.98783869966401
 30
0.0
 10
111.4199111569125
 20
-51.98783869966401
 30
0.0
 10
76.67201060543239
 20
-50.72544805463455
 30
0.0
 10
76.67201060543239
 20
-50.72544805463455
 30
0.0
 10
76.70398539790487
 20
-50.49932059972146
 30
0.0
 10
76.72620626378473
 20
-50.27011409071843
 30
0.0
 10
76.72620626378473
 20
-50.03515857862439
 30
0.0
  0
SPLINE
  5
80
330
70
100
AcDbEntity
  8
Outline
 62
    41
370
   140
100
AcDbSpline
210
0.0
220
0.0
230
1.0
 70
    11
 71
     3
 72
    17
 73
    13
 74
     0
 42
0.0000000001
 43
0.0000000001
 40
0.0
 40
0.0
 40
0.0
 40
0.0
 40
1.0
 40
1.0
 40
1.0
 40
2.0
 40
2.0
 40
2.0
 40
3.0
 40
3.0
 40
3.0
 40
4.0
 40
4.0
 40
4.0
 40
4.0
 10
69.42622118531459
 20
-50.03515857862439
 30
0.0
 10
69.42622118531459
 20
-48.7096796225213
 30
0.0
 10
70.50072493531722
 20
-47.63515434067188
 30
0.0
 10
71.82620389142032
 20
-47.63515434067188
 30
0.0
 10
73.1517043793702
 20
-47.63515434067188
 30
0.0
 10
74.22620812937283
 20
-48.7096796225213
 30
0.0
 10
74.22620812937283
 20
-50.03515857862439
 30
0.0
 10
74.22620812937283
 20
-51.3606375347275
 30
0.0
 10
73.1517043793702
 20
-52.43516281657691
 30
0.0
 10
71.82620389142032
 20
-52.43516281657691
 30
0.0
 10
70.50072493531722
 20
-52.43516281657691
 30
0.0
 10
69.42622118531459
 20
-51.3606375347275
 30
0.0
 10
69.42622118531459
 20
-50.03515857862439
 30
0.0
  0
SPLINE
  5
81
330
70
100
AcDbEntity
  8
Outline
 62
    41
370
   140
100
AcDbSpline
210
0.0
220
0.0
230
1.0
 70
    11
 71
     3
 72
    17
 73
    13
 74
     0
 42
0.0000000001
 43
0.0000000001
 40
0.0
 40
0.0
 40
0.0
 40
0.0
 40
1.0
 40
1.0
 40
1.0
 40
2.0
 40
2.0
 40
2.0
 40
3.0
 40
3.0
 40
3.0
 40
4.0
 40
4.0
 40
4.0
 40
4.0
 10
122.2352932003784
 20
-45.57214503671715
 30
0.0
 10
122.2352932003784
 20
-45.57214503671715
 30
0.0
 10
114.7048097020982
 20
-45.84564255455242
 30
0.0
 10
114.7048097020982
 20
-45.84564255455242
 30
0.0
 10
116.2552533933881
 20
-42.70741894965121
 30
0.0
 10
119.4887123566097
 20
-40.54305924288978
 30
0.0
 10
123.2194708531271
 20
-40.54305924288978
 30
0.0
 10
127.3547481551532
 20
-40.54305924288978
 30
0.0
 10
130.8788009225556
 20
-43.20226385241379
 30
0.0
 10
132.1768483058574
 20
-46.8997987093453
 30
0.0
 10
132.1768483058574
 20
-46.8997987093453
 30
0.0
 10
122.2352932003784
 20
-45.57214503671715
 30
0.0
 10
122.2352932003784
 20
-45.57214503671715
 30
0.0
  0
SPLINE
  5
82
330
70
100
AcDbEntity
  8
Outline
 62
    41
370
   140
100
AcDbSpline
210
0.0
220
0.0
230
1.0
 70
     9
 71
     3
 72
    29
 73
    25
 74
     0
 42
0.0000000001
 43
0.0000000001
 40
0.0
 40
0.0
 40
0.0
 40
0.0
 40
1.0
 40
1.0
 40
1.0
 40
2.0
 40
2.0
 40
2.0
 40
3.0
 40
3.0
 40
3.0
 40
4.0
 40
4.0
 40
4.0
 40
5.0
 40
5.0
 40
5.0
 40
6.0
 40
6.0
 40
6.0
 40
7.0
 40
7.0
 40
7.0
 40
8.0
 40
8.0
 40
8.0
 40
8.0
 10
132.6649322087301
 20
-49.10041804608899
 30
0.0
 10
132.6951413897664
 20
-49.40804354107502
 30
0.0
 10
132.7113979340875
 20
-49.71971702325621
 30
0.0
 10
132.7113979340875
 20
-50.03515857862439
 30
0.0
 10
132.7113979340875
 20
-50.37426363360689
 30
0.0
 10
132.6927298229268
 20
-50.70904078738605
 30
0.0
 10
132.6578697629854
 20
-51.0390594030262
 30
0.0
 10
132.6578697629854
 20
-51.0390594030262
 30
0.0
 10
122.1227893009382
 20
-52.3766823207148
 30
0.0
 10
122.1227893009382
 20
-52.3766823207148
 30
0.0
 10
122.1227893009382
 20
-52.3766823207148
 30
0.0
 10
113.9515826379419
 20
-52.07982274912017
 30
0.0
 10
113.9515826379419
 20
-52.07982274912017
 30
0.0
 10
113.8062857358515
 20
-51.42081904648545
 30
0.0
 10
113.7273715173925
 20
-50.73720444297797
 30
0.0
 10
113.7273715173925
 20
-50.03515857862439
 30
0.0
 10
113.7273715173925
 20
-49.33330650089188
 30
0.0
 10
113.8062426721579
 20
-48.64988568400544
 30
0.0
 10
113.9514534468612
 20
-47.99105423614498
 30
0.0
 10
113.9514534468612
 20
-47.99105423614498
 30
0.0
 10
122.1329308007729
 20
-47.69391475054217
 30
0.0
 10
122.1329308007729
 20
-47.69391475054217
 30
0.0
 10
122.1329308007729
 20
-47.69391475054217
 30
0.0
 10
132.6649322087301
 20
-49.10041804608899
 30
0.0
 10
132.6649322087301
 20
-49.10041804608899
 30
0.0
  0
SPLINE
  5
83
330
70
100
AcDbEntity
  8
Outline
 62
    41
370
   140
100
AcDbSpline
210
0.0
220
0.0
230
1.0
 70
     9
 71
     3
 72
    41
 73
    37
 74
     0
 42
0.0000000001
 43
0.0000000001
 40
0.0
 40
0.0
 40
0.0
 40
0.0
 40
1.0
 40
1.0
 40
1.0
 40
2.0
 40
2.0
 40
2.0
 40
3.0
 40
3.0
 40
3.0
 40
4.0
 40
4.0
 40
4.0
 40
5.0
 40
5.0
 40
5.0
 40
6.0
 40
6.0
 40
6.0
 40
7.0
 40
7.0
 40
7.0
 40
8.0
 40
8.0
 40
8.0
 40
9.0
 40
9.0
 40
9.0
 40
10.0
 40
10.0
 40
10.0
 40
11.0
 40
11.0
 40
11.0
 40
12.0
 40
12.0
 40
12.0
 40
12.0
 10
123.2194708531271
 20
-61.9967023581861
 30
0.0
 10
128.8287322585173
 20
-61.9967023581861
 30
0.0
 10
133.546295293091
 20
-58.1146180424791
 30
0.0
 10
134.8323925014283
 20
-52.89663335682613
 30
0.0
 10
134.8323925014283
 20
-52.89663335682613
 30
0.0
 10
156.4902867153064
 20
-50.14675814049971
 30
0.0
 10
156.4902867153064
 20
-50.14675814049971
 30
0.0
 10
156.4902867153064
 20
-50.14675814049971
 30
0.0
 10
134.8516635042989
 20
-47.25701204747214
 30
0.0
 10
134.8516635042989
 20
-47.25701204747214
 30
0.0
 10
133.5953879037558
 20
-41.99723404721374
 30
0.0
 10
128.8584246752308
 20
-38.07361479906271
 30
0.0
 10
123.2194708531271
 20
-38.07361479906271
 30
0.0
 10
118.0599451314895
 20
-38.07361479906271
 30
0.0
 10
113.6533234963064
 20
-41.3574152200625
 30
0.0
 10
111.9788133038539
 20
-45.944624454213
 30
0.0
 10
111.9788133038539
 20
-45.944624454213
 30
0.0
 10
75.86010925879292
 20
-47.25638762391544
 30
0.0
 10
75.86010925879292
 20
-47.25638762391544
 30
0.0
 10
74.97618388466495
 20
-45.97571644096738
 30
0.0
 10
73.50004659662253
 20
-45.13515620625999
 30
0.0
 10
71.82620389142032
 20
-45.13515620625999
 30
0.0
 10
69.12001679221622
 20
-45.13515620625999
 30
0.0
 10
66.92620151905591
 20
-47.32894994757351
 30
0.0
 10
66.92620151905591
 20
-50.03515857862439
 30
0.0
 10
66.92620151905591
 20
-52.7413456778285
 30
0.0
 10
69.12001679221622
 20
-54.93516095098881
 30
0.0
 10
71.82620389142032
 20
-54.93516095098881
 30
0.0
 10
73.49998200108217
 20
-54.93516095098881
 30
0.0
 10
74.97607622543103
 20
-54.09464377997498
 30
0.0
 10
75.86002313140579
 20
-52.81403719256727
 30
0.0
 10
75.86002313140579
 20
-52.81403719256727
 30
0.0
 10
111.979007090475
 20
-54.12623099920536
 30
0.0
 10
111.979007090475
 20
-54.12623099920536
 30
0.0
 10
113.6536680058549
 20
-58.71316031934769
 30
0.0
 10
118.0601389181105
 20
-61.9967023581861
 30
0.0
 10
123.2194708531271
 20
-61.9967023581861
 30
0.0
  0
SPLINE
  5
84
330
70
100
AcDbEntity
  8
Outline
 62
    41
370
   140
100
AcDbSpline
210
0.0
220
0.0
230
1.0
 70
     9
 71
     3
 72
    17
 73
    13
 74
     0
 42
0.0000000001
 43
0.0000000001
 40
0.0
 40
0.0
 40
0.0
 40
0.0
 40
1.0
 40
1.0
 40
1.0
 40
2.0
 40
2.0
 40
2.0
 40
3.0
 40
3.0
 40
3.0
 40
4.0
 40
4.0
 40
4.0
 40
4.0
 10
72.8077836113969
 20
-24.66725343124918
 30
0.0
 10
72.8077836113969
 20
-25.49571276806463
 30
0.0
 10
72.13622684208778
 20
-26.16724800552696
 30
0.0
 10
71.30778903711912
 20
-26.16724800552696
 30
0.0
 10
70.47937276399721
 20
-26.16724800552696
 30
0.0
 10
69.80779446284133
 20
-25.49571276806463
 30
0.0
 10
69.80779446284133
 20
-24.66725343124918
 30
0.0
 10
69.80779446284133
 20
-23.83888022182085
 30
0.0
 10
70.47937276399721
 20
-23.1672588569714
 30
0.0
 10
71.30778903711912
 20
-23.1672588569714
 30
0.0
 10
72.13622684208778
 20
-23.1672588569714
 30
0.0
 10
72.8077836113969
 20
-23.83888022182085
 30
0.0
 10
72.8077836113969
 20
-24.66725343124918
 30
0.0
  0
SPLINE
  5
85
330
70
100
AcDbEntity
  8
Outline
 62
    41
370
   140
100
AcDbSpline
210
0.0
220
0.0
230
1.0
 70
     9
 71
     3
 72
    62
 73
    58
 74
     0
 42
0.0000000001
 43
0.0000000001
 40
0.0
 40
0.0
 40
0.0
 40
0.0
 40
1.0
 40
1.0
 40
1.0
 40
2.0
 40
2.0
 40
2.0
 40
3.0
 40
3.0
 40
3.0
 40
4.0
 40
4.0
 40
4.0
 40
5.0
 40
5.0
 40
5.0
 40
6.0
 40
6.0
 40
6.0
 40
7.0
 40
7.0
 40
7.0
 40
8.0
 40
8.0
 40
8.0
 40
9.0
 40
9.0
 40
9.0
 40
10.0
 40
10.0
 40
10.0
 40
11.0
 40
11.0
 40
11.0
 40
12.0
 40
12.0
 40
12.0
 40
13.0
 40
13.0
 40
13.0
 40
14.0
 40
14.0
 40
14.0
 40
15.0
 40
15.0
 40
15.0
 40
16.0
 40
16.0
 40
16.0
 40
17.0
 40
17.0
 40
17.0
 40
18.0
 40
18.0
 40
18.0
 40
19.0
 40
19.0
 40
19.0
 40
19.0
 10
71.30778903711912
 20
-28.61722765986238
 30
0.0
 10
73.00585506995197
 20
-28.61722765986238
 30
0.0
 10
74.44937161011845
 20
-27.54364977927139
 30
0.0
 10
75.00769239719675
 20
-26.03995172734697
 30
0.0
 10
75.00769239719675
 20
-26.03995172734697
 30
0.0
 10
80.58129706431463
 20
-26.00610366420439
 30
0.0
 10
80.58129706431463
 20
-26.00610366420439
 30
0.0
 10
80.58129706431463
 20
-26.00610366420439
 30
0.0
 10
93.46776285427877
 20
-36.8063918830755
 30
0.0
 10
93.46776285427877
 20
-36.8063918830755
 30
0.0
 10
93.46776285427877
 20
-36.8063918830755
 30
0.0
 10
192.5243564913527
 20
-25.34343954761659
 30
0.0
 10
192.5243564913527
 20
-25.34343954761659
 30
0.0
 10
192.5243564913527
 20
-25.34343954761659
 30
0.0
 10
197.0512334908178
 20
-25.31665393021877
 30
0.0
 10
197.0512334908178
 20
-25.31665393021877
 30
0.0
 10
197.0512334908178
 20
-25.31665393021877
 30
0.0
 10
197.0512334908178
 20
-24.81961277908435
 30
0.0
 10
197.0512334908178
 20
-24.81961277908435
 30
0.0
 10
197.0512334908178
 20
-24.81961277908435
 30
0.0
 10
197.968942332548
 20
-24.71341771075152
 30
0.0
 10
197.968942332548
 20
-24.71341771075152
 30
0.0
 10
197.968942332548
 20
-24.71341771075152
 30
0.0
 10
197.0512334908178
 20
-24.60524171251468
 30
0.0
 10
197.0512334908178
 20
-24.60524171251468
 30
0.0
 10
197.0512334908178
 20
-24.60524171251468
 30
0.0
 10
197.0512334908178
 20
-24.32946181892043
 30
0.0
 10
197.0512334908178
 20
-24.32946181892043
 30
0.0
 10
197.0512334908178
 20
-24.32946181892043
 30
0.0
 10
194.54458201575
 20
-24.30965251988024
 30
0.0
 10
194.54458201575
 20
-24.30965251988024
 30
0.0
 10
194.54458201575
 20
-24.30965251988024
 30
0.0
 10
93.46776285427877
 20
-12.39194758036834
 30
0.0
 10
93.46776285427877
 20
-12.39194758036834
 30
0.0
 10
93.46776285427877
 20
-12.39194758036834
 30
0.0
 10
80.56721523651866
 20
-23.40832941355175
 30
0.0
 10
80.56721523651866
 20
-23.40832941355175
 30
0.0
 10
80.56721523651866
 20
-23.40832941355175
 30
0.0
 10
75.03333682671507
 20
-23.36457670088908
 30
0.0
 10
75.03333682671507
 20
-23.36457670088908
 30
0.0
 10
74.49454542466878
 20
-21.82410225465961
 30
0.0
 10
73.03216698672057
 20
-20.71727920263597
 30
0.0
 10
71.30778903711912
 20
-20.71727920263597
 30
0.0
 10
69.67886176430586
 20
-20.71727920263597
 30
0.0
 10
68.2810573348593
 20
-21.70369616745013
 30
0.0
 10
67.67700290521431
 20
-23.11144831011035
 30
0.0
 10
67.67700290521431
 20
-23.11144831011035
 30
0.0
 10
23.45547734253922
 20
-18.3630732027905
 30
0.0
 10
23.45547734253922
 20
-18.3630732027905
 30
0.0
 10
23.45547734253922
 20
-18.3630732027905
 30
0.0
 10
23.45547734253922
 20
-30.81382054125767
 30
0.0
 10
23.45547734253922
 20
-30.81382054125767
 30
0.0
 10
23.45547734253922
 20
-30.81382054125767
 30
0.0
 10
67.71199215623638
 20
-26.29566393973964
 30
0.0
 10
67.71199215623638
 20
-26.29566393973964
 30
0.0
 10
68.33273376713805
 20
-27.66388361170662
 30
0.0
 10
69.70754218422057
 20
-28.61722765986238
 30
0.0
 10
71.30778903711912
 20
-28.61722765986238
 30
0.0
  0
SPLINE
  5
86
330
70
100
AcDbEntity
  8
Outline
 62
    41
370
   140
100
AcDbSpline
210
0.0
220
0.0
230
1.0
 70
    11
 71
     3
 72
    26
 73
    22
 74
     0
 42
0.0000000001
 43
0.0000000001
 40
0.0
 40
0.0
 40
0.0
 40
0.0
 40
1.0
 40
1.0
 40
1.0
 40
2.0
 40
2.0
 40
2.0
 40
3.0
 40
3.0
 40
3.0
 40
4.0
 40
4.0
 40
4.0
 40
5.0
 40
5.0
 40
5.0
 40
6.0
 40
6.0
 40
6.0
 40
7.0
 40
7.0
 40
7.0
 40
7.0
 10
104.9831698685024
 20
-67.82281967162936
 30
0.0
 10
104.9831698685024
 20
-67.82281967162936
 30
0.0
 10
30.22541604875875
 20
-67.82281967162936
 30
0.0
 10
30.22541604875875
 20
-67.82281967162936
 30
0.0
 10
29.89513905095721
 20
-66.03210210209006
 30
0.0
 10
28.32858953827376
 20
-64.67456222612736
 30
0.0
 10
26.44231363271234
 20
-64.67456222612736
 30
0.0
 10
24.31602223106292
 20
-64.67456222612736
 30
0.0
 10
22.59231176871173
 20
-66.39831575217212
 30
0.0
 10
22.59231176871173
 20
-68.52458562197476
 30
0.0
 10
22.59231176871173
 20
-70.65085549177739
 30
0.0
 10
24.31602223106292
 20
-72.37460901782215
 30
0.0
 10
26.44231363271234
 20
-72.37460901782215
 30
0.0
 10
28.32858953827376
 20
-72.37460901782215
 30
0.0
 10
29.89513905095721
 20
-71.01706914185945
 30
0.0
 10
30.22541604875875
 20
-69.22635157232015
 30
0.0
 10
30.22541604875875
 20
-69.22635157232015
 30
0.0
 10
104.9831698685024
 20
-69.22635157232015
 30
0.0
 10
104.9831698685024
 20
-69.22635157232015
 30
0.0
 10
104.9831698685024
 20
-69.22635157232015
 30
0.0
 10
104.9831698685024
 20
-67.82281967162936
 30
0.0
 10
104.9831698685024
 20
-67.82281967162936
 30
0.0
  0
INSERT
  5
89
330
70
100
AcDbEntity
  8
Etch Layer
100
AcDbBlockReference
  2
Block_0
 10
0.0
 20
0.0
 30
0.0
  0
LWPOLYLINE
  5
BA
330
70
100
AcDbEntity
  8
Etch Layer
 62
   251
370
   140
100
AcDbPolyline
 90
       10
 70
     0
 43
0.0
 10
72.12482044520169
 20
-99.10922587767261
 10
70.44292482930273
 20
-97.78198131013333
 10
70.44292482930273
 20
-94.15304691705186
 10
70.44292482930273
 20
-92.33459632885629
 10
63.53994394181405
 20
-92.33459632885629
 10
57.01846431562325
 20
-87.18826962929652
 10
50.49689856204531
 20
-92.33461786070307
 10
43.44293636491556
 20
-92.33461786070307
 10
43.44293636491556
 20
-97.9011600820762
 10
41.91206512235123
 20
-99.10922587767261
  0
LWPOLYLINE
  5
BB
330
70
100
AcDbEntity
  8
Etch Layer
 62
   251
370
   140
100
AcDbPolyline
 90
        3
 70
     0
 43
0.0
 10
80.61030594383987
 20
-118.548457067203
 10
88.55086346409866
 20
-112.0715483638526
 10
80.61030594383987
 20
-105.8053933768124
  0
LWPOLYLINE
  5
BC
330
70
100
AcDbEntity
  8
Etch Layer
 62
   251
370
   140
100
AcDbPolyline
 90
        3
 70
     0
 43
0.0
 10
33.61028934046401
 20
-105.6604194524237
 10
25.48602210345427
 20
-112.0715483638526
 10
33.61033240415757
 20
-118.6983187208114
  0
LWPOLYLINE
  5
BD
330
70
100
AcDbEntity
  8
Etch Layer
 62
   251
370
   140
100
AcDbPolyline
 90
       12
 70
     0
 43
0.0
 10
42.6959104726327
 20
-126.1092143420597
 10
43.44293636491556
 20
-126.7185440741665
 10
43.44293636491556
 20
-132.6018197617148
 10
50.65571746391532
 20
-132.6018197617148
 10
57.01846431562325
 20
-137.791726919163
 10
63.38116810363761
 20
-132.6018197617148
 10
67.92094267932558
 20
-132.6018197617148
 10
70.41424440938802
 20
-132.6018197617148
 10
70.44292482930273
 20
-132.1450862277578
 10
70.44292482930273
 20
-129.9826859190536
 10
70.44292482930273
 20
-126.841727769611
 10
71.34097509492022
 20
-126.1092143420597
  0
ENDSEC
  0
SECTION
  2
OBJECTS
  0
DICTIONARY
  5
C
330
0
100
AcDbDictionary
281
     1
  3
ACAD_COLOR
350
63
  3
ACAD_DETAILVIEWSTYLE
350
6A
  3
ACAD_GROUP
350
D
  3
ACAD_LAYOUT
350
62
  3
ACAD_MATERIAL
350
10
  3
ACAD_MLEADERSTYLE
350
66
  3
ACAD_MLINESTYLE
350
5F
  3
ACAD_PLOTSETTINGS
350
61
  3
ACAD_PLOTSTYLENAME
350
E
  3
ACAD_SCALELIST
350
42
  3
ACAD_SECTIONVIEWSTYLE
350
68
  3
ACAD_TABLESTYLE
350
64
  3
ACAD_VISUALSTYLE
350
29
  3
ACDB_RECOMPOSE_DATA
350
C7
  3
AcDbVariableDictionary
350
BE
  0
DICTIONARY
  5
63
102
{ACAD_REACTORS
330
C
102
}
330
C
100
AcDbDictionary
281
     1
  0
DICTIONARY
  5
6A
102
{ACAD_REACTORS
330
C
102
}
330
C
100
AcDbDictionary
281
     1
  3
Imperial24
350
6B
  0
DICTIONARY
  5
D
102
{ACAD_REACTORS
330
C
102
}
330
C
100
AcDbDictionary
281
     1
  0
DICTIONARY
  5
62
102
{ACAD_REACTORS
330
C
102
}
330
C
100
AcDbDictionary
281
     1
  3
Layout1
350
6F
  3
Layout2
350
77
  3
Model
350
73
  0
DICTIONARY
  5
10
102
{ACAD_REACTORS
330
C
102
}
330
C
100
AcDbDictionary
281
     1
  3
ByBlock
350
19
  3
ByLayer
350
11
  3
Global
350
21
  0
DICTIONARY
  5
66
102
{ACAD_REACTORS
330
C
102
}
330
C
100
AcDbDictionary
281
     1
  3
Standard
350
67
  0
DICTIONARY
  5
5F
102
{ACAD_REACTORS
330
C
102
}
330
C
100
AcDbDictionary
281
     1
  3
Standard
350
60
  0
DICTIONARY
  5
61
102
{ACAD_REACTORS
330
C
102
}
330
C
100
AcDbDictionary
281
     1
  0
ACDBDICTIONARYWDFLT
  5
E
102
{ACAD_REACTORS
330
C
102
}
330
C
100
AcDbDictionary
281
     1
  3
Normal
350
F
100
AcDbDictionaryWithDefault
340
F
  0
DICTIONARY
  5
42
102
{ACAD_REACTORS
330
C
102
}
330
C
100
AcDbDictionary
281
     1
  3
A0
350
43
  3
A1
350
44
  3
A2
350
45
  3
A3
350
46
  3
A4
350
47
  3
A5
350
48
  3
A6
350
49
  3
A7
350
4A
  3
A8
350
4B
  3
A9
350
4C
  3
B0
350
4D
  3
B1
350
4E
  3
B2
350
4F
  3
B3
350
50
  3
B4
350
51
  3
B5
350
52
  3
B6
350
53
  0
DICTIONARY
  5
68
102
{ACAD_REACTORS
330
C
102
}
330
C
100
AcDbDictionary
281
     1
  3
Imperial24
350
69
  0
DICTIONARY
  5
64
102
{ACAD_REACTORS
330
C
102
}
330
C
100
AcDbDictionary
281
     1
  3
Standard
350
65
  0
DICTIONARY
  5
29
102
{ACAD_REACTORS
330
C
102
}
330
C
100
AcDbDictionary
281
     1
  3
2dWireframe
350
2F
  3
Basic
350
2E
  3
Brighten
350
35
  3
ColorChange
350
39
  3
Conceptual
350
32
  3
Dim
350
34
  3
EdgeColorOff
350
41
  3
Facepattern
350
38
  3
Flat
350
2A
  3
FlatWithEdges
350
2B
  3
Gouraud
350
2C
  3
GouraudWithEdges
350
2D
  3
Hidden
350
31
  3
JitterOff
350
3F
  3
Linepattern
350
37
  3
OverhangOff
350
40
  3
Realistic
350
33
  3
Shaded
350
3E
  3
Shaded with edges
350
3D
  3
Shades of Gray
350
3A
  3
Sketchy
350
3B
  3
Thicken
350
36
  3
Wireframe
350
30
  3
X-Ray
350
3C
  0
XRECORD
  5
C7
102
{ACAD_REACTORS
330
C
102
}
330
C
100
AcDbXrecord
280
     1
 90
        1
330
65
  0
DICTIONARY
  5
BE
102
{ACAD_REACTORS
330
C
102
}
330
C
100
AcDbDictionary
281
     1
  3
CANNOSCALE
350
C3
  3
CMLEADERSTYLE
350
C0
  3
CTABLESTYLE
350
BF
  3
CVIEWDETAILSTYLE
350
C1
  3
CVIEWSECTIONSTYLE
350
C2
  3
XCLIPFRAME
350
C4
  0
ACDBDETAILVIEWSTYLE
  5
6B
102
{ACAD_XDICTIONARY
360
FD
102
}
102
{ACAD_REACTORS
330
6A
102
}
330
6A
100
AcDbModelDocViewStyle
 70
     0
  3
Imperial24
290
     0
100
AcDbDetailViewStyle
 70
     0
 71
     0
 90
        3
 71
     1
340
55
 62
   256
 40
0.24
340
0
 62
   256
 40
0.24
300

 40
0.36
280
     3
 71
     2
340
5D
 90
       25
 62
   256
 71
     3
340
55
 62
   256
 40
0.24
 90
        1
 40
0.75
 90
        1
300
%<\AcVar ViewType \f "%tc1">% %<\AcVar ViewDetailId>%\PSCALE %<\AcVar ViewScale \f "%sn">%
 71
     4
340
5D
 90
       25
 62
   256
340
5D
 90
       25
 62
   256
280
     0
  0
LAYOUT
  5
6F
102
{ACAD_REACTORS
330
62
102
}
330
62
100
AcDbPlotSettings
  1

  2

  4

  6

 40
0.0
 41
0.0
 42
0.0
 43
0.0
 44
0.0
 45
0.0
 46
0.0
 47
0.0
 48
0.0
 49
0.0
140
0.0
141
0.0
142
1.0
143
1.0
 70
   688
 72
     0
 73
     0
 74
     5
  7

 75
    16
147
1.0
 76
     0
 77
     2
 78
   300
148
0.0
149
0.0
100
AcDbLayout
  1
Layout1
 70
     1
 71
     1
 10
0.0
 20
0.0
 11
12.0
 21
9.0
 12
0.0
 22
0.0
 32
0.0
 14
0.0
 24
0.0
 34
0.0
 15
0.0
 25
0.0
 35
0.0
146
0.0
 13
0.0
 23
0.0
 33
0.0
 16
1.0
 26
0.0
 36
0.0
 17
0.0
 27
1.0
 37
0.0
 76
     0
330
6C
  0
LAYOUT
  5
77
102
{ACAD_REACTORS
330
62
102
}
330
62
100
AcDbPlotSettings
  1

  2

  4

  6

 40
0.0
 41
0.0
 42
0.0
 43
0.0
 44
0.0
 45
0.0
 46
0.0
 47
0.0
 48
0.0
 49
0.0
140
0.0
141
0.0
142
1.0
143
1.0
 70
   688
 72
     0
 73
     0
 74
     5
  7

 75
    16
147
1.0
 76
     0
 77
     2
 78
   300
148
0.0
149
0.0
100
AcDbLayout
  1
Layout2
 70
     1
 71
     2
 10
0.0
 20
0.0
 11
12.0
 21
9.0
 12
0.0
 22
0.0
 32
0.0
 14
0.0
 24
0.0
 34
0.0
 15
0.0
 25
0.0
 35
0.0
146
0.0
 13
0.0
 23
0.0
 33
0.0
 16
1.0
 26
0.0
 36
0.0
 17
0.0
 27
1.0
 37
0.0
 76
     0
330
74
  0
LAYOUT
  5
73
102
{ACAD_REACTORS
330
62
102
}
330
62
100
AcDbPlotSettings
  1

  2

  4

  6

 40
0.0
 41
0.0
 42
0.0
 43
0.0
 44
0.0
 45
0.0
 46
0.0
 47
0.0
 48
0.0
 49
0.0
140
0.0
141
0.0
142
1.0
143
1.0
 70
  1712
 72
     0
 73
     0
 74
     0
  7

 75
     0
147
1.0
 76
     0
 77
     2
 78
   300
148
0.0
149
0.0
100
AcDbLayout
  1
Model
 70
     1
 71
     0
 10
0.0
 20
0.0
 11
12.0
 21
9.0
 12
0.0
 22
0.0
 32
0.0
 14
0.0
 24
0.0
 34
0.0
 15
0.0
 25
0.0
 35
0.0
146
0.0
 13
0.0
 23
0.0
 33
0.0
 16
1.0
 26
0.0
 36
0.0
 17
0.0
 27
1.0
 37
0.0
 76
     0
330
70
  0
MATERIAL
  5
19
102
{ACAD_XDICTIONARY
360
1A
102
}
102
{ACAD_REACTORS
330
10
102
}
330
10
100
AcDbMaterial
  1
ByBlock
 72
     0
 43
0.0208333333333333
 43
0.0
 43
0.0
 43
0.0
 43
0.0
 43
0.0208333333333333
 43
0.0
 43
0.0
 43
0.0
 43
0.0
 43
1.0
 43
0.0
 43
0.0
 43
0.0
 43
0.0
 43
1.0
 77
     0
 47
0.0208333333333333
 47
0.0
 47
0.0
 47
0.0
 47
0.0
 47
0.0208333333333333
 47
0.0
 47
0.0
 47
0.0
 47
0.0
 47
1.0
 47
0.0
 47
0.0
 47
0.0
 47
0.0
 47
1.0
171
     0
 49
0.0208333333333333
 49
0.0
 49
0.0
 49
0.0
 49
0.0
 49
0.0208333333333333
 49
0.0
 49
0.0
 49
0.0
 49
0.0
 49
1.0
 49
0.0
 49
0.0
 49
0.0
 49
0.0
 49
1.0
175
     0
142
0.0208333333333333
142
0.0
142
0.0
142
0.0
142
0.0
142
0.0208333333333333
142
0.0
142
0.0
142
0.0
142
0.0
142
1.0
142
0.0
142
0.0
142
0.0
142
0.0
142
1.0
179
     0
144
0.0208333333333333
144
0.0
144
0.0
144
0.0
144
0.0
144
0.0208333333333333
144
0.0
144
0.0
144
0.0
144
0.0
144
1.0
144
0.0
144
0.0
144
0.0
144
0.0
144
1.0
147
0.0208333333333333
147
0.0
147
0.0
147
0.0
147
0.0
147
0.0208333333333333
147
0.0
147
0.0
147
0.0
147
0.0
147
1.0
147
0.0
147
0.0
147
0.0
147
0.0
147
1.0
  0
MATERIAL
  5
11
102
{ACAD_XDICTIONARY
360
12
102
}
102
{ACAD_REACTORS
330
10
102
}
330
10
100
AcDbMaterial
  1
ByLayer
 72
     0
 43
0.0208333333333333
 43
0.0
 43
0.0
 43
0.0
 43
0.0
 43
0.0208333333333333
 43
0.0
 43
0.0
 43
0.0
 43
0.0
 43
1.0
 43
0.0
 43
0.0
 43
0.0
 43
0.0
 43
1.0
 77
     0
 47
0.0208333333333333
 47
0.0
 47
0.0
 47
0.0
 47
0.0
 47
0.0208333333333333
 47
0.0
 47
0.0
 47
0.0
 47
0.0
 47
1.0
 47
0.0
 47
0.0
 47
0.0
 47
0.0
 47
1.0
171
     0
 49
0.0208333333333333
 49
0.0
 49
0.0
 49
0.0
 49
0.0
 49
0.0208333333333333
 49
0.0
 49
0.0
 49
0.0
 49
0.0
 49
1.0
 49
0.0
 49
0.0
 49
0.0
 49
0.0
 49
1.0
175
     0
142
0.0208333333333333
142
0.0
142
0.0
142
0.0
142
0.0
142
0.0208333333333333
142
0.0
142
0.0
142
0.0
142
0.0
142
1.0
142
0.0
142
0.0
142
0.0
142
0.0
142
1.0
179
     0
144
0.0208333333333333
144
0.0
144
0.0
144
0.0
144
0.0
144
0.0208333333333333
144
0.0
144
0.0
144
0.0
144
0.0
144
1.0
144
0.0
144
0.0
144
0.0
144
0.0
144
1.0
147
0.0208333333333333
147
0.0
147
0.0
147
0.0
147
0.0
147
0.0208333333333333
147
0.0
147
0.0
147
0.0
147
0.0
147
1.0
147
0.0
147
0.0
147
0.0
147
0.0
147
1.0
  0
MATERIAL
  5
21
102
{ACAD_XDICTIONARY
360
22
102
}
102
{ACAD_REACTORS
330
10
102
}
330
10
100
AcDbMaterial
  1
Global
 72
     0
 43
0.0208333333333333
 43
0.0
 43
0.0
 43
0.0
 43
0.0
 43
0.0208333333333333
 43
0.0
 43
0.0
 43
0.0
 43
0.0
 43
1.0
 43
0.0
 43
0.0
 43
0.0
 43
0.0
 43
1.0
 77
     0
 47
0.0208333333333333
 47
0.0
 47
0.0
 47
0.0
 47
0.0
 47
0.0208333333333333
 47
0.0
 47
0.0
 47
0.0
 47
0.0
 47
1.0
 47
0.0
 47
0.0
 47
0.0
 47
0.0
 47
1.0
171
     0
 49
0.0208333333333333
 49
0.0
 49
0.0
 49
0.0
 49
0.0
 49
0.0208333333333333
 49
0.0
 49
0.0
 49
0.0
 49
0.0
 49
1.0
 49
0.0
 49
0.0
 49
0.0
 49
0.0
 49
1.0
175
     0
142
0.0208333333333333
142
0.0
142
0.0
142
0.0
142
0.0
142
0.0208333333333333
142
0.0
142
0.0
142
0.0
142
0.0
142
1.0
142
0.0
142
0.0
142
0.0
142
0.0
142
1.0
179
     0
144
0.0208333333333333
144
0.0
144
0.0
144
0.0
144
0.0
144
0.0208333333333333
144
0.0
144
0.0
144
0.0
144
0.0
144
1.0
144
0.0
144
0.0
144
0.0
144
0.0
144
1.0
147
0.0208333333333333
147
0.0
147
0.0
147
0.0
147
0.0
147
0.0208333333333333
147
0.0
147
0.0
147
0.0
147
0.0
147
1.0
147
0.0
147
0.0
147
0.0
147
0.0
147
1.0
  0
MLEADERSTYLE
  5
67
102
{ACAD_XDICTIONARY
360
F9
102
}
102
{ACAD_REACTORS
330
66
102
}
330
66
100
AcDbMLeaderStyle
170
     2
171
     1
172
     0
 90
        2
 40
0.0
 41
0.0
173
     1
 91
-1056964608
340
5B
 92
       -2
290
     1
 42
0.09
291
     1
 43
0.36
  3
Standard
 44
0.18
300

342
55
174
     1
178
     6
175
     1
176
     0
 93
-1056964608
 45
0.18
292
     0
297
     0
 46
0.18
 94
-1056964608
 47
1.0
 49
1.0
140
1.0
293
     1
141
0.0
294
     1
177
     0
142
1.0
295
     0
296
     0
143
0.125
1001
ACAD_MLEADERVER
1070
     2
  0
MLINESTYLE
  5
60
102
{ACAD_REACTORS
330
5F
102
}
330
5F
100
AcDbMlineStyle
  2
STANDARD
 70
     0
  3

 62
   256
 51
90.0
 52
90.0
 71
     2
 49
0.5
 62
   256
  6
BYLAYER
 49
-0.5
 62
   256
  6
BYLAYER
  0
ACDBPLACEHOLDER
  5
F
102
{ACAD_REACTORS
330
E
102
}
330
E
  0
SCALE
  5
43
102
{ACAD_REACTORS
330
42
102
}
330
42
100
AcDbScale
 70
     0
300
1:1
140
1.0
141
1.0
290
     1
  0
SCALE
  5
44
102
{ACAD_REACTORS
330
42
102
}
330
42
100
AcDbScale
 70
     0
300
1/128" = 1'-0"
140
0.0078125
141
12.0
290
     0
  0
SCALE
  5
45
102
{ACAD_REACTORS
330
42
102
}
330
42
100
AcDbScale
 70
     0
300
1/64" = 1'-0"
140
0.015625
141
12.0
290
     0
  0
SCALE
  5
46
102
{ACAD_REACTORS
330
42
102
}
330
42
100
AcDbScale
 70
     0
300
1/32" = 1'-0"
140
0.03125
141
12.0
290
     0
  0
SCALE
  5
47
102
{ACAD_REACTORS
330
42
102
}
330
42
100
AcDbScale
 70
     0
300
1/16" = 1'-0"
140
0.0625
141
12.0
290
     0
  0
SCALE
  5
48
102
{ACAD_REACTORS
330
42
102
}
330
42
100
AcDbScale
 70
     0
300
3/32" = 1'-0"
140
0.09375
141
12.0
290
     0
  0
SCALE
  5
49
102
{ACAD_REACTORS
330
42
102
}
330
42
100
AcDbScale
 70
     0
300
1/8" = 1'-0"
140
0.125
141
12.0
290
     0
  0
SCALE
  5
4A
102
{ACAD_REACTORS
330
42
102
}
330
42
100
AcDbScale
 70
     0
300
3/16" = 1'-0"
140
0.1875
141
12.0
290
     0
  0
SCALE
  5
4B
102
{ACAD_REACTORS
330
42
102
}
330
42
100
AcDbScale
 70
     0
300
1/4" = 1'-0"
140
0.25
141
12.0
290
     0
  0
SCALE
  5
4C
102
{ACAD_REACTORS
330
42
102
}
330
42
100
AcDbScale
 70
     0
300
3/8" = 1'-0"
140
0.375
141
12.0
290
     0
  0
SCALE
  5
4D
102
{ACAD_REACTORS
330
42
102
}
330
42
100
AcDbScale
 70
     0
300
1/2" = 1'-0"
140
0.5
141
12.0
290
     0
  0
SCALE
  5
4E
102
{ACAD_REACTORS
330
42
102
}
330
42
100
AcDbScale
 70
     0
300
3/4" = 1'-0"
140
0.75
141
12.0
290
     0
  0
SCALE
  5
4F
102
{ACAD_REACTORS
330
42
102
}
330
42
100
AcDbScale
 70
     0
300
1" = 1'-0"
140
1.0
141
12.0
290
     0
  0
SCALE
  5
50
102
{ACAD_REACTORS
330
42
102
}
330
42
100
AcDbScale
 70
     0
300
1-1/2" = 1'-0"
140
1.5
141
12.0
290
     0
  0
SCALE
  5
51
102
{ACAD_REACTORS
330
42
102
}
330
42
100
AcDbScale
 70
     0
300
3" = 1'-0"
140
3.0
141
12.0
290
     0
  0
SCALE
  5
52
102
{ACAD_REACTORS
330
42
102
}
330
42
100
AcDbScale
 70
     0
300
6" = 1'-0"
140
6.0
141
12.0
290
     0
  0
SCALE
  5
53
102
{ACAD_REACTORS
330
42
102
}
330
42
100
AcDbScale
 70
     0
300
1'-0" = 1'-0"
140
12.0
141
12.0
290
     0
  0
ACDBSECTIONVIEWSTYLE
  5
69
102
{ACAD_XDICTIONARY
360
FB
102
}
102
{ACAD_REACTORS
330
68
102
}
330
68
100
AcDbModelDocViewStyle
 70
     0
  3
Imperial24
290
     0
100
AcDbSectionViewStyle
 70
     0
 71
     0
 90
       78
 71
     1
340
55
 62
   256
 40
0.24
340
0
340
0
 62
   256
 40
0.24
300
I, O, Q, S, X, Z
 40
0.48
 90
        3
 40
0.18
 90
        1
 71
     2
340
5D
 90
       25
 62
   256
340
5D
 90
       50
 62
   256
 40
0.24
 40
0.0
 40
0.24
 71
     3
340
55
 62
   256
 40
0.24
 90
        1
 40
0.75
 90
        1
300
%<\AcVar ViewType \f "%tc1">% %<\AcVar ViewSectionStartId>%-%<\AcVar ViewSectionEndId>%\PSCALE %<\AcVar ViewScale \f "%sn">%
 71
     4
 62
   256
 62
   257
300
ANSI31
 40
1.0
 90
        0
290
     0
290
     0
 90
        6
 40
0.0
 40
1.570796326794896
 40
0.2617993877991494
 40
1.308996938995747
 40
-0.2617993877991494
 40
1.832595714594046
  0
TABLESTYLE
  5
65
102
{ACAD_XDICTIONARY
360
C5
102
}
102
{ACAD_REACTORS
330
64
102
}
330
64
100
AcDbTableStyle
  3
Standard
 70
     0
 71
     0
 40
0.06
 41
0.06
280
     0
281
     0
  7
Standard
140
0.18
170
     2
 62
     0
 63
     7
283
     0
 90
      512
 91
        0
  1

274
    -2
284
     1
 64
     0
275
    -2
285
     1
 65
     0
276
    -2
286
     1
 66
     0
277
    -2
287
     1
 67
     0
278
    -2
288
     1
 68
     0
279
    -2
289
     1
 69
     0
  7
Standard
140
0.25
170
     5
 62
     0
 63
     7
283
     0
 90
      512
 91
        0
  1

274
    -2
284
     1
 64
     0
275
    -2
285
     1
 65
     0
276
    -2
286
     1
 66
     0
277
    -2
287
     1
 67
     0
278
    -2
288
     1
 68
     0
279
    -2
289
     1
 69
     0
  7
Standard
140
0.18
170
     5
 62
     0
 63
     7
283
     0
 90
      512
 91
        0
  1

274
    -2
284
     1
 64
     0
275
    -2
285
     1
 65
     0
276
    -2
286
     1
 66
     0
277
    -2
287
     1
 67
     0
278
    -2
288
     1
 68
     0
279
    -2
289
     1
 69
     0
  0
VISUALSTYLE
  5
2F
102
{ACAD_XDICTIONARY
360
D2
102
}
102
{ACAD_REACTORS
330
29
102
}
330
29
100
AcDbVisualStyle
  2
2dWireframe
 70
     4
 71
     0
 72
     2
 73
     0
 90
        0
 40
-0.6
 41
-30.0
 62
     5
 63
     7
421
 16777215
 74
     1
 91
        4
 64
     7
 65
   257
 75
     1
175
     1
 42
1.0
 92
        0
 66
   257
 43
1.0
 76
     1
 77
     6
 78
     2
 67
     7
 79
     5
170
     0
171
     0
290
     0
174
     0
 93
        1
 44
0.0
173
     0
291
     0
 45
0.0
1001
ACAD
1000
AcDbSavedByObjectVersion
1070
     0
  0
VISUALSTYLE
  5
2E
102
{ACAD_XDICTIONARY
360
D0
102
}
102
{ACAD_REACTORS
330
29
102
}
330
29
100
AcDbVisualStyle
  2
Basic
 70
     7
 71
     1
 72
     0
 73
     1
 90
        0
 40
-0.6
 41
-30.0
 62
     5
 63
     7
421
 16777215
 74
     0
 91
        4
 64
     7
 65
   257
 75
     1
175
     1
 42
1.0
 92
        8
 66
     7
 43
1.0
 76
     1
 77
     6
 78
     2
 67
     7
 79
     5
170
     0
171
     0
290
     0
174
     0
 93
        1
 44
0.0
173
     0
291
     1
 45
0.0
1001
ACAD
1000
AcDbSavedByObjectVersion
1070
     0
  0
VISUALSTYLE
  5
35
102
{ACAD_XDICTIONARY
360
DE
102
}
102
{ACAD_REACTORS
330
29
102
}
330
29
100
AcDbVisualStyle
  2
Brighten
 70
    12
 71
     2
 72
     2
 73
     0
 90
        0
 40
-0.6
 41
-30.0
 62
     5
 63
     7
421
 16777215
 74
     1
 91
        4
 64
     7
 65
   257
 75
     1
175
     1
 42
1.0
 92
        8
 66
     7
 43
1.0
 76
     1
 77
     6
 78
     2
 67
     7
 79
     5
170
     0
171
     0
290
     0
174
     0
 93
        1
 44
50.0
173
     0
291
     1
 45
0.0
1001
ACAD
1000
AcDbSavedByObjectVersion
1070
     0
  0
VISUALSTYLE
  5
39
102
{ACAD_XDICTIONARY
360
E6
102
}
102
{ACAD_REACTORS
330
29
102
}
330
29
100
AcDbVisualStyle
  2
ColorChange
 70
    16
 71
     2
 72
     2
 73
     3
 90
        0
 40
-0.6
 41
-30.0
 62
     5
 63
     8
421
  8421504
 74
     1
 91
        4
 64
     7
 65
   257
 75
     1
175
     1
 42
1.0
 92
        8
 66
     8
424
  8421504
 43
1.0
 76
     1
 77
     6
 78
     2
 67
     7
 79
     5
170
     0
171
     0
290
     0
174
     0
 93
        1
 44
0.0
173
     0
291
     1
 45
0.0
1001
ACAD
1000
AcDbSavedByObjectVersion
1070
     0
  0
VISUALSTYLE
  5
32
102
{ACAD_XDICTIONARY
360
D8
102
}
102
{ACAD_REACTORS
330
29
102
}
330
29
100
AcDbVisualStyle
  2
Conceptual
 70
     9
 71
     3
 72
     2
 73
     0
 90
        0
 40
-0.6
 41
-30.0
 62
     5
 63
     7
421
 16777215
 74
     2
 91
        2
 64
     7
 65
   257
 75
     1
175
     1
 42
179.0
 92
        8
 66
     7
 43
1.0
 76
     1
 77
     6
 78
     2
 67
     7
 79
     3
170
     0
171
     0
290
     0
174
     0
 93
        1
 44
0.0
173
     0
291
     0
 45
0.0
1001
ACAD
1000
AcDbSavedByObjectVersion
1070
     0
  0
VISUALSTYLE
  5
34
102
{ACAD_XDICTIONARY
360
DC
102
}
102
{ACAD_REACTORS
330
29
102
}
330
29
100
AcDbVisualStyle
  2
Dim
 70
    11
 71
     2
 72
     2
 73
     0
 90
        0
 40
-0.6
 41
-30.0
 62
     5
 63
     7
421
 16777215
 74
     1
 91
        4
 64
     7
 65
   257
 75
     1
175
     1
 42
1.0
 92
        8
 66
     7
 43
1.0
 76
     1
 77
     6
 78
     2
 67
     7
 79
     5
170
     0
171
     0
290
     0
174
     0
 93
        1
 44
-50.0
173
     0
291
     1
 45
0.0
1001
ACAD
1000
AcDbSavedByObjectVersion
1070
     0
  0
VISUALSTYLE
  5
41
102
{ACAD_XDICTIONARY
360
F6
102
}
102
{ACAD_REACTORS
330
29
102
}
330
29
100
AcDbVisualStyle
  2
EdgeColorOff
 70
    22
 71
     2
 72
     2
 73
     0
 90
        0
 40
-0.6
 41
-30.0
 62
     5
 63
     7
421
 16777215
 74
     1
 91
        4
 64
     7
 65
   257
 75
     1
175
     1
 42
1.0
 92
        8
 66
     7
 43
1.0
 76
     1
 77
     6
 78
     2
 67
     7
 79
     5
170
     0
171
     0
290
     0
174
     0
 93
        1
 44
0.0
173
     0
291
     1
 45
0.0
1001
ACAD
1000
AcDbSavedByObjectVersion
1070
     0
  0
VISUALSTYLE
  5
38
102
{ACAD_XDICTIONARY
360
E4
102
}
102
{ACAD_REACTORS
330
29
102
}
330
29
100
AcDbVisualStyle
  2
Facepattern
 70
    15
 71
     2
 72
     2
 73
     0
 90
        0
 40
-0.6
 41
-30.0
 62
     5
 63
     7
421
 16777215
 74
     1
 91
        4
 64
     7
 65
   257
 75
     1
175
     1
 42
1.0
 92
        8
 66
     7
 43
1.0
 76
     1
 77
     6
 78
     2
 67
     7
 79
     5
170
     0
171
     0
290
     0
174
     0
 93
        1
 44
0.0
173
     0
291
     1
 45
0.0
1001
ACAD
1000
AcDbSavedByObjectVersion
1070
     0
  0
VISUALSTYLE
  5
2A
102
{ACAD_XDICTIONARY
360
C8
102
}
102
{ACAD_REACTORS
330
29
102
}
330
29
100
AcDbVisualStyle
  2
Flat
 70
     0
 71
     2
 72
     1
 73
     1
 90
        2
 40
-0.6
 41
30.0
 62
     5
 63
     7
421
 16777215
 74
     0
 91
        0
 64
     7
 65
   257
 75
     1
175
     1
 42
1.0
 92
        8
 66
     7
 43
1.0
 76
     1
 77
     6
 78
     2
 67
     7
 79
     5
170
     0
171
     0
290
     0
174
     0
 93
       13
 44
0.0
173
     0
291
     1
 45
0.0
1001
ACAD
1000
AcDbSavedByObjectVersion
1070
     0
  0
VISUALSTYLE
  5
2B
102
{ACAD_XDICTIONARY
360
CA
102
}
102
{ACAD_REACTORS
330
29
102
}
330
29
100
AcDbVisualStyle
  2
FlatWithEdges
 70
     1
 71
     2
 72
     1
 73
     1
 90
        2
 40
-0.6
 41
30.0
 62
     5
 63
     7
421
 16777215
 74
     1
 91
        0
 64
     7
 65
   257
 75
     1
175
     1
 42
1.0
 92
        0
 66
   257
 43
1.0
 76
     1
 77
     6
 78
     2
 67
     7
 79
     5
170
     0
171
     0
290
     0
174
     0
 93
       13
 44
0.0
173
     0
291
     1
 45
0.0
1001
ACAD
1000
AcDbSavedByObjectVersion
1070
     0
  0
VISUALSTYLE
  5
2C
102
{ACAD_XDICTIONARY
360
CC
102
}
102
{ACAD_REACTORS
330
29
102
}
330
29
100
AcDbVisualStyle
  2
Gouraud
 70
     2
 71
     2
 72
     2
 73
     1
 90
        2
 40
-0.6
 41
30.0
 62
     5
 63
     7
421
 16777215
 74
     0
 91
        0
 64
     7
 65
   257
 75
     1
175
     1
 42
1.0
 92
        0
 66
     7
 43
1.0
 76
     1
 77
     6
 78
     2
 67
     7
 79
     5
170
     0
171
     0
290
     0
174
     0
 93
       13
 44
0.0
173
     0
291
     1
 45
0.0
1001
ACAD
1000
AcDbSavedByObjectVersion
1070
     0
  0
VISUALSTYLE
  5
2D
102
{ACAD_XDICTIONARY
360
CE
102
}
102
{ACAD_REACTORS
330
29
102
}
330
29
100
AcDbVisualStyle
  2
GouraudWithEdges
 70
     3
 71
     2
 72
     2
 73
     1
 90
        2
 40
-0.6
 41
30.0
 62
     5
 63
     7
421
 16777215
 74
     1
 91
        0
 64
     7
 65
   257
 75
     1
175
     1
 42
1.0
 92
        0
 66
   257
 43
1.0
 76
     1
 77
     6
 78
     2
 67
     7
 79
     5
170
     0
171
     0
290
     0
174
     0
 93
       13
 44
0.0
173
     0
291
     1
 45
0.0
1001
ACAD
1000
AcDbSavedByObjectVersion
1070
     0
  0
VISUALSTYLE
  5
31
102
{ACAD_XDICTIONARY
360
D6
102
}
102
{ACAD_REACTORS
330
29
102
}
330
29
100
AcDbVisualStyle
  2
Hidden
 70
     6
 71
     1
 72
     2
 73
     2
 90
        0
 40
-0.6
 41
-30.0
 62
     5
 63
     7
421
 16777215
 74
     2
 91
        2
 64
     7
 65
   257
 75
     2
175
     1
 42
40.0
 92
        0
 66
   257
 43
1.0
 76
     1
 77
     6
 78
     2
 67
     7
 79
     3
170
     0
171
     0
290
     0
174
     0
 93
        1
 44
0.0
173
     0
291
     0
 45
0.0
1001
ACAD
1000
AcDbSavedByObjectVersion
1070
     0
  0
VISUALSTYLE
  5
3F
102
{ACAD_XDICTIONARY
360
F2
102
}
102
{ACAD_REACTORS
330
29
102
}
330
29
100
AcDbVisualStyle
  2
JitterOff
 70
    20
 71
     2
 72
     2
 73
     0
 90
        0
 40
-0.6
 41
-30.0
 62
     5
 63
     7
421
 16777215
 74
     1
 91
        4
 64
     7
 65
   257
 75
     1
175
     1
 42
1.0
 92
       10
 66
     7
 43
1.0
 76
     1
 77
     6
 78
     2
 67
     7
 79
     5
170
     0
171
     0
290
     0
174
     0
 93
        1
 44
0.0
173
     0
291
     1
 45
0.0
1001
ACAD
1000
AcDbSavedByObjectVersion
1070
     0
  0
VISUALSTYLE
  5
37
102
{ACAD_XDICTIONARY
360
E2
102
}
102
{ACAD_REACTORS
330
29
102
}
330
29
100
AcDbVisualStyle
  2
Linepattern
 70
    14
 71
     2
 72
     2
 73
     0
 90
        0
 40
-0.6
 41
-30.0
 62
     5
 63
     7
421
 16777215
 74
     1
 91
        4
 64
     7
 65
   257
 75
     7
175
     7
 42
1.0
 92
        8
 66
     7
 43
1.0
 76
     1
 77
     6
 78
     2
 67
     7
 79
     5
170
     0
171
     0
290
     0
174
     0
 93
        1
 44
0.0
173
     0
291
     1
 45
0.0
1001
ACAD
1000
AcDbSavedByObjectVersion
1070
     0
  0
VISUALSTYLE
  5
40
102
{ACAD_XDICTIONARY
360
F4
102
}
102
{ACAD_REACTORS
330
29
102
}
330
29
100
AcDbVisualStyle
  2
OverhangOff
 70
    21
 71
     2
 72
     2
 73
     0
 90
        0
 40
-0.6
 41
-30.0
 62
     5
 63
     7
421
 16777215
 74
     1
 91
        4
 64
     7
 65
   257
 75
     1
175
     1
 42
1.0
 92
        9
 66
     7
 43
1.0
 76
     1
 77
     6
 78
     2
 67
     7
 79
     5
170
     0
171
     0
290
     0
174
     0
 93
        1
 44
0.0
173
     0
291
     1
 45
0.0
1001
ACAD
1000
AcDbSavedByObjectVersion
1070
     0
  0
VISUALSTYLE
  5
33
102
{ACAD_XDICTIONARY
360
DA
102
}
102
{ACAD_REACTORS
330
29
102
}
330
29
100
AcDbVisualStyle
  2
Realistic
 70
     8
 71
     2
 72
     3
 73
     0
 90
        2
 40
-0.6
 41
30.0
 62
     5
 63
     7
421
 16777215
 74
     0
 91
        0
 64
     7
 65
   257
 75
     1
175
     1
 42
1.0
 92
        8
 66
   257
 43
1.0
 76
     1
 77
     6
 78
     2
 67
     7
 79
     3
170
     0
171
     0
290
     0
174
     0
 93
       13
 44
0.0
173
     0
291
     0
 45
0.0
1001
ACAD
1000
AcDbSavedByObjectVersion
1070
     0
  0
VISUALSTYLE
  5
3E
102
{ACAD_XDICTIONARY
360
F0
102
}
102
{ACAD_REACTORS
330
29
102
}
330
29
100
AcDbVisualStyle
  2
Shaded
 70
    27
 71
     2
 72
     2
 73
     1
 90
        2
 40
-0.6
 41
30.0
 62
     5
 63
     7
421
 16777215
 74
     0
 91
        4
 64
     7
 65
   257
 75
     1
175
     1
 42
1.0
 92
        8
 66
   257
 43
1.0
 76
     1
 77
     6
 78
     2
 67
     8
425
  7895160
 79
     3
170
     0
171
     0
290
     0
174
     0
 93
        5
 44
0.0
173
     0
291
     0
 45
0.0
1001
ACAD
1000
AcDbSavedByObjectVersion
1070
     0
  0
VISUALSTYLE
  5
3D
102
{ACAD_XDICTIONARY
360
EE
102
}
102
{ACAD_REACTORS
330
29
102
}
330
29
100
AcDbVisualStyle
  2
Shaded with edges
 70
    26
 71
     2
 72
     2
 73
     1
 90
        2
 40
-0.6
 41
30.0
 62
     5
 63
     7
421
 16777215
 74
     1
 91
        2
 64
     7
 65
   257
 75
     2
175
     1
 42
1.0
 92
        8
 66
   257
 43
1.0
 76
     1
 77
     6
 78
     2
 67
     7
 79
     3
170
     0
171
     0
290
     0
174
     0
 93
        5
 44
0.0
173
     0
291
     0
 45
0.0
1001
ACAD
1000
AcDbSavedByObjectVersion
1070
     0
  0
VISUALSTYLE
  5
3A
102
{ACAD_XDICTIONARY
360
E8
102
}
102
{ACAD_REACTORS
330
29
102
}
330
29
100
AcDbVisualStyle
  2
Shades of Gray
 70
    23
 71
     2
 72
     2
 73
     3
 90
        0
 40
-0.6
 41
-30.0
 62
     5
 63
     7
421
 16777215
 74
     2
 91
        2
 64
     7
 65
     7
 75
     1
175
     1
 42
40.0
 92
        8
 66
     7
 43
1.0
 76
     1
 77
     6
 78
     2
 67
     7
 79
     3
170
     0
171
     0
290
     0
174
     0
 93
        1
 44
0.0
173
     0
291
     0
 45
0.0
1001
ACAD
1000
AcDbSavedByObjectVersion
1070
     0
  0
VISUALSTYLE
  5
3B
102
{ACAD_XDICTIONARY
360
EA
102
}
102
{ACAD_REACTORS
330
29
102
}
330
29
100
AcDbVisualStyle
  2
Sketchy
 70
    24
 71
     1
 72
     2
 73
     2
 90
        0
 40
-0.6
 41
-30.0
 62
     5
 63
     7
421
 16777215
 74
     2
 91
        2
 64
     7
 65
     7
 75
     1
175
     1
 42
40.0
 92
       11
 66
     7
 43
1.0
 76
     1
 77
     6
 78
     2
 67
     7
 79
     6
170
     0
171
     0
290
     0
174
     0
 93
        1
 44
0.0
173
     0
291
     0
 45
0.0
1001
ACAD
1000
AcDbSavedByObjectVersion
1070
     0
  0
VISUALSTYLE
  5
36
102
{ACAD_XDICTIONARY
360
E0
102
}
102
{ACAD_REACTORS
330
29
102
}
330
29
100
AcDbVisualStyle
  2
Thicken
 70
    13
 71
     2
 72
     2
 73
     0
 90
        0
 40
-0.6
 41
-30.0
 62
     5
 63
     7
421
 16777215
 74
     1
 91
        4
 64
     7
 65
   257
 75
     1
175
     1
 42
1.0
 92
       12
 66
     7
 43
1.0
 76
     1
 77
     6
 78
     2
 67
     7
 79
     5
170
     0
171
     0
290
     0
174
     0
 93
        1
 44
0.0
173
     0
291
     1
 45
0.0
1001
ACAD
1000
AcDbSavedByObjectVersion
1070
     0
  0
VISUALSTYLE
  5
30
102
{ACAD_XDICTIONARY
360
D4
102
}
102
{ACAD_REACTORS
330
29
102
}
330
29
100
AcDbVisualStyle
  2
Wireframe
 70
     5
 71
     0
 72
     2
 73
     0
 90
        0
 40
-0.6
 41
-30.0
 62
     5
 63
     7
421
 16777215
 74
     1
 91
        4
 64
     7
 65
   257
 75
     1
175
     1
 42
1.0
 92
        0
 66
   257
 43
1.0
 76
     1
 77
     6
 78
     2
 67
     7
 79
     3
170
     0
171
     0
290
     0
174
     0
 93
        1
 44
0.0
173
     0
291
     0
 45
0.0
1001
ACAD
1000
AcDbSavedByObjectVersion
1070
     0
  0
VISUALSTYLE
  5
3C
102
{ACAD_XDICTIONARY
360
EC
102
}
102
{ACAD_REACTORS
330
29
102
}
330
29
100
AcDbVisualStyle
  2
X-Ray
 70
    25
 71
     2
 72
     2
 73
     1
 90
        1
 40
0.5
 41
-30.0
 62
     5
 63
     7
421
 16777215
 74
     1
 91
        0
 64
     7
 65
   257
 75
     1
175
     1
 42
1.0
 92
        8
 66
     7
 43
1.0
 76
     1
 77
     6
 78
     2
 67
     7
 79
     3
170
     0
171
     0
290
     0
174
     0
 93
       13
 44
0.0
173
     0
291
     0
 45
0.0
1001
ACAD
1000
AcDbSavedByObjectVersion
1070
     0
  0
DICTIONARYVAR
  5
C3
102
{ACAD_REACTORS
330
BE
102
}
330
BE
100
DictionaryVariables
280
     0
  1
1:1
  0
DICTIONARYVAR
  5
C0
102
{ACAD_REACTORS
330
BE
102
}
330
BE
100
DictionaryVariables
280
     0
  1
STANDARD
  0
DICTIONARYVAR
  5
BF
102
{ACAD_REACTORS
330
BE
102
}
330
BE
100
DictionaryVariables
280
     0
  1
STANDARD
  0
DICTIONARYVAR
  5
C1
102
{ACAD_REACTORS
330
BE
102
}
330
BE
100
DictionaryVariables
280
     0
  1
Imperial24
  0
DICTIONARYVAR
  5
C2
102
{ACAD_REACTORS
330
BE
102
}
330
BE
100
DictionaryVariables
280
     0
  1
Imperial24
  0
DICTIONARYVAR
  5
C4
102
{ACAD_REACTORS
330
BE
102
}
330
BE
100
DictionaryVariables
280
     0
  1
2
  0
DICTIONARY
  5
FD
330
6B
100
AcDbDictionary
280
     1
281
     1
  3
ACAD_XREC_ROUNDTRIP
360
FE
  0
DICTIONARY
  5
1A
330
19
100
AcDbDictionary
280
     1
281
     1
  3
BUMPTILE
360
1C
  3
DIFFUSETILE
360
1B
  3
OPACITYTILE
360
1F
  3
REFLECTIONTILE
360
1E
  3
REFRACTIONTILE
360
20
  3
SPECULARTILE
360
1D
  0
DICTIONARY
  5
12
330
11
100
AcDbDictionary
280
     1
281
     1
  3
BUMPTILE
360
14
  3
DIFFUSETILE
360
13
  3
OPACITYTILE
360
17
  3
REFLECTIONTILE
360
16
  3
REFRACTIONTILE
360
18
  3
SPECULARTILE
360
15
  0
DICTIONARY
  5
22
330
21
100
AcDbDictionary
280
     1
281
     1
  3
BUMPTILE
360
24
  3
DIFFUSETILE
360
23
  3
OPACITYTILE
360
27
  3
REFLECTIONTILE
360
26
  3
REFRACTIONTILE
360
28
  3
SPECULARTILE
360
25
  0
DICTIONARY
  5
F9
330
67
100
AcDbDictionary
280
     1
281
     1
  3
ACAD_XREC_ROUNDTRIP
360
FA
  0
DICTIONARY
  5
FB
330
69
100
AcDbDictionary
280
     1
281
     1
  3
ACAD_XREC_ROUNDTRIP
360
FC
  0
DICTIONARY
  5
C5
330
65
100
AcDbDictionary
280
     1
281
     1
  3
ACAD_ROUNDTRIP_2008_TABLESTYLE_CELLSTYLEMAP
360
C6
  0
DICTIONARY
  5
D2
330
2F
100
AcDbDictionary
280
     1
281
     1
  3
ACAD_XREC_ROUNDTRIP
360
D3
  0
DICTIONARY
  5
D0
330
2E
100
AcDbDictionary
280
     1
281
     1
  3
ACAD_XREC_ROUNDTRIP
360
D1
  0
DICTIONARY
  5
DE
330
35
100
AcDbDictionary
280
     1
281
     1
  3
ACAD_XREC_ROUNDTRIP
360
DF
  0
DICTIONARY
  5
E6
330
39
100
AcDbDictionary
280
     1
281
     1
  3
ACAD_XREC_ROUNDTRIP
360
E7
  0
DICTIONARY
  5
D8
330
32
100
AcDbDictionary
280
     1
281
     1
  3
ACAD_XREC_ROUNDTRIP
360
D9
  0
DICTIONARY
  5
DC
330
34
100
AcDbDictionary
280
     1
281
     1
  3
ACAD_XREC_ROUNDTRIP
360
DD
  0
DICTIONARY
  5
F6
330
41
100
AcDbDictionary
280
     1
281
     1
  3
ACAD_XREC_ROUNDTRIP
360
F7
  0
DICTIONARY
  5
E4
330
38
100
AcDbDictionary
280
     1
281
     1
  3
ACAD_XREC_ROUNDTRIP
360
E5
  0
DICTIONARY
  5
C8
330
2A
100
AcDbDictionary
280
     1
281
     1
  3
ACAD_XREC_ROUNDTRIP
360
C9
  0
DICTIONARY
  5
CA
330
2B
100
AcDbDictionary
280
     1
281
     1
  3
ACAD_XREC_ROUNDTRIP
360
CB
  0
DICTIONARY
  5
CC
330
2C
100
AcDbDictionary
280
     1
281
     1
  3
ACAD_XREC_ROUNDTRIP
360
CD
  0
DICTIONARY
  5
CE
330
2D
100
AcDbDictionary
280
     1
281
     1
  3
ACAD_XREC_ROUNDTRIP
360
CF
  0
DICTIONARY
  5
D6
330
31
100
AcDbDictionary
280
     1
281
     1
  3
ACAD_XREC_ROUNDTRIP
360
D7
  0
DICTIONARY
  5
F2
330
3F
100
AcDbDictionary
280
     1
281
     1
  3
ACAD_XREC_ROUNDTRIP
360
F3
  0
DICTIONARY
  5
E2
330
37
100
AcDbDictionary
280
     1
281
     1
  3
ACAD_XREC_ROUNDTRIP
360
E3
  0
DICTIONARY
  5
F4
330
40
100
AcDbDictionary
280
     1
281
     1
  3
ACAD_XREC_ROUNDTRIP
360
F5
  0
DICTIONARY
  5
DA
330
33
100
AcDbDictionary
280
     1
281
     1
  3
ACAD_XREC_ROUNDTRIP
360
DB
  0
DICTIONARY
  5
F0
330
3E
100
AcDbDictionary
280
     1
281
     1
  3
ACAD_XREC_ROUNDTRIP
360
F1
  0
DICTIONARY
  5
EE
330
3D
100
AcDbDictionary
280
     1
281
     1
  3
ACAD_XREC_ROUNDTRIP
360
EF
  0
DICTIONARY
  5
E8
330
3A
100
AcDbDictionary
280
     1
281
     1
  3
ACAD_XREC_ROUNDTRIP
360
E9
  0
DICTIONARY
  5
EA
330
3B
100
AcDbDictionary
280
     1
281
     1
  3
ACAD_XREC_ROUNDTRIP
360
EB
  0
DICTIONARY
  5
E0
330
36
100
AcDbDictionary
280
     1
281
     1
  3
ACAD_XREC_ROUNDTRIP
360
E1
  0
DICTIONARY
  5
D4
330
30
100
AcDbDictionary
280
     1
281
     1
  3
ACAD_XREC_ROUNDTRIP
360
D5
  0
DICTIONARY
  5
EC
330
3C
100
AcDbDictionary
280
     1
281
     1
  3
ACAD_XREC_ROUNDTRIP
360
ED
  0
XRECORD
  5
FE
102
{ACAD_REACTORS
330
FD
102
}
330
FD
100
AcDbXrecord
280
     1
102
DISPLAYNAME
  1
Imperial24
102
FLAGS
 90
        0
  0
XRECORD
  5
1C
102
{ACAD_REACTORS
330
1A
102
}
330
1A
100
AcDbXrecord
280
     1
270
     1
271
     1
  0
XRECORD
  5
1B
102
{ACAD_REACTORS
330
1A
102
}
330
1A
100
AcDbXrecord
280
     1
270
     1
271
     1
  0
XRECORD
  5
1F
102
{ACAD_REACTORS
330
1A
102
}
330
1A
100
AcDbXrecord
280
     1
270
     1
271
     1
  0
XRECORD
  5
1E
102
{ACAD_REACTORS
330
1A
102
}
330
1A
100
AcDbXrecord
280
     1
270
     1
271
     1
  0
XRECORD
  5
20
102
{ACAD_REACTORS
330
1A
102
}
330
1A
100
AcDbXrecord
280
     1
270
     1
271
     1
  0
XRECORD
  5
1D
102
{ACAD_REACTORS
330
1A
102
}
330
1A
100
AcDbXrecord
280
     1
270
     1
271
     1
  0
XRECORD
  5
14
102
{ACAD_REACTORS
330
12
102
}
330
12
100
AcDbXrecord
280
     1
270
     1
271
     1
  0
XRECORD
  5
13
102
{ACAD_REACTORS
330
12
102
}
330
12
100
AcDbXrecord
280
     1
270
     1
271
     1
  0
XRECORD
  5
17
102
{ACAD_REACTORS
330
12
102
}
330
12
100
AcDbXrecord
280
     1
270
     1
271
     1
  0
XRECORD
  5
16
102
{ACAD_REACTORS
330
12
102
}
330
12
100
AcDbXrecord
280
     1
270
     1
271
     1
  0
XRECORD
  5
18
102
{ACAD_REACTORS
330
12
102
}
330
12
100
AcDbXrecord
280
     1
270
     1
271
     1
  0
XRECORD
  5
15
102
{ACAD_REACTORS
330
12
102
}
330
12
100
AcDbXrecord
280
     1
270
     1
271
     1
  0
XRECORD
  5
24
102
{ACAD_REACTORS
330
22
102
}
330
22
100
AcDbXrecord
280
     1
270
     1
271
     1
  0
XRECORD
  5
23
102
{ACAD_REACTORS
330
22
102
}
330
22
100
AcDbXrecord
280
     1
270
     1
271
     1
  0
XRECORD
  5
27
102
{ACAD_REACTORS
330
22
102
}
330
22
100
AcDbXrecord
280
     1
270
     1
271
     1
  0
XRECORD
  5
26
102
{ACAD_REACTORS
330
22
102
}
330
22
100
AcDbXrecord
280
     1
270
     1
271
     1
  0
XRECORD
  5
28
102
{ACAD_REACTORS
330
22
102
}
330
22
100
AcDbXrecord
280
     1
270
     1
271
     1
  0
XRECORD
  5
25
102
{ACAD_REACTORS
330
22
102
}
330
22
100
AcDbXrecord
280
     1
270
     1
271
     1
  0
XRECORD
  5
FA
102
{ACAD_REACTORS
330
F9
102
}
330
F9
100
AcDbXrecord
280
     1
102
ACAD_ROUNDTRIP_2012_MLEADER_STYLE
298
     1
  0
XRECORD
  5
FC
102
{ACAD_REACTORS
330
FB
102
}
330
FB
100
AcDbXrecord
280
     1
102
DISPLAYNAME
  1
Imperial24
102
FLAGS
 90
        0
  0
CELLSTYLEMAP
  5
C6
102
{ACAD_REACTORS
330
C5
102
}
330
C5
100
AcDbCellStyleMap
 90
        3
300
CELLSTYLE
  1
TABLEFORMAT_BEGIN
 90
        5
170
     1
 91
        0
 92
    32768
 62
   257
 93
        1
300
CONTENTFORMAT
  1
CONTENTFORMAT_BEGIN
 90
        0
 91
        0
 92
      512
 93
        0
300

 40
0.0
140
1.0
 94
        5
 62
     0
340
55
144
0.25
309
CONTENTFORMAT_END
171
     0
 94
        0
309
TABLEFORMAT_END
  1
CELLSTYLE_BEGIN
 90
        1
 91
        1
300
_TITLE
309
CELLSTYLE_END
300
CELLSTYLE
  1
TABLEFORMAT_BEGIN
 90
        5
170
     1
 91
        0
 92
        0
 62
   257
 93
        1
300
CONTENTFORMAT
  1
CONTENTFORMAT_BEGIN
 90
        0
 91
        0
 92
      512
 93
        0
300

 40
0.0
140
1.0
 94
        5
 62
     0
340
55
144
0.18
309
CONTENTFORMAT_END
171
     0
 94
        0
309
TABLEFORMAT_END
  1
CELLSTYLE_BEGIN
 90
        2
 91
        1
300
_HEADER
309
CELLSTYLE_END
300
CELLSTYLE
  1
TABLEFORMAT_BEGIN
 90
        5
170
     1
 91
        0
 92
        0
 62
   257
 93
        1
300
CONTENTFORMAT
  1
CONTENTFORMAT_BEGIN
 90
        0
 91
        0
 92
      512
 93
        0
300

 40
0.0
140
1.0
 94
        2
 62
     0
340
55
144
0.18
309
CONTENTFORMAT_END
171
     0
 94
        0
309
TABLEFORMAT_END
  1
CELLSTYLE_BEGIN
 90
        3
 91
        2
300
_DATA
309
CELLSTYLE_END
  0
XRECORD
  5
D3
102
{ACAD_REACTORS
330
D2
102
}
330
D2
100
AcDbXrecord
280
     1
102
RTVSPost2010Prop28
280
     1
102
RTVSPost2010PropOp28
 70
     1
102
RTVSPost2010Prop29
280
     1
102
RTVSPost2010PropOp29
 70
     1
102
RTVSPost2010Prop30
280
     0
102
RTVSPost2010PropOp30
 70
     1
102
RTVSPost2010Prop31
280
     0
102
RTVSPost2010PropOp31
 70
     1
102
RTVSPost2010Prop32
280
     0
102
RTVSPost2010PropOp32
 70
     1
102
RTVSPost2010Prop33
280
     0
102
RTVSPost2010PropOp33
 70
     1
102
RTVSPost2010Prop34
280
     0
102
RTVSPost2010PropOp34
 70
     1
102
RTVSPost2010Prop35
280
     0
102
RTVSPost2010PropOp35
 70
     1
102
RTVSPost2010Prop36
280
     0
102
RTVSPost2010PropOp36
 70
     1
102
RTVSPost2010Prop37
 90
       50
102
RTVSPost2010PropOp37
 70
     1
102
RTVSPost2010Prop38
140
0.0
102
RTVSPost2010PropOp38
 70
     1
102
RTVSPost2010Prop39
140
1.0
102
RTVSPost2010PropOp39
 70
     1
102
RTVSPost2010Prop40
 90
        0
102
RTVSPost2010PropOp40
 70
     1
102
RTVSPost2010Prop41ColorIndex
 90
       18
102
RTVSPost2010Prop41ColorRGB
 90
        0
102
RTVSPost2010PropOp41
 70
     1
102
RTVSPost2010Prop42
 90
       50
102
RTVSPost2010PropOp42
 70
     1
102
RTVSPost2010Prop43
 90
        3
102
RTVSPost2010PropOp43
 70
     1
102
RTVSPost2010Prop44ColorIndex
 90
        5
102
RTVSPost2010Prop44ColorRGB
 90
      255
102
RTVSPost2010PropOp44
 70
     1
102
RTVSPost2010Prop45
280
     0
102
RTVSPost2010PropOp45
 70
     1
102
RTVSPost2010Prop46
 90
       50
102
RTVSPost2010PropOp46
 70
     1
102
RTVSPost2010Prop47
 90
       50
102
RTVSPost2010PropOp47
 70
     1
102
RTVSPost2010Prop48
 90
       50
102
RTVSPost2010PropOp48
 70
     1
102
RTVSPost2010Prop49
280
     0
102
RTVSPost2010PropOp49
 70
     1
102
RTVSPost2010Prop50
 90
       50
102
RTVSPost2010PropOp50
 70
     1
102
RTVSPost2010Prop51ColorIndex
 90
      256
102
RTVSPost2010Prop51ColorRGB
 90
-16777216
102
RTVSPost2010PropOp51
 70
     0
102
RTVSPost2010Prop52
140
1.0
102
RTVSPost2010PropOp52
 70
     0
102
RTVSPost2010Prop53
 90
        2
102
RTVSPost2010PropOp53
 70
     1
102
RTVSPost2010Prop54
  1
strokes_ogs.tif
102
RTVSPost2010PropOp54
 70
     1
102
RTVSPost2010Prop55
280
     0
102
RTVSPost2010PropOp55
 70
     1
102
RTVSPost2010Prop56
140
1.0
102
RTVSPost2010PropOp56
 70
     1
102
RTVSPost2010Prop57
140
1.0
102
RTVSPost2010PropOp57
 70
     1
102
RTVSPropertyOp0
 70
     1
102
RTVSPropertyOp1
 70
     1
102
RTVSPropertyOp2
 70
     1
102
RTVSPropertyOp3
 70
     1
102
RTVSPropertyOp4
 70
     1
102
RTVSPropertyOp5
 70
     1
102
RTVSPropertyOp6
 70
     1
102
RTVSPropertyOp7
 70
     1
102
RTVSPropertyOp8
 70
     1
102
RTVSPropertyOp9
 70
     1
102
RTVSPropertyOp10
 70
     1
102
RTVSPropertyOp11
 70
     1
102
RTVSPropertyOp12
 70
     1
102
RTVSPropertyOp13
 70
     1
102
RTVSPropertyOp14
 70
     1
102
RTVSPropertyOp15
 70
     1
102
RTVSPropertyOp16
 70
     1
102
RTVSPropertyOp17
 70
     1
102
RTVSPropertyOp18
 70
     1
102
RTVSPropertyOp19
 70
     1
102
RTVSPropertyOp20
 70
     1
102
RTVSPropertyOp21
 70
     1
102
RTVSPropertyOp22
 70
     1
102
RTVSPropertyOp23
 70
     1
102
RTVSPropertyOp24
 70
     1
102
RTVSPropertyOp25
 70
     1
102
RTVSPropertyOp26
 70
     1
102
RTVSPropertyOp27
 70
     1
102
RTVSPropertyOp28
 70
     1
102
RTVSPropertyOp29
 70
     1
102
RTVSPropertyOp30
 70
     1
102
RTVSPropertyOp31
 70
     1
102
RTVSPropertyOp32
 70
     1
102
RTVSPropertyOp33
 70
     1
102
RTVSPropertyOp34
 70
     1
102
RTVSPropertyOp35
 70
     1
102
RTVSPropertyOp36
 70
     1
102
RTVSPropertyOp37
 70
     1
102
RTVSPropertyOp38
 70
     1
102
RTVSPropertyOp39
 70
     1
102
RTVSPropertyOp40
 70
     1
102
RTVSPropertyOp41
 70
     1
102
RTVSPropertyOp42
 70
     1
102
RTVSPropertyOp43
 70
     1
102
RTVSPropertyOp44
 70
     1
102
RTVSPropertyOp45
 70
     1
102
RTVSPropertyOp46
 70
     1
102
RTVSPropertyOp47
 70
     1
102
RTVSPropertyOp48
 70
     1
102
RTVSPropertyOp49
 70
     1
102
RTVSPropertyOp50
 70
     1
102
RTVSPropertyOp51
 70
     0
102
RTVSPropertyOp52
 70
     0
102
RTVSPropertyOp53
 70
     1
102
RTVSPropertyOp54
 70
     1
102
RTVSPropertyOp55
 70
     1
102
RTVSPropertyOp56
 70
     1
102
RTVSPropertyOp57
 70
     1
102
RTVSPropertyOp58
 70
     1
102
RTVSPropertyOp59
 70
     1
102
RTVSPropertyOp60
 70
     1
102
RTVSPropertyOp61
 70
     1
102
RTVSPropertyOp62
 70
     1
  0
XRECORD
  5
D1
102
{ACAD_REACTORS
330
D0
102
}
330
D0
100
AcDbXrecord
280
     1
102
RTVSPost2010Prop28
280
     0
102
RTVSPost2010PropOp28
 70
     1
102
RTVSPost2010Prop29
280
     1
102
RTVSPost2010PropOp29
 70
     1
102
RTVSPost2010Prop30
280
     1
102
RTVSPost2010PropOp30
 70
     1
102
RTVSPost2010Prop31
280
     0
102
RTVSPost2010PropOp31
 70
     1
102
RTVSPost2010Prop32
280
     0
102
RTVSPost2010PropOp32
 70
     1
102
RTVSPost2010Prop33
280
     0
102
RTVSPost2010PropOp33
 70
     1
102
RTVSPost2010Prop34
280
     0
102
RTVSPost2010PropOp34
 70
     1
102
RTVSPost2010Prop35
280
     0
102
RTVSPost2010PropOp35
 70
     1
102
RTVSPost2010Prop36
280
     0
102
RTVSPost2010PropOp36
 70
     1
102
RTVSPost2010Prop37
 90
       50
102
RTVSPost2010PropOp37
 70
     1
102
RTVSPost2010Prop38
140
0.0
102
RTVSPost2010PropOp38
 70
     1
102
RTVSPost2010Prop39
140
1.0
102
RTVSPost2010PropOp39
 70
     1
102
RTVSPost2010Prop40
 90
        0
102
RTVSPost2010PropOp40
 70
     1
102
RTVSPost2010Prop41ColorIndex
 90
       18
102
RTVSPost2010Prop41ColorRGB
 90
        0
102
RTVSPost2010PropOp41
 70
     1
102
RTVSPost2010Prop42
 90
       50
102
RTVSPost2010PropOp42
 70
     1
102
RTVSPost2010Prop43
 90
        3
102
RTVSPost2010PropOp43
 70
     1
102
RTVSPost2010Prop44ColorIndex
 90
        5
102
RTVSPost2010Prop44ColorRGB
 90
      255
102
RTVSPost2010PropOp44
 70
     1
102
RTVSPost2010Prop45
280
     0
102
RTVSPost2010PropOp45
 70
     1
102
RTVSPost2010Prop46
 90
       50
102
RTVSPost2010PropOp46
 70
     1
102
RTVSPost2010Prop47
 90
       50
102
RTVSPost2010PropOp47
 70
     1
102
RTVSPost2010Prop48
 90
       50
102
RTVSPost2010PropOp48
 70
     1
102
RTVSPost2010Prop49
280
     0
102
RTVSPost2010PropOp49
 70
     1
102
RTVSPost2010Prop50
 90
       50
102
RTVSPost2010PropOp50
 70
     1
102
RTVSPost2010Prop51ColorIndex
 90
      256
102
RTVSPost2010Prop51ColorRGB
 90
-16777216
102
RTVSPost2010PropOp51
 70
     0
102
RTVSPost2010Prop52
140
1.0
102
RTVSPost2010PropOp52
 70
     0
102
RTVSPost2010Prop53
 90
        2
102
RTVSPost2010PropOp53
 70
     1
102
RTVSPost2010Prop54
  1
strokes_ogs.tif
102
RTVSPost2010PropOp54
 70
     1
102
RTVSPost2010Prop55
280
     0
102
RTVSPost2010PropOp55
 70
     1
102
RTVSPost2010Prop56
140
1.0
102
RTVSPost2010PropOp56
 70
     1
102
RTVSPost2010Prop57
140
1.0
102
RTVSPost2010PropOp57
 70
     1
102
RTVSPropertyOp0
 70
     1
102
RTVSPropertyOp1
 70
     1
102
RTVSPropertyOp2
 70
     1
102
RTVSPropertyOp3
 70
     1
102
RTVSPropertyOp4
 70
     1
102
RTVSPropertyOp5
 70
     1
102
RTVSPropertyOp6
 70
     1
102
RTVSPropertyOp7
 70
     1
102
RTVSPropertyOp8
 70
     1
102
RTVSPropertyOp9
 70
     1
102
RTVSPropertyOp10
 70
     1
102
RTVSPropertyOp11
 70
     1
102
RTVSPropertyOp12
 70
     1
102
RTVSPropertyOp13
 70
     1
102
RTVSPropertyOp14
 70
     1
102
RTVSPropertyOp15
 70
     1
102
RTVSPropertyOp16
 70
     1
102
RTVSPropertyOp17
 70
     1
102
RTVSPropertyOp18
 70
     1
102
RTVSPropertyOp19
 70
     1
102
RTVSPropertyOp20
 70
     1
102
RTVSPropertyOp21
 70
     1
102
RTVSPropertyOp22
 70
     1
102
RTVSPropertyOp23
 70
     1
102
RTVSPropertyOp24
 70
     1
102
RTVSPropertyOp25
 70
     1
102
RTVSPropertyOp26
 70
     1
102
RTVSPropertyOp27
 70
     1
102
RTVSPropertyOp28
 70
     1
102
RTVSPropertyOp29
 70
     1
102
RTVSPropertyOp30
 70
     1
102
RTVSPropertyOp31
 70
     1
102
RTVSPropertyOp32
 70
     1
102
RTVSPropertyOp33
 70
     1
102
RTVSPropertyOp34
 70
     1
102
RTVSPropertyOp35
 70
     1
102
RTVSPropertyOp36
 70
     1
102
RTVSPropertyOp37
 70
     1
102
RTVSPropertyOp38
 70
     1
102
RTVSPropertyOp39
 70
     1
102
RTVSPropertyOp40
 70
     1
102
RTVSPropertyOp41
 70
     1
102
RTVSPropertyOp42
 70
     1
102
RTVSPropertyOp43
 70
     1
102
RTVSPropertyOp44
 70
     1
102
RTVSPropertyOp45
 70
     1
102
RTVSPropertyOp46
 70
     1
102
RTVSPropertyOp47
 70
     1
102
RTVSPropertyOp48
 70
     1
102
RTVSPropertyOp49
 70
     1
102
RTVSPropertyOp50
 70
     1
102
RTVSPropertyOp51
 70
     0
102
RTVSPropertyOp52
 70
     0
102
RTVSPropertyOp53
 70
     1
102
RTVSPropertyOp54
 70
     1
102
RTVSPropertyOp55
 70
     1
102
RTVSPropertyOp56
 70
     1
102
RTVSPropertyOp57
 70
     1
102
RTVSPropertyOp58
 70
     1
102
RTVSPropertyOp59
 70
     1
102
RTVSPropertyOp60
 70
     1
102
RTVSPropertyOp61
 70
     1
102
RTVSPropertyOp62
 70
     1
  0
XRECORD
  5
DF
102
{ACAD_REACTORS
330
DE
102
}
330
DE
100
AcDbXrecord
280
     1
102
RTVSPost2010Prop28
280
     0
102
RTVSPost2010PropOp28
 70
     1
102
RTVSPost2010Prop29
280
     1
102
RTVSPost2010PropOp29
 70
     1
102
RTVSPost2010Prop30
280
     1
102
RTVSPost2010PropOp30
 70
     1
102
RTVSPost2010Prop31
280
     0
102
RTVSPost2010PropOp31
 70
     1
102
RTVSPost2010Prop32
280
     0
102
RTVSPost2010PropOp32
 70
     1
102
RTVSPost2010Prop33
280
     0
102
RTVSPost2010PropOp33
 70
     1
102
RTVSPost2010Prop34
280
     0
102
RTVSPost2010PropOp34
 70
     1
102
RTVSPost2010Prop35
280
     0
102
RTVSPost2010PropOp35
 70
     1
102
RTVSPost2010Prop36
280
     0
102
RTVSPost2010PropOp36
 70
     1
102
RTVSPost2010Prop37
 90
       50
102
RTVSPost2010PropOp37
 70
     1
102
RTVSPost2010Prop38
140
0.0
102
RTVSPost2010PropOp38
 70
     1
102
RTVSPost2010Prop39
140
1.0
102
RTVSPost2010PropOp39
 70
     1
102
RTVSPost2010Prop40
 90
        0
102
RTVSPost2010PropOp40
 70
     1
102
RTVSPost2010Prop41ColorIndex
 90
       18
102
RTVSPost2010Prop41ColorRGB
 90
        0
102
RTVSPost2010PropOp41
 70
     1
102
RTVSPost2010Prop42
 90
       50
102
RTVSPost2010PropOp42
 70
     1
102
RTVSPost2010Prop43
 90
        3
102
RTVSPost2010PropOp43
 70
     1
102
RTVSPost2010Prop44ColorIndex
 90
        5
102
RTVSPost2010Prop44ColorRGB
 90
      255
102
RTVSPost2010PropOp44
 70
     1
102
RTVSPost2010Prop45
280
     0
102
RTVSPost2010PropOp45
 70
     1
102
RTVSPost2010Prop46
 90
       50
102
RTVSPost2010PropOp46
 70
     1
102
RTVSPost2010Prop47
 90
       50
102
RTVSPost2010PropOp47
 70
     1
102
RTVSPost2010Prop48
 90
       50
102
RTVSPost2010PropOp48
 70
     1
102
RTVSPost2010Prop49
280
     0
102
RTVSPost2010PropOp49
 70
     1
102
RTVSPost2010Prop50
 90
       50
102
RTVSPost2010PropOp50
 70
     1
102
RTVSPost2010Prop51ColorIndex
 90
      256
102
RTVSPost2010Prop51ColorRGB
 90
-16777216
102
RTVSPost2010PropOp51
 70
     0
102
RTVSPost2010Prop52
140
1.0
102
RTVSPost2010PropOp52
 70
     0
102
RTVSPost2010Prop53
 90
        2
102
RTVSPost2010PropOp53
 70
     1
102
RTVSPost2010Prop54
  1
strokes_ogs.tif
102
RTVSPost2010PropOp54
 70
     1
102
RTVSPost2010Prop55
280
     0
102
RTVSPost2010PropOp55
 70
     1
102
RTVSPost2010Prop56
140
1.0
102
RTVSPost2010PropOp56
 70
     1
102
RTVSPost2010Prop57
140
1.0
102
RTVSPost2010PropOp57
 70
     1
102
RTVSPropertyOp0
 70
     1
102
RTVSPropertyOp1
 70
     1
102
RTVSPropertyOp2
 70
     1
102
RTVSPropertyOp3
 70
     1
102
RTVSPropertyOp4
 70
     1
102
RTVSPropertyOp5
 70
     1
102
RTVSPropertyOp6
 70
     1
102
RTVSPropertyOp7
 70
     1
102
RTVSPropertyOp8
 70
     1
102
RTVSPropertyOp9
 70
     1
102
RTVSPropertyOp10
 70
     1
102
RTVSPropertyOp11
 70
     1
102
RTVSPropertyOp12
 70
     1
102
RTVSPropertyOp13
 70
     1
102
RTVSPropertyOp14
 70
     1
102
RTVSPropertyOp15
 70
     1
102
RTVSPropertyOp16
 70
     1
102
RTVSPropertyOp17
 70
     1
102
RTVSPropertyOp18
 70
     1
102
RTVSPropertyOp19
 70
     1
102
RTVSPropertyOp20
 70
     1
102
RTVSPropertyOp21
 70
     1
102
RTVSPropertyOp22
 70
     1
102
RTVSPropertyOp23
 70
     1
102
RTVSPropertyOp24
 70
     1
102
RTVSPropertyOp25
 70
     1
102
RTVSPropertyOp26
 70
     1
102
RTVSPropertyOp27
 70
     1
102
RTVSPropertyOp28
 70
     1
102
RTVSPropertyOp29
 70
     1
102
RTVSPropertyOp30
 70
     1
102
RTVSPropertyOp31
 70
     1
102
RTVSPropertyOp32
 70
     1
102
RTVSPropertyOp33
 70
     1
102
RTVSPropertyOp34
 70
     1
102
RTVSPropertyOp35
 70
     1
102
RTVSPropertyOp36
 70
     1
102
RTVSPropertyOp37
 70
     1
102
RTVSPropertyOp38
 70
     1
102
RTVSPropertyOp39
 70
     1
102
RTVSPropertyOp40
 70
     1
102
RTVSPropertyOp41
 70
     1
102
RTVSPropertyOp42
 70
     1
102
RTVSPropertyOp43
 70
     1
102
RTVSPropertyOp44
 70
     1
102
RTVSPropertyOp45
 70
     1
102
RTVSPropertyOp46
 70
     1
102
RTVSPropertyOp47
 70
     1
102
RTVSPropertyOp48
 70
     1
102
RTVSPropertyOp49
 70
     1
102
RTVSPropertyOp50
 70
     1
102
RTVSPropertyOp51
 70
     0
102
RTVSPropertyOp52
 70
     0
102
RTVSPropertyOp53
 70
     1
102
RTVSPropertyOp54
 70
     1
102
RTVSPropertyOp55
 70
     1
102
RTVSPropertyOp56
 70
     1
102
RTVSPropertyOp57
 70
     1
102
RTVSPropertyOp58
 70
     1
102
RTVSPropertyOp59
 70
     1
102
RTVSPropertyOp60
 70
     1
102
RTVSPropertyOp61
 70
     1
102
RTVSPropertyOp62
 70
     1
  0
XRECORD
  5
E7
102
{ACAD_REACTORS
330
E6
102
}
330
E6
100
AcDbXrecord
280
     1
102
RTVSPost2010Prop28
280
     0
102
RTVSPost2010PropOp28
 70
     1
102
RTVSPost2010Prop29
280
     1
102
RTVSPost2010PropOp29
 70
     1
102
RTVSPost2010Prop30
280
     1
102
RTVSPost2010PropOp30
 70
     1
102
RTVSPost2010Prop31
280
     0
102
RTVSPost2010PropOp31
 70
     1
102
RTVSPost2010Prop32
280
     0
102
RTVSPost2010PropOp32
 70
     1
102
RTVSPost2010Prop33
280
     0
102
RTVSPost2010PropOp33
 70
     1
102
RTVSPost2010Prop34
280
     0
102
RTVSPost2010PropOp34
 70
     1
102
RTVSPost2010Prop35
280
     0
102
RTVSPost2010PropOp35
 70
     1
102
RTVSPost2010Prop36
280
     0
102
RTVSPost2010PropOp36
 70
     1
102
RTVSPost2010Prop37
 90
       50
102
RTVSPost2010PropOp37
 70
     1
102
RTVSPost2010Prop38
140
0.0
102
RTVSPost2010PropOp38
 70
     1
102
RTVSPost2010Prop39
140
1.0
102
RTVSPost2010PropOp39
 70
     1
102
RTVSPost2010Prop40
 90
        0
102
RTVSPost2010PropOp40
 70
     1
102
RTVSPost2010Prop41ColorIndex
 90
       18
102
RTVSPost2010Prop41ColorRGB
 90
        0
102
RTVSPost2010PropOp41
 70
     1
102
RTVSPost2010Prop42
 90
       50
102
RTVSPost2010PropOp42
 70
     1
102
RTVSPost2010Prop43
 90
        3
102
RTVSPost2010PropOp43
 70
     1
102
RTVSPost2010Prop44ColorIndex
 90
        5
102
RTVSPost2010Prop44ColorRGB
 90
      255
102
RTVSPost2010PropOp44
 70
     1
102
RTVSPost2010Prop45
280
     0
102
RTVSPost2010PropOp45
 70
     1
102
RTVSPost2010Prop46
 90
       50
102
RTVSPost2010PropOp46
 70
     1
102
RTVSPost2010Prop47
 90
       50
102
RTVSPost2010PropOp47
 70
     1
102
RTVSPost2010Prop48
 90
       50
102
RTVSPost2010PropOp48
 70
     1
102
RTVSPost2010Prop49
280
     0
102
RTVSPost2010PropOp49
 70
     1
102
RTVSPost2010Prop50
 90
       50
102
RTVSPost2010PropOp50
 70
     1
102
RTVSPost2010Prop51ColorIndex
 90
      256
102
RTVSPost2010Prop51ColorRGB
 90
-16777216
102
RTVSPost2010PropOp51
 70
     0
102
RTVSPost2010Prop52
140
1.0
102
RTVSPost2010PropOp52
 70
     0
102
RTVSPost2010Prop53
 90
        2
102
RTVSPost2010PropOp53
 70
     1
102
RTVSPost2010Prop54
  1
strokes_ogs.tif
102
RTVSPost2010PropOp54
 70
     1
102
RTVSPost2010Prop55
280
     0
102
RTVSPost2010PropOp55
 70
     1
102
RTVSPost2010Prop56
140
1.0
102
RTVSPost2010PropOp56
 70
     1
102
RTVSPost2010Prop57
140
1.0
102
RTVSPost2010PropOp57
 70
     1
102
RTVSPropertyOp0
 70
     1
102
RTVSPropertyOp1
 70
     1
102
RTVSPropertyOp2
 70
     1
102
RTVSPropertyOp3
 70
     1
102
RTVSPropertyOp4
 70
     1
102
RTVSPropertyOp5
 70
     1
102
RTVSPropertyOp6
 70
     1
102
RTVSPropertyOp7
 70
     1
102
RTVSPropertyOp8
 70
     1
102
RTVSPropertyOp9
 70
     1
102
RTVSPropertyOp10
 70
     1
102
RTVSPropertyOp11
 70
     1
102
RTVSPropertyOp12
 70
     1
102
RTVSPropertyOp13
 70
     1
102
RTVSPropertyOp14
 70
     1
102
RTVSPropertyOp15
 70
     1
102
RTVSPropertyOp16
 70
     1
102
RTVSPropertyOp17
 70
     1
102
RTVSPropertyOp18
 70
     1
102
RTVSPropertyOp19
 70
     1
102
RTVSPropertyOp20
 70
     1
102
RTVSPropertyOp21
 70
     1
102
RTVSPropertyOp22
 70
     1
102
RTVSPropertyOp23
 70
     1
102
RTVSPropertyOp24
 70
     1
102
RTVSPropertyOp25
 70
     1
102
RTVSPropertyOp26
 70
     1
102
RTVSPropertyOp27
 70
     1
102
RTVSPropertyOp28
 70
     1
102
RTVSPropertyOp29
 70
     1
102
RTVSPropertyOp30
 70
     1
102
RTVSPropertyOp31
 70
     1
102
RTVSPropertyOp32
 70
     1
102
RTVSPropertyOp33
 70
     1
102
RTVSPropertyOp34
 70
     1
102
RTVSPropertyOp35
 70
     1
102
RTVSPropertyOp36
 70
     1
102
RTVSPropertyOp37
 70
     1
102
RTVSPropertyOp38
 70
     1
102
RTVSPropertyOp39
 70
     1
102
RTVSPropertyOp40
 70
     1
102
RTVSPropertyOp41
 70
     1
102
RTVSPropertyOp42
 70
     1
102
RTVSPropertyOp43
 70
     1
102
RTVSPropertyOp44
 70
     1
102
RTVSPropertyOp45
 70
     1
102
RTVSPropertyOp46
 70
     1
102
RTVSPropertyOp47
 70
     1
102
RTVSPropertyOp48
 70
     1
102
RTVSPropertyOp49
 70
     1
102
RTVSPropertyOp50
 70
     1
102
RTVSPropertyOp51
 70
     0
102
RTVSPropertyOp52
 70
     0
102
RTVSPropertyOp53
 70
     1
102
RTVSPropertyOp54
 70
     1
102
RTVSPropertyOp55
 70
     1
102
RTVSPropertyOp56
 70
     1
102
RTVSPropertyOp57
 70
     1
102
RTVSPropertyOp58
 70
     1
102
RTVSPropertyOp59
 70
     1
102
RTVSPropertyOp60
 70
     1
102
RTVSPropertyOp61
 70
     1
102
RTVSPropertyOp62
 70
     1
  0
XRECORD
  5
D9
102
{ACAD_REACTORS
330
D8
102
}
330
D8
100
AcDbXrecord
280
     1
102
RTVSPost2010Prop28
280
     0
102
RTVSPost2010PropOp28
 70
     1
102
RTVSPost2010Prop29
280
     1
102
RTVSPost2010PropOp29
 70
     1
102
RTVSPost2010Prop30
280
     1
102
RTVSPost2010PropOp30
 70
     1
102
RTVSPost2010Prop31
280
     0
102
RTVSPost2010PropOp31
 70
     1
102
RTVSPost2010Prop32
280
     0
102
RTVSPost2010PropOp32
 70
     1
102
RTVSPost2010Prop33
280
     0
102
RTVSPost2010PropOp33
 70
     1
102
RTVSPost2010Prop34
280
     0
102
RTVSPost2010PropOp34
 70
     1
102
RTVSPost2010Prop35
280
     0
102
RTVSPost2010PropOp35
 70
     1
102
RTVSPost2010Prop36
280
     0
102
RTVSPost2010PropOp36
 70
     1
102
RTVSPost2010Prop37
 90
       50
102
RTVSPost2010PropOp37
 70
     1
102
RTVSPost2010Prop38
140
0.0
102
RTVSPost2010PropOp38
 70
     1
102
RTVSPost2010Prop39
140
1.0
102
RTVSPost2010PropOp39
 70
     1
102
RTVSPost2010Prop40
 90
        0
102
RTVSPost2010PropOp40
 70
     1
102
RTVSPost2010Prop41ColorIndex
 90
       18
102
RTVSPost2010Prop41ColorRGB
 90
        0
102
RTVSPost2010PropOp41
 70
     1
102
RTVSPost2010Prop42
 90
       50
102
RTVSPost2010PropOp42
 70
     1
102
RTVSPost2010Prop43
 90
        3
102
RTVSPost2010PropOp43
 70
     1
102
RTVSPost2010Prop44ColorIndex
 90
        5
102
RTVSPost2010Prop44ColorRGB
 90
      255
102
RTVSPost2010PropOp44
 70
     1
102
RTVSPost2010Prop45
280
     0
102
RTVSPost2010PropOp45
 70
     1
102
RTVSPost2010Prop46
 90
       50
102
RTVSPost2010PropOp46
 70
     1
102
RTVSPost2010Prop47
 90
       50
102
RTVSPost2010PropOp47
 70
     1
102
RTVSPost2010Prop48
 90
       50
102
RTVSPost2010PropOp48
 70
     1
102
RTVSPost2010Prop49
280
     0
102
RTVSPost2010PropOp49
 70
     1
102
RTVSPost2010Prop50
 90
       50
102
RTVSPost2010PropOp50
 70
     1
102
RTVSPost2010Prop51ColorIndex
 90
      256
102
RTVSPost2010Prop51ColorRGB
 90
-16777216
102
RTVSPost2010PropOp51
 70
     0
102
RTVSPost2010Prop52
140
1.0
102
RTVSPost2010PropOp52
 70
     0
102
RTVSPost2010Prop53
 90
        2
102
RTVSPost2010PropOp53
 70
     1
102
RTVSPost2010Prop54
  1
strokes_ogs.tif
102
RTVSPost2010PropOp54
 70
     1
102
RTVSPost2010Prop55
280
     0
102
RTVSPost2010PropOp55
 70
     1
102
RTVSPost2010Prop56
140
1.0
102
RTVSPost2010PropOp56
 70
     1
102
RTVSPost2010Prop57
140
1.0
102
RTVSPost2010PropOp57
 70
     1
102
RTVSPropertyOp0
 70
     1
102
RTVSPropertyOp1
 70
     1
102
RTVSPropertyOp2
 70
     1
102
RTVSPropertyOp3
 70
     1
102
RTVSPropertyOp4
 70
     1
102
RTVSPropertyOp5
 70
     1
102
RTVSPropertyOp6
 70
     1
102
RTVSPropertyOp7
 70
     1
102
RTVSPropertyOp8
 70
     1
102
RTVSPropertyOp9
 70
     1
102
RTVSPropertyOp10
 70
     1
102
RTVSPropertyOp11
 70
     1
102
RTVSPropertyOp12
 70
     1
102
RTVSPropertyOp13
 70
     1
102
RTVSPropertyOp14
 70
     1
102
RTVSPropertyOp15
 70
     1
102
RTVSPropertyOp16
 70
     1
102
RTVSPropertyOp17
 70
     1
102
RTVSPropertyOp18
 70
     1
102
RTVSPropertyOp19
 70
     1
102
RTVSPropertyOp20
 70
     1
102
RTVSPropertyOp21
 70
     1
102
RTVSPropertyOp22
 70
     1
102
RTVSPropertyOp23
 70
     1
102
RTVSPropertyOp24
 70
     1
102
RTVSPropertyOp25
 70
     1
102
RTVSPropertyOp26
 70
     1
102
RTVSPropertyOp27
 70
     1
102
RTVSPropertyOp28
 70
     1
102
RTVSPropertyOp29
 70
     1
102
RTVSPropertyOp30
 70
     1
102
RTVSPropertyOp31
 70
     1
102
RTVSPropertyOp32
 70
     1
102
RTVSPropertyOp33
 70
     1
102
RTVSPropertyOp34
 70
     1
102
RTVSPropertyOp35
 70
     1
102
RTVSPropertyOp36
 70
     1
102
RTVSPropertyOp37
 70
     1
102
RTVSPropertyOp38
 70
     1
102
RTVSPropertyOp39
 70
     1
102
RTVSPropertyOp40
 70
     1
102
RTVSPropertyOp41
 70
     1
102
RTVSPropertyOp42
 70
     1
102
RTVSPropertyOp43
 70
     1
102
RTVSPropertyOp44
 70
     1
102
RTVSPropertyOp45
 70
     1
102
RTVSPropertyOp46
 70
     1
102
RTVSPropertyOp47
 70
     1
102
RTVSPropertyOp48
 70
     1
102
RTVSPropertyOp49
 70
     1
102
RTVSPropertyOp50
 70
     1
102
RTVSPropertyOp51
 70
     0
102
RTVSPropertyOp52
 70
     0
102
RTVSPropertyOp53
 70
     1
102
RTVSPropertyOp54
 70
     1
102
RTVSPropertyOp55
 70
     1
102
RTVSPropertyOp56
 70
     1
102
RTVSPropertyOp57
 70
     1
102
RTVSPropertyOp58
 70
     1
102
RTVSPropertyOp59
 70
     1
102
RTVSPropertyOp60
 70
     1
102
RTVSPropertyOp61
 70
     1
102
RTVSPropertyOp62
 70
     1
  0
XRECORD
  5
DD
102
{ACAD_REACTORS
330
DC
102
}
330
DC
100
AcDbXrecord
280
     1
102
RTVSPost2010Prop28
280
     0
102
RTVSPost2010PropOp28
 70
     1
102
RTVSPost2010Prop29
280
     1
102
RTVSPost2010PropOp29
 70
     1
102
RTVSPost2010Prop30
280
     1
102
RTVSPost2010PropOp30
 70
     1
102
RTVSPost2010Prop31
280
     0
102
RTVSPost2010PropOp31
 70
     1
102
RTVSPost2010Prop32
280
     0
102
RTVSPost2010PropOp32
 70
     1
102
RTVSPost2010Prop33
280
     0
102
RTVSPost2010PropOp33
 70
     1
102
RTVSPost2010Prop34
280
     0
102
RTVSPost2010PropOp34
 70
     1
102
RTVSPost2010Prop35
280
     0
102
RTVSPost2010PropOp35
 70
     1
102
RTVSPost2010Prop36
280
     0
102
RTVSPost2010PropOp36
 70
     1
102
RTVSPost2010Prop37
 90
       50
102
RTVSPost2010PropOp37
 70
     1
102
RTVSPost2010Prop38
140
0.0
102
RTVSPost2010PropOp38
 70
     1
102
RTVSPost2010Prop39
140
1.0
102
RTVSPost2010PropOp39
 70
     1
102
RTVSPost2010Prop40
 90
        0
102
RTVSPost2010PropOp40
 70
     1
102
RTVSPost2010Prop41ColorIndex
 90
       18
102
RTVSPost2010Prop41ColorRGB
 90
        0
102
RTVSPost2010PropOp41
 70
     1
102
RTVSPost2010Prop42
 90
       50
102
RTVSPost2010PropOp42
 70
     1
102
RTVSPost2010Prop43
 90
        3
102
RTVSPost2010PropOp43
 70
     1
102
RTVSPost2010Prop44ColorIndex
 90
        5
102
RTVSPost2010Prop44ColorRGB
 90
      255
102
RTVSPost2010PropOp44
 70
     1
102
RTVSPost2010Prop45
280
     0
102
RTVSPost2010PropOp45
 70
     1
102
RTVSPost2010Prop46
 90
       50
102
RTVSPost2010PropOp46
 70
     1
102
RTVSPost2010Prop47
 90
       50
102
RTVSPost2010PropOp47
 70
     1
102
RTVSPost2010Prop48
 90
       50
102
RTVSPost2010PropOp48
 70
     1
102
RTVSPost2010Prop49
280
     0
102
RTVSPost2010PropOp49
 70
     1
102
RTVSPost2010Prop50
 90
       50
102
RTVSPost2010PropOp50
 70
     1
102
RTVSPost2010Prop51ColorIndex
 90
      256
102
RTVSPost2010Prop51ColorRGB
 90
-16777216
102
RTVSPost2010PropOp51
 70
     0
102
RTVSPost2010Prop52
140
1.0
102
RTVSPost2010PropOp52
 70
     0
102
RTVSPost2010Prop53
 90
        2
102
RTVSPost2010PropOp53
 70
     1
102
RTVSPost2010Prop54
  1
strokes_ogs.tif
102
RTVSPost2010PropOp54
 70
     1
102
RTVSPost2010Prop55
280
     0
102
RTVSPost2010PropOp55
 70
     1
102
RTVSPost2010Prop56
140
1.0
102
RTVSPost2010PropOp56
 70
     1
102
RTVSPost2010Prop57
140
1.0
102
RTVSPost2010PropOp57
 70
     1
102
RTVSPropertyOp0
 70
     1
102
RTVSPropertyOp1
 70
     1
102
RTVSPropertyOp2
 70
     1
102
RTVSPropertyOp3
 70
     1
102
RTVSPropertyOp4
 70
     1
102
RTVSPropertyOp5
 70
     1
102
RTVSPropertyOp6
 70
     1
102
RTVSPropertyOp7
 70
     1
102
RTVSPropertyOp8
 70
     1
102
RTVSPropertyOp9
 70
     1
102
RTVSPropertyOp10
 70
     1
102
RTVSPropertyOp11
 70
     1
102
RTVSPropertyOp12
 70
     1
102
RTVSPropertyOp13
 70
     1
102
RTVSPropertyOp14
 70
     1
102
RTVSPropertyOp15
 70
     1
102
RTVSPropertyOp16
 70
     1
102
RTVSPropertyOp17
 70
     1
102
RTVSPropertyOp18
 70
     1
102
RTVSPropertyOp19
 70
     1
102
RTVSPropertyOp20
 70
     1
102
RTVSPropertyOp21
 70
     1
102
RTVSPropertyOp22
 70
     1
102
RTVSPropertyOp23
 70
     1
102
RTVSPropertyOp24
 70
     1
102
RTVSPropertyOp25
 70
     1
102
RTVSPropertyOp26
 70
     1
102
RTVSPropertyOp27
 70
     1
102
RTVSPropertyOp28
 70
     1
102
RTVSPropertyOp29
 70
     1
102
RTVSPropertyOp30
 70
     1
102
RTVSPropertyOp31
 70
     1
102
RTVSPropertyOp32
 70
     1
102
RTVSPropertyOp33
 70
     1
102
RTVSPropertyOp34
 70
     1
102
RTVSPropertyOp35
 70
     1
102
RTVSPropertyOp36
 70
     1
102
RTVSPropertyOp37
 70
     1
102
RTVSPropertyOp38
 70
     1
102
RTVSPropertyOp39
 70
     1
102
RTVSPropertyOp40
 70
     1
102
RTVSPropertyOp41
 70
     1
102
RTVSPropertyOp42
 70
     1
102
RTVSPropertyOp43
 70
     1
102
RTVSPropertyOp44
 70
     1
102
RTVSPropertyOp45
 70
     1
102
RTVSPropertyOp46
 70
     1
102
RTVSPropertyOp47
 70
     1
102
RTVSPropertyOp48
 70
     1
102
RTVSPropertyOp49
 70
     1
102
RTVSPropertyOp50
 70
     1
102
RTVSPropertyOp51
 70
     0
102
RTVSPropertyOp52
 70
     0
102
RTVSPropertyOp53
 70
     1
102
RTVSPropertyOp54
 70
     1
102
RTVSPropertyOp55
 70
     1
102
RTVSPropertyOp56
 70
     1
102
RTVSPropertyOp57
 70
     1
102
RTVSPropertyOp58
 70
     1
102
RTVSPropertyOp59
 70
     1
102
RTVSPropertyOp60
 70
     1
102
RTVSPropertyOp61
 70
     1
102
RTVSPropertyOp62
 70
     1
  0
XRECORD
  5
F7
102
{ACAD_REACTORS
330
F6
102
}
330
F6
100
AcDbXrecord
280
     1
102
RTVSPost2010Prop28
280
     0
102
RTVSPost2010PropOp28
 70
     0
102
RTVSPost2010Prop29
280
     1
102
RTVSPost2010PropOp29
 70
     0
102
RTVSPost2010Prop30
280
     1
102
RTVSPost2010PropOp30
 70
     0
102
RTVSPost2010Prop31
280
     0
102
RTVSPost2010PropOp31
 70
     0
102
RTVSPost2010Prop32
280
     0
102
RTVSPost2010PropOp32
 70
     0
102
RTVSPost2010Prop33
280
     0
102
RTVSPost2010PropOp33
 70
     0
102
RTVSPost2010Prop34
280
     0
102
RTVSPost2010PropOp34
 70
     0
102
RTVSPost2010Prop35
280
     0
102
RTVSPost2010PropOp35
 70
     0
102
RTVSPost2010Prop36
280
     0
102
RTVSPost2010PropOp36
 70
     0
102
RTVSPost2010Prop37
 90
       50
102
RTVSPost2010PropOp37
 70
     0
102
RTVSPost2010Prop38
140
0.0
102
RTVSPost2010PropOp38
 70
     0
102
RTVSPost2010Prop39
140
1.0
102
RTVSPost2010PropOp39
 70
     0
102
RTVSPost2010Prop40
 90
        0
102
RTVSPost2010PropOp40
 70
     0
102
RTVSPost2010Prop41ColorIndex
 90
       18
102
RTVSPost2010Prop41ColorRGB
 90
        0
102
RTVSPost2010PropOp41
 70
     0
102
RTVSPost2010Prop42
 90
       50
102
RTVSPost2010PropOp42
 70
     0
102
RTVSPost2010Prop43
 90
        3
102
RTVSPost2010PropOp43
 70
     0
102
RTVSPost2010Prop44ColorIndex
 90
        5
102
RTVSPost2010Prop44ColorRGB
 90
      255
102
RTVSPost2010PropOp44
 70
     0
102
RTVSPost2010Prop45
280
     0
102
RTVSPost2010PropOp45
 70
     0
102
RTVSPost2010Prop46
 90
       50
102
RTVSPost2010PropOp46
 70
     0
102
RTVSPost2010Prop47
 90
       50
102
RTVSPost2010PropOp47
 70
     0
102
RTVSPost2010Prop48
 90
       50
102
RTVSPost2010PropOp48
 70
     0
102
RTVSPost2010Prop49
280
     0
102
RTVSPost2010PropOp49
 70
     0
102
RTVSPost2010Prop50
 90
       50
102
RTVSPost2010PropOp50
 70
     0
102
RTVSPost2010Prop51ColorIndex
 90
      256
102
RTVSPost2010Prop51ColorRGB
 90
-16777216
102
RTVSPost2010PropOp51
 70
     0
102
RTVSPost2010Prop52
140
1.0
102
RTVSPost2010PropOp52
 70
     0
102
RTVSPost2010Prop53
 90
        2
102
RTVSPost2010PropOp53
 70
     0
102
RTVSPost2010Prop54
  1
strokes_ogs.tif
102
RTVSPost2010PropOp54
 70
     0
102
RTVSPost2010Prop55
280
     0
102
RTVSPost2010PropOp55
 70
     0
102
RTVSPost2010Prop56
140
1.0
102
RTVSPost2010PropOp56
 70
     0
102
RTVSPost2010Prop57
140
1.0
102
RTVSPost2010PropOp57
 70
     0
102
RTVSPropertyOp0
 70
     0
102
RTVSPropertyOp1
 70
     0
102
RTVSPropertyOp2
 70
     0
102
RTVSPropertyOp3
 70
     0
102
RTVSPropertyOp4
 70
     0
102
RTVSPropertyOp5
 70
     0
102
RTVSPropertyOp6
 70
     0
102
RTVSPropertyOp7
 70
     0
102
RTVSPropertyOp8
 70
     0
102
RTVSPropertyOp9
 70
     0
102
RTVSPropertyOp10
 70
     0
102
RTVSPropertyOp11
 70
     0
102
RTVSPropertyOp12
 70
     0
102
RTVSPropertyOp13
 70
     0
102
RTVSPropertyOp14
 70
     2
102
RTVSPropertyOp15
 70
     0
102
RTVSPropertyOp16
 70
     0
102
RTVSPropertyOp17
 70
     0
102
RTVSPropertyOp18
 70
     0
102
RTVSPropertyOp19
 70
     0
102
RTVSPropertyOp20
 70
     0
102
RTVSPropertyOp21
 70
     0
102
RTVSPropertyOp22
 70
     0
102
RTVSPropertyOp23
 70
     0
102
RTVSPropertyOp24
 70
     0
102
RTVSPropertyOp25
 70
     0
102
RTVSPropertyOp26
 70
     0
102
RTVSPropertyOp27
 70
     0
102
RTVSPropertyOp28
 70
     0
102
RTVSPropertyOp29
 70
     0
102
RTVSPropertyOp30
 70
     0
102
RTVSPropertyOp31
 70
     0
102
RTVSPropertyOp32
 70
     0
102
RTVSPropertyOp33
 70
     0
102
RTVSPropertyOp34
 70
     0
102
RTVSPropertyOp35
 70
     0
102
RTVSPropertyOp36
 70
     0
102
RTVSPropertyOp37
 70
     0
102
RTVSPropertyOp38
 70
     0
102
RTVSPropertyOp39
 70
     0
102
RTVSPropertyOp40
 70
     0
102
RTVSPropertyOp41
 70
     0
102
RTVSPropertyOp42
 70
     0
102
RTVSPropertyOp43
 70
     0
102
RTVSPropertyOp44
 70
     0
102
RTVSPropertyOp45
 70
     0
102
RTVSPropertyOp46
 70
     0
102
RTVSPropertyOp47
 70
     0
102
RTVSPropertyOp48
 70
     0
102
RTVSPropertyOp49
 70
     0
102
RTVSPropertyOp50
 70
     0
102
RTVSPropertyOp51
 70
     0
102
RTVSPropertyOp52
 70
     0
102
RTVSPropertyOp53
 70
     0
102
RTVSPropertyOp54
 70
     0
102
RTVSPropertyOp55
 70
     0
102
RTVSPropertyOp56
 70
     0
102
RTVSPropertyOp57
 70
     0
102
RTVSPropertyOp58
 70
     0
102
RTVSPropertyOp59
 70
     0
102
RTVSPropertyOp60
 70
     0
102
RTVSPropertyOp61
 70
     0
102
RTVSPropertyOp62
 70
     0
  0
XRECORD
  5
E5
102
{ACAD_REACTORS
330
E4
102
}
330
E4
100
AcDbXrecord
280
     1
102
RTVSPost2010Prop28
280
     0
102
RTVSPost2010PropOp28
 70
     1
102
RTVSPost2010Prop29
280
     1
102
RTVSPost2010PropOp29
 70
     1
102
RTVSPost2010Prop30
280
     1
102
RTVSPost2010PropOp30
 70
     1
102
RTVSPost2010Prop31
280
     0
102
RTVSPost2010PropOp31
 70
     1
102
RTVSPost2010Prop32
280
     0
102
RTVSPost2010PropOp32
 70
     1
102
RTVSPost2010Prop33
280
     0
102
RTVSPost2010PropOp33
 70
     1
102
RTVSPost2010Prop34
280
     0
102
RTVSPost2010PropOp34
 70
     1
102
RTVSPost2010Prop35
280
     0
102
RTVSPost2010PropOp35
 70
     1
102
RTVSPost2010Prop36
280
     0
102
RTVSPost2010PropOp36
 70
     1
102
RTVSPost2010Prop37
 90
       50
102
RTVSPost2010PropOp37
 70
     1
102
RTVSPost2010Prop38
140
0.0
102
RTVSPost2010PropOp38
 70
     1
102
RTVSPost2010Prop39
140
1.0
102
RTVSPost2010PropOp39
 70
     1
102
RTVSPost2010Prop40
 90
        0
102
RTVSPost2010PropOp40
 70
     1
102
RTVSPost2010Prop41ColorIndex
 90
       18
102
RTVSPost2010Prop41ColorRGB
 90
        0
102
RTVSPost2010PropOp41
 70
     1
102
RTVSPost2010Prop42
 90
       50
102
RTVSPost2010PropOp42
 70
     1
102
RTVSPost2010Prop43
 90
        3
102
RTVSPost2010PropOp43
 70
     1
102
RTVSPost2010Prop44ColorIndex
 90
        5
102
RTVSPost2010Prop44ColorRGB
 90
      255
102
RTVSPost2010PropOp44
 70
     1
102
RTVSPost2010Prop45
280
     0
102
RTVSPost2010PropOp45
 70
     1
102
RTVSPost2010Prop46
 90
       50
102
RTVSPost2010PropOp46
 70
     1
102
RTVSPost2010Prop47
 90
       50
102
RTVSPost2010PropOp47
 70
     1
102
RTVSPost2010Prop48
 90
       50
102
RTVSPost2010PropOp48
 70
     1
102
RTVSPost2010Prop49
280
     0
102
RTVSPost2010PropOp49
 70
     1
102
RTVSPost2010Prop50
 90
       50
102
RTVSPost2010PropOp50
 70
     1
102
RTVSPost2010Prop51ColorIndex
 90
      256
102
RTVSPost2010Prop51ColorRGB
 90
-16777216
102
RTVSPost2010PropOp51
 70
     0
102
RTVSPost2010Prop52
140
1.0
102
RTVSPost2010PropOp52
 70
     0
102
RTVSPost2010Prop53
 90
        2
102
RTVSPost2010PropOp53
 70
     1
102
RTVSPost2010Prop54
  1
strokes_ogs.tif
102
RTVSPost2010PropOp54
 70
     1
102
RTVSPost2010Prop55
280
     0
102
RTVSPost2010PropOp55
 70
     1
102
RTVSPost2010Prop56
140
1.0
102
RTVSPost2010PropOp56
 70
     1
102
RTVSPost2010Prop57
140
1.0
102
RTVSPost2010PropOp57
 70
     1
102
RTVSPropertyOp0
 70
     1
102
RTVSPropertyOp1
 70
     1
102
RTVSPropertyOp2
 70
     1
102
RTVSPropertyOp3
 70
     1
102
RTVSPropertyOp4
 70
     1
102
RTVSPropertyOp5
 70
     1
102
RTVSPropertyOp6
 70
     1
102
RTVSPropertyOp7
 70
     1
102
RTVSPropertyOp8
 70
     1
102
RTVSPropertyOp9
 70
     1
102
RTVSPropertyOp10
 70
     1
102
RTVSPropertyOp11
 70
     1
102
RTVSPropertyOp12
 70
     1
102
RTVSPropertyOp13
 70
     1
102
RTVSPropertyOp14
 70
     1
102
RTVSPropertyOp15
 70
     1
102
RTVSPropertyOp16
 70
     1
102
RTVSPropertyOp17
 70
     1
102
RTVSPropertyOp18
 70
     1
102
RTVSPropertyOp19
 70
     1
102
RTVSPropertyOp20
 70
     1
102
RTVSPropertyOp21
 70
     1
102
RTVSPropertyOp22
 70
     1
102
RTVSPropertyOp23
 70
     1
102
RTVSPropertyOp24
 70
     1
102
RTVSPropertyOp25
 70
     1
102
RTVSPropertyOp26
 70
     1
102
RTVSPropertyOp27
 70
     1
102
RTVSPropertyOp28
 70
     1
102
RTVSPropertyOp29
 70
     1
102
RTVSPropertyOp30
 70
     1
102
RTVSPropertyOp31
 70
     1
102
RTVSPropertyOp32
 70
     1
102
RTVSPropertyOp33
 70
     1
102
RTVSPropertyOp34
 70
     1
102
RTVSPropertyOp35
 70
     1
102
RTVSPropertyOp36
 70
     1
102
RTVSPropertyOp37
 70
     1
102
RTVSPropertyOp38
 70
     1
102
RTVSPropertyOp39
 70
     1
102
RTVSPropertyOp40
 70
     1
102
RTVSPropertyOp41
 70
     1
102
RTVSPropertyOp42
 70
     1
102
RTVSPropertyOp43
 70
     1
102
RTVSPropertyOp44
 70
     1
102
RTVSPropertyOp45
 70
     1
102
RTVSPropertyOp46
 70
     1
102
RTVSPropertyOp47
 70
     1
102
RTVSPropertyOp48
 70
     1
102
RTVSPropertyOp49
 70
     1
102
RTVSPropertyOp50
 70
     1
102
RTVSPropertyOp51
 70
     0
102
RTVSPropertyOp52
 70
     0
102
RTVSPropertyOp53
 70
     1
102
RTVSPropertyOp54
 70
     1
102
RTVSPropertyOp55
 70
     1
102
RTVSPropertyOp56
 70
     1
102
RTVSPropertyOp57
 70
     1
102
RTVSPropertyOp58
 70
     1
102
RTVSPropertyOp59
 70
     1
102
RTVSPropertyOp60
 70
     1
102
RTVSPropertyOp61
 70
     1
102
RTVSPropertyOp62
 70
     1
  0
XRECORD
  5
C9
102
{ACAD_REACTORS
330
C8
102
}
330
C8
100
AcDbXrecord
280
     1
102
RTVSPost2010Prop28
280
     0
102
RTVSPost2010PropOp28
 70
     1
102
RTVSPost2010Prop29
280
     1
102
RTVSPost2010PropOp29
 70
     1
102
RTVSPost2010Prop30
280
     1
102
RTVSPost2010PropOp30
 70
     1
102
RTVSPost2010Prop31
280
     0
102
RTVSPost2010PropOp31
 70
     1
102
RTVSPost2010Prop32
280
     0
102
RTVSPost2010PropOp32
 70
     1
102
RTVSPost2010Prop33
280
     0
102
RTVSPost2010PropOp33
 70
     1
102
RTVSPost2010Prop34
280
     0
102
RTVSPost2010PropOp34
 70
     1
102
RTVSPost2010Prop35
280
     0
102
RTVSPost2010PropOp35
 70
     1
102
RTVSPost2010Prop36
280
     0
102
RTVSPost2010PropOp36
 70
     1
102
RTVSPost2010Prop37
 90
       50
102
RTVSPost2010PropOp37
 70
     1
102
RTVSPost2010Prop38
140
0.0
102
RTVSPost2010PropOp38
 70
     1
102
RTVSPost2010Prop39
140
1.0
102
RTVSPost2010PropOp39
 70
     1
102
RTVSPost2010Prop40
 90
        0
102
RTVSPost2010PropOp40
 70
     1
102
RTVSPost2010Prop41ColorIndex
 90
       18
102
RTVSPost2010Prop41ColorRGB
 90
        0
102
RTVSPost2010PropOp41
 70
     1
102
RTVSPost2010Prop42
 90
       50
102
RTVSPost2010PropOp42
 70
     1
102
RTVSPost2010Prop43
 90
        3
102
RTVSPost2010PropOp43
 70
     1
102
RTVSPost2010Prop44ColorIndex
 90
        5
102
RTVSPost2010Prop44ColorRGB
 90
      255
102
RTVSPost2010PropOp44
 70
     1
102
RTVSPost2010Prop45
280
     0
102
RTVSPost2010PropOp45
 70
     1
102
RTVSPost2010Prop46
 90
       50
102
RTVSPost2010PropOp46
 70
     1
102
RTVSPost2010Prop47
 90
       50
102
RTVSPost2010PropOp47
 70
     1
102
RTVSPost2010Prop48
 90
       50
102
RTVSPost2010PropOp48
 70
     1
102
RTVSPost2010Prop49
280
     0
102
RTVSPost2010PropOp49
 70
     1
102
RTVSPost2010Prop50
 90
       50
102
RTVSPost2010PropOp50
 70
     1
102
RTVSPost2010Prop51ColorIndex
 90
      256
102
RTVSPost2010Prop51ColorRGB
 90
-16777216
102
RTVSPost2010PropOp51
 70
     0
102
RTVSPost2010Prop52
140
1.0
102
RTVSPost2010PropOp52
 70
     0
102
RTVSPost2010Prop53
 90
        2
102
RTVSPost2010PropOp53
 70
     1
102
RTVSPost2010Prop54
  1
strokes_ogs.tif
102
RTVSPost2010PropOp54
 70
     1
102
RTVSPost2010Prop55
280
     0
102
RTVSPost2010PropOp55
 70
     1
102
RTVSPost2010Prop56
140
1.0
102
RTVSPost2010PropOp56
 70
     1
102
RTVSPost2010Prop57
140
1.0
102
RTVSPost2010PropOp57
 70
     1
102
RTVSPropertyOp0
 70
     1
102
RTVSPropertyOp1
 70
     1
102
RTVSPropertyOp2
 70
     1
102
RTVSPropertyOp3
 70
     1
102
RTVSPropertyOp4
 70
     1
102
RTVSPropertyOp5
 70
     1
102
RTVSPropertyOp6
 70
     1
102
RTVSPropertyOp7
 70
     1
102
RTVSPropertyOp8
 70
     1
102
RTVSPropertyOp9
 70
     1
102
RTVSPropertyOp10
 70
     1
102
RTVSPropertyOp11
 70
     1
102
RTVSPropertyOp12
 70
     1
102
RTVSPropertyOp13
 70
     1
102
RTVSPropertyOp14
 70
     1
102
RTVSPropertyOp15
 70
     1
102
RTVSPropertyOp16
 70
     1
102
RTVSPropertyOp17
 70
     1
102
RTVSPropertyOp18
 70
     1
102
RTVSPropertyOp19
 70
     1
102
RTVSPropertyOp20
 70
     1
102
RTVSPropertyOp21
 70
     1
102
RTVSPropertyOp22
 70
     1
102
RTVSPropertyOp23
 70
     1
102
RTVSPropertyOp24
 70
     1
102
RTVSPropertyOp25
 70
     1
102
RTVSPropertyOp26
 70
     1
102
RTVSPropertyOp27
 70
     1
102
RTVSPropertyOp28
 70
     1
102
RTVSPropertyOp29
 70
     1
102
RTVSPropertyOp30
 70
     1
102
RTVSPropertyOp31
 70
     1
102
RTVSPropertyOp32
 70
     1
102
RTVSPropertyOp33
 70
     1
102
RTVSPropertyOp34
 70
     1
102
RTVSPropertyOp35
 70
     1
102
RTVSPropertyOp36
 70
     1
102
RTVSPropertyOp37
 70
     1
102
RTVSPropertyOp38
 70
     1
102
RTVSPropertyOp39
 70
     1
102
RTVSPropertyOp40
 70
     1
102
RTVSPropertyOp41
 70
     1
102
RTVSPropertyOp42
 70
     1
102
RTVSPropertyOp43
 70
     1
102
RTVSPropertyOp44
 70
     1
102
RTVSPropertyOp45
 70
     1
102
RTVSPropertyOp46
 70
     1
102
RTVSPropertyOp47
 70
     1
102
RTVSPropertyOp48
 70
     1
102
RTVSPropertyOp49
 70
     1
102
RTVSPropertyOp50
 70
     1
102
RTVSPropertyOp51
 70
     0
102
RTVSPropertyOp52
 70
     0
102
RTVSPropertyOp53
 70
     1
102
RTVSPropertyOp54
 70
     1
102
RTVSPropertyOp55
 70
     1
102
RTVSPropertyOp56
 70
     1
102
RTVSPropertyOp57
 70
     1
102
RTVSPropertyOp58
 70
     1
102
RTVSPropertyOp59
 70
     1
102
RTVSPropertyOp60
 70
     1
102
RTVSPropertyOp61
 70
     1
102
RTVSPropertyOp62
 70
     1
  0
XRECORD
  5
CB
102
{ACAD_REACTORS
330
CA
102
}
330
CA
100
AcDbXrecord
280
     1
102
RTVSPost2010Prop28
280
     0
102
RTVSPost2010PropOp28
 70
     1
102
RTVSPost2010Prop29
280
     1
102
RTVSPost2010PropOp29
 70
     1
102
RTVSPost2010Prop30
280
     1
102
RTVSPost2010PropOp30
 70
     1
102
RTVSPost2010Prop31
280
     0
102
RTVSPost2010PropOp31
 70
     1
102
RTVSPost2010Prop32
280
     0
102
RTVSPost2010PropOp32
 70
     1
102
RTVSPost2010Prop33
280
     0
102
RTVSPost2010PropOp33
 70
     1
102
RTVSPost2010Prop34
280
     0
102
RTVSPost2010PropOp34
 70
     1
102
RTVSPost2010Prop35
280
     0
102
RTVSPost2010PropOp35
 70
     1
102
RTVSPost2010Prop36
280
     0
102
RTVSPost2010PropOp36
 70
     1
102
RTVSPost2010Prop37
 90
       50
102
RTVSPost2010PropOp37
 70
     1
102
RTVSPost2010Prop38
140
0.0
102
RTVSPost2010PropOp38
 70
     1
102
RTVSPost2010Prop39
140
1.0
102
RTVSPost2010PropOp39
 70
     1
102
RTVSPost2010Prop40
 90
        0
102
RTVSPost2010PropOp40
 70
     1
102
RTVSPost2010Prop41ColorIndex
 90
       18
102
RTVSPost2010Prop41ColorRGB
 90
        0
102
RTVSPost2010PropOp41
 70
     1
102
RTVSPost2010Prop42
 90
       50
102
RTVSPost2010PropOp42
 70
     1
102
RTVSPost2010Prop43
 90
        3
102
RTVSPost2010PropOp43
 70
     1
102
RTVSPost2010Prop44ColorIndex
 90
        5
102
RTVSPost2010Prop44ColorRGB
 90
      255
102
RTVSPost2010PropOp44
 70
     1
102
RTVSPost2010Prop45
280
     0
102
RTVSPost2010PropOp45
 70
     1
102
RTVSPost2010Prop46
 90
       50
102
RTVSPost2010PropOp46
 70
     1
102
RTVSPost2010Prop47
 90
       50
102
RTVSPost2010PropOp47
 70
     1
102
RTVSPost2010Prop48
 90
       50
102
RTVSPost2010PropOp48
 70
     1
102
RTVSPost2010Prop49
280
     0
102
RTVSPost2010PropOp49
 70
     1
102
RTVSPost2010Prop50
 90
       50
102
RTVSPost2010PropOp50
 70
     1
102
RTVSPost2010Prop51ColorIndex
 90
      256
102
RTVSPost2010Prop51ColorRGB
 90
-16777216
102
RTVSPost2010PropOp51
 70
     0
102
RTVSPost2010Prop52
140
1.0
102
RTVSPost2010PropOp52
 70
     0
102
RTVSPost2010Prop53
 90
        2
102
RTVSPost2010PropOp53
 70
     1
102
RTVSPost2010Prop54
  1
strokes_ogs.tif
102
RTVSPost2010PropOp54
 70
     1
102
RTVSPost2010Prop55
280
     0
102
RTVSPost2010PropOp55
 70
     1
102
RTVSPost2010Prop56
140
1.0
102
RTVSPost2010PropOp56
 70
     1
102
RTVSPost2010Prop57
140
1.0
102
RTVSPost2010PropOp57
 70
     1
102
RTVSPropertyOp0
 70
     1
102
RTVSPropertyOp1
 70
     1
102
RTVSPropertyOp2
 70
     1
102
RTVSPropertyOp3
 70
     1
102
RTVSPropertyOp4
 70
     1
102
RTVSPropertyOp5
 70
     1
102
RTVSPropertyOp6
 70
     1
102
RTVSPropertyOp7
 70
     1
102
RTVSPropertyOp8
 70
     1
102
RTVSPropertyOp9
 70
     1
102
RTVSPropertyOp10
 70
     1
102
RTVSPropertyOp11
 70
     1
102
RTVSPropertyOp12
 70
     1
102
RTVSPropertyOp13
 70
     1
102
RTVSPropertyOp14
 70
     1
102
RTVSPropertyOp15
 70
     1
102
RTVSPropertyOp16
 70
     1
102
RTVSPropertyOp17
 70
     1
102
RTVSPropertyOp18
 70
     1
102
RTVSPropertyOp19
 70
     1
102
RTVSPropertyOp20
 70
     1
102
RTVSPropertyOp21
 70
     1
102
RTVSPropertyOp22
 70
     1
102
RTVSPropertyOp23
 70
     1
102
RTVSPropertyOp24
 70
     1
102
RTVSPropertyOp25
 70
     1
102
RTVSPropertyOp26
 70
     1
102
RTVSPropertyOp27
 70
     1
102
RTVSPropertyOp28
 70
     1
102
RTVSPropertyOp29
 70
     1
102
RTVSPropertyOp30
 70
     1
102
RTVSPropertyOp31
 70
     1
102
RTVSPropertyOp32
 70
     1
102
RTVSPropertyOp33
 70
     1
102
RTVSPropertyOp34
 70
     1
102
RTVSPropertyOp35
 70
     1
102
RTVSPropertyOp36
 70
     1
102
RTVSPropertyOp37
 70
     1
102
RTVSPropertyOp38
 70
     1
102
RTVSPropertyOp39
 70
     1
102
RTVSPropertyOp40
 70
     1
102
RTVSPropertyOp41
 70
     1
102
RTVSPropertyOp42
 70
     1
102
RTVSPropertyOp43
 70
     1
102
RTVSPropertyOp44
 70
     1
102
RTVSPropertyOp45
 70
     1
102
RTVSPropertyOp46
 70
     1
102
RTVSPropertyOp47
 70
     1
102
RTVSPropertyOp48
 70
     1
102
RTVSPropertyOp49
 70
     1
102
RTVSPropertyOp50
 70
     1
102
RTVSPropertyOp51
 70
     0
102
RTVSPropertyOp52
 70
     0
102
RTVSPropertyOp53
 70
     1
102
RTVSPropertyOp54
 70
     1
102
RTVSPropertyOp55
 70
     1
102
RTVSPropertyOp56
 70
     1
102
RTVSPropertyOp57
 70
     1
102
RTVSPropertyOp58
 70
     1
102
RTVSPropertyOp59
 70
     1
102
RTVSPropertyOp60
 70
     1
102
RTVSPropertyOp61
 70
     1
102
RTVSPropertyOp62
 70
     1
  0
XRECORD
  5
CD
102
{ACAD_REACTORS
330
CC
102
}
330
CC
100
AcDbXrecord
280
     1
102
RTVSPost2010Prop28
280
     0
102
RTVSPost2010PropOp28
 70
     1
102
RTVSPost2010Prop29
280
     1
102
RTVSPost2010PropOp29
 70
     1
102
RTVSPost2010Prop30
280
     1
102
RTVSPost2010PropOp30
 70
     1
102
RTVSPost2010Prop31
280
     0
102
RTVSPost2010PropOp31
 70
     1
102
RTVSPost2010Prop32
280
     0
102
RTVSPost2010PropOp32
 70
     1
102
RTVSPost2010Prop33
280
     0
102
RTVSPost2010PropOp33
 70
     1
102
RTVSPost2010Prop34
280
     0
102
RTVSPost2010PropOp34
 70
     1
102
RTVSPost2010Prop35
280
     0
102
RTVSPost2010PropOp35
 70
     1
102
RTVSPost2010Prop36
280
     0
102
RTVSPost2010PropOp36
 70
     1
102
RTVSPost2010Prop37
 90
       50
102
RTVSPost2010PropOp37
 70
     1
102
RTVSPost2010Prop38
140
0.0
102
RTVSPost2010PropOp38
 70
     1
102
RTVSPost2010Prop39
140
1.0
102
RTVSPost2010PropOp39
 70
     1
102
RTVSPost2010Prop40
 90
        0
102
RTVSPost2010PropOp40
 70
     1
102
RTVSPost2010Prop41ColorIndex
 90
       18
102
RTVSPost2010Prop41ColorRGB
 90
        0
102
RTVSPost2010PropOp41
 70
     1
102
RTVSPost2010Prop42
 90
       50
102
RTVSPost2010PropOp42
 70
     1
102
RTVSPost2010Prop43
 90
        3
102
RTVSPost2010PropOp43
 70
     1
102
RTVSPost2010Prop44ColorIndex
 90
        5
102
RTVSPost2010Prop44ColorRGB
 90
      255
102
RTVSPost2010PropOp44
 70
     1
102
RTVSPost2010Prop45
280
     0
102
RTVSPost2010PropOp45
 70
     1
102
RTVSPost2010Prop46
 90
       50
102
RTVSPost2010PropOp46
 70
     1
102
RTVSPost2010Prop47
 90
       50
102
RTVSPost2010PropOp47
 70
     1
102
RTVSPost2010Prop48
 90
       50
102
RTVSPost2010PropOp48
 70
     1
102
RTVSPost2010Prop49
280
     0
102
RTVSPost2010PropOp49
 70
     1
102
RTVSPost2010Prop50
 90
       50
102
RTVSPost2010PropOp50
 70
     1
102
RTVSPost2010Prop51ColorIndex
 90
      256
102
RTVSPost2010Prop51ColorRGB
 90
-16777216
102
RTVSPost2010PropOp51
 70
     0
102
RTVSPost2010Prop52
140
1.0
102
RTVSPost2010PropOp52
 70
     0
102
RTVSPost2010Prop53
 90
        2
102
RTVSPost2010PropOp53
 70
     1
102
RTVSPost2010Prop54
  1
strokes_ogs.tif
102
RTVSPost2010PropOp54
 70
     1
102
RTVSPost2010Prop55
280
     0
102
RTVSPost2010PropOp55
 70
     1
102
RTVSPost2010Prop56
140
1.0
102
RTVSPost2010PropOp56
 70
     1
102
RTVSPost2010Prop57
140
1.0
102
RTVSPost2010PropOp57
 70
     1
102
RTVSPropertyOp0
 70
     1
102
RTVSPropertyOp1
 70
     1
102
RTVSPropertyOp2
 70
     1
102
RTVSPropertyOp3
 70
     1
102
RTVSPropertyOp4
 70
     1
102
RTVSPropertyOp5
 70
     1
102
RTVSPropertyOp6
 70
     1
102
RTVSPropertyOp7
 70
     1
102
RTVSPropertyOp8
 70
     1
102
RTVSPropertyOp9
 70
     1
102
RTVSPropertyOp10
 70
     1
102
RTVSPropertyOp11
 70
     1
102
RTVSPropertyOp12
 70
     1
102
RTVSPropertyOp13
 70
     1
102
RTVSPropertyOp14
 70
     1
102
RTVSPropertyOp15
 70
     1
102
RTVSPropertyOp16
 70
     1
102
RTVSPropertyOp17
 70
     1
102
RTVSPropertyOp18
 70
     1
102
RTVSPropertyOp19
 70
     1
102
RTVSPropertyOp20
 70
     1
102
RTVSPropertyOp21
 70
     1
102
RTVSPropertyOp22
 70
     1
102
RTVSPropertyOp23
 70
     1
102
RTVSPropertyOp24
 70
     1
102
RTVSPropertyOp25
 70
     1
102
RTVSPropertyOp26
 70
     1
102
RTVSPropertyOp27
 70
     1
102
RTVSPropertyOp28
 70
     1
102
RTVSPropertyOp29
 70
     1
102
RTVSPropertyOp30
 70
     1
102
RTVSPropertyOp31
 70
     1
102
RTVSPropertyOp32
 70
     1
102
RTVSPropertyOp33
 70
     1
102
RTVSPropertyOp34
 70
     1
102
RTVSPropertyOp35
 70
     1
102
RTVSPropertyOp36
 70
     1
102
RTVSPropertyOp37
 70
     1
102
RTVSPropertyOp38
 70
     1
102
RTVSPropertyOp39
 70
     1
102
RTVSPropertyOp40
 70
     1
102
RTVSPropertyOp41
 70
     1
102
RTVSPropertyOp42
 70
     1
102
RTVSPropertyOp43
 70
     1
102
RTVSPropertyOp44
 70
     1
102
RTVSPropertyOp45
 70
     1
102
RTVSPropertyOp46
 70
     1
102
RTVSPropertyOp47
 70
     1
102
RTVSPropertyOp48
 70
     1
102
RTVSPropertyOp49
 70
     1
102
RTVSPropertyOp50
 70
     1
102
RTVSPropertyOp51
 70
     0
102
RTVSPropertyOp52
 70
     0
102
RTVSPropertyOp53
 70
     1
102
RTVSPropertyOp54
 70
     1
102
RTVSPropertyOp55
 70
     1
102
RTVSPropertyOp56
 70
     1
102
RTVSPropertyOp57
 70
     1
102
RTVSPropertyOp58
 70
     1
102
RTVSPropertyOp59
 70
     1
102
RTVSPropertyOp60
 70
     1
102
RTVSPropertyOp61
 70
     1
102
RTVSPropertyOp62
 70
     1
  0
XRECORD
  5
CF
102
{ACAD_REACTORS
330
CE
102
}
330
CE
100
AcDbXrecord
280
     1
102
RTVSPost2010Prop28
280
     0
102
RTVSPost2010PropOp28
 70
     1
102
RTVSPost2010Prop29
280
     1
102
RTVSPost2010PropOp29
 70
     1
102
RTVSPost2010Prop30
280
     1
102
RTVSPost2010PropOp30
 70
     1
102
RTVSPost2010Prop31
280
     0
102
RTVSPost2010PropOp31
 70
     1
102
RTVSPost2010Prop32
280
     0
102
RTVSPost2010PropOp32
 70
     1
102
RTVSPost2010Prop33
280
     0
102
RTVSPost2010PropOp33
 70
     1
102
RTVSPost2010Prop34
280
     0
102
RTVSPost2010PropOp34
 70
     1
102
RTVSPost2010Prop35
280
     0
102
RTVSPost2010PropOp35
 70
     1
102
RTVSPost2010Prop36
280
     0
102
RTVSPost2010PropOp36
 70
     1
102
RTVSPost2010Prop37
 90
       50
102
RTVSPost2010PropOp37
 70
     1
102
RTVSPost2010Prop38
140
0.0
102
RTVSPost2010PropOp38
 70
     1
102
RTVSPost2010Prop39
140
1.0
102
RTVSPost2010PropOp39
 70
     1
102
RTVSPost2010Prop40
 90
        0
102
RTVSPost2010PropOp40
 70
     1
102
RTVSPost2010Prop41ColorIndex
 90
       18
102
RTVSPost2010Prop41ColorRGB
 90
        0
102
RTVSPost2010PropOp41
 70
     1
102
RTVSPost2010Prop42
 90
       50
102
RTVSPost2010PropOp42
 70
     1
102
RTVSPost2010Prop43
 90
        3
102
RTVSPost2010PropOp43
 70
     1
102
RTVSPost2010Prop44ColorIndex
 90
        5
102
RTVSPost2010Prop44ColorRGB
 90
      255
102
RTVSPost2010PropOp44
 70
     1
102
RTVSPost2010Prop45
280
     0
102
RTVSPost2010PropOp45
 70
     1
102
RTVSPost2010Prop46
 90
       50
102
RTVSPost2010PropOp46
 70
     1
102
RTVSPost2010Prop47
 90
       50
102
RTVSPost2010PropOp47
 70
     1
102
RTVSPost2010Prop48
 90
       50
102
RTVSPost2010PropOp48
 70
     1
102
RTVSPost2010Prop49
280
     0
102
RTVSPost2010PropOp49
 70
     1
102
RTVSPost2010Prop50
 90
       50
102
RTVSPost2010PropOp50
 70
     1
102
RTVSPost2010Prop51ColorIndex
 90
      256
102
RTVSPost2010Prop51ColorRGB
 90
-16777216
102
RTVSPost2010PropOp51
 70
     0
102
RTVSPost2010Prop52
140
1.0
102
RTVSPost2010PropOp52
 70
     0
102
RTVSPost2010Prop53
 90
        2
102
RTVSPost2010PropOp53
 70
     1
102
RTVSPost2010Prop54
  1
strokes_ogs.tif
102
RTVSPost2010PropOp54
 70
     1
102
RTVSPost2010Prop55
280
     0
102
RTVSPost2010PropOp55
 70
     1
102
RTVSPost2010Prop56
140
1.0
102
RTVSPost2010PropOp56
 70
     1
102
RTVSPost2010Prop57
140
1.0
102
RTVSPost2010PropOp57
 70
     1
102
RTVSPropertyOp0
 70
     1
102
RTVSPropertyOp1
 70
     1
102
RTVSPropertyOp2
 70
     1
102
RTVSPropertyOp3
 70
     1
102
RTVSPropertyOp4
 70
     1
102
RTVSPropertyOp5
 70
     1
102
RTVSPropertyOp6
 70
     1
102
RTVSPropertyOp7
 70
     1
102
RTVSPropertyOp8
 70
     1
102
RTVSPropertyOp9
 70
     1
102
RTVSPropertyOp10
 70
     1
102
RTVSPropertyOp11
 70
     1
102
RTVSPropertyOp12
 70
     1
102
RTVSPropertyOp13
 70
     1
102
RTVSPropertyOp14
 70
     1
102
RTVSPropertyOp15
 70
     1
102
RTVSPropertyOp16
 70
     1
102
RTVSPropertyOp17
 70
     1
102
RTVSPropertyOp18
 70
     1
102
RTVSPropertyOp19
 70
     1
102
RTVSPropertyOp20
 70
     1
102
RTVSPropertyOp21
 70
     1
102
RTVSPropertyOp22
 70
     1
102
RTVSPropertyOp23
 70
     1
102
RTVSPropertyOp24
 70
     1
102
RTVSPropertyOp25
 70
     1
102
RTVSPropertyOp26
 70
     1
102
RTVSPropertyOp27
 70
     1
102
RTVSPropertyOp28
 70
     1
102
RTVSPropertyOp29
 70
     1
102
RTVSPropertyOp30
 70
     1
102
RTVSPropertyOp31
 70
     1
102
RTVSPropertyOp32
 70
     1
102
RTVSPropertyOp33
 70
     1
102
RTVSPropertyOp34
 70
     1
102
RTVSPropertyOp35
 70
     1
102
RTVSPropertyOp36
 70
     1
102
RTVSPropertyOp37
 70
     1
102
RTVSPropertyOp38
 70
     1
102
RTVSPropertyOp39
 70
     1
102
RTVSPropertyOp40
 70
     1
102
RTVSPropertyOp41
 70
     1
102
RTVSPropertyOp42
 70
     1
102
RTVSPropertyOp43
 70
     1
102
RTVSPropertyOp44
 70
     1
102
RTVSPropertyOp45
 70
     1
102
RTVSPropertyOp46
 70
     1
102
RTVSPropertyOp47
 70
     1
102
RTVSPropertyOp48
 70
     1
102
RTVSPropertyOp49
 70
     1
102
RTVSPropertyOp50
 70
     1
102
RTVSPropertyOp51
 70
     0
102
RTVSPropertyOp52
 70
     0
102
RTVSPropertyOp53
 70
     1
102
RTVSPropertyOp54
 70
     1
102
RTVSPropertyOp55
 70
     1
102
RTVSPropertyOp56
 70
     1
102
RTVSPropertyOp57
 70
     1
102
RTVSPropertyOp58
 70
     1
102
RTVSPropertyOp59
 70
     1
102
RTVSPropertyOp60
 70
     1
102
RTVSPropertyOp61
 70
     1
102
RTVSPropertyOp62
 70
     1
  0
XRECORD
  5
D7
102
{ACAD_REACTORS
330
D6
102
}
330
D6
100
AcDbXrecord
280
     1
102
RTVSPost2010Prop28
280
     0
102
RTVSPost2010PropOp28
 70
     1
102
RTVSPost2010Prop29
280
     1
102
RTVSPost2010PropOp29
 70
     1
102
RTVSPost2010Prop30
280
     1
102
RTVSPost2010PropOp30
 70
     1
102
RTVSPost2010Prop31
280
     0
102
RTVSPost2010PropOp31
 70
     1
102
RTVSPost2010Prop32
280
     0
102
RTVSPost2010PropOp32
 70
     1
102
RTVSPost2010Prop33
280
     0
102
RTVSPost2010PropOp33
 70
     1
102
RTVSPost2010Prop34
280
     0
102
RTVSPost2010PropOp34
 70
     1
102
RTVSPost2010Prop35
280
     0
102
RTVSPost2010PropOp35
 70
     1
102
RTVSPost2010Prop36
280
     0
102
RTVSPost2010PropOp36
 70
     1
102
RTVSPost2010Prop37
 90
       50
102
RTVSPost2010PropOp37
 70
     1
102
RTVSPost2010Prop38
140
0.0
102
RTVSPost2010PropOp38
 70
     1
102
RTVSPost2010Prop39
140
1.0
102
RTVSPost2010PropOp39
 70
     1
102
RTVSPost2010Prop40
 90
        0
102
RTVSPost2010PropOp40
 70
     1
102
RTVSPost2010Prop41ColorIndex
 90
       18
102
RTVSPost2010Prop41ColorRGB
 90
        0
102
RTVSPost2010PropOp41
 70
     1
102
RTVSPost2010Prop42
 90
       50
102
RTVSPost2010PropOp42
 70
     1
102
RTVSPost2010Prop43
 90
        3
102
RTVSPost2010PropOp43
 70
     1
102
RTVSPost2010Prop44ColorIndex
 90
        5
102
RTVSPost2010Prop44ColorRGB
 90
      255
102
RTVSPost2010PropOp44
 70
     1
102
RTVSPost2010Prop45
280
     0
102
RTVSPost2010PropOp45
 70
     1
102
RTVSPost2010Prop46
 90
       50
102
RTVSPost2010PropOp46
 70
     1
102
RTVSPost2010Prop47
 90
       50
102
RTVSPost2010PropOp47
 70
     1
102
RTVSPost2010Prop48
 90
       50
102
RTVSPost2010PropOp48
 70
     1
102
RTVSPost2010Prop49
280
     0
102
RTVSPost2010PropOp49
 70
     1
102
RTVSPost2010Prop50
 90
       50
102
RTVSPost2010PropOp50
 70
     1
102
RTVSPost2010Prop51ColorIndex
 90
      256
102
RTVSPost2010Prop51ColorRGB
 90
-16777216
102
RTVSPost2010PropOp51
 70
     0
102
RTVSPost2010Prop52
140
1.0
102
RTVSPost2010PropOp52
 70
     0
102
RTVSPost2010Prop53
 90
        2
102
RTVSPost2010PropOp53
 70
     1
102
RTVSPost2010Prop54
  1
strokes_ogs.tif
102
RTVSPost2010PropOp54
 70
     1
102
RTVSPost2010Prop55
280
     0
102
RTVSPost2010PropOp55
 70
     1
102
RTVSPost2010Prop56
140
1.0
102
RTVSPost2010PropOp56
 70
     1
102
RTVSPost2010Prop57
140
1.0
102
RTVSPost2010PropOp57
 70
     1
102
RTVSPropertyOp0
 70
     1
102
RTVSPropertyOp1
 70
     1
102
RTVSPropertyOp2
 70
     1
102
RTVSPropertyOp3
 70
     1
102
RTVSPropertyOp4
 70
     1
102
RTVSPropertyOp5
 70
     1
102
RTVSPropertyOp6
 70
     1
102
RTVSPropertyOp7
 70
     1
102
RTVSPropertyOp8
 70
     1
102
RTVSPropertyOp9
 70
     1
102
RTVSPropertyOp10
 70
     1
102
RTVSPropertyOp11
 70
     1
102
RTVSPropertyOp12
 70
     1
102
RTVSPropertyOp13
 70
     1
102
RTVSPropertyOp14
 70
     1
102
RTVSPropertyOp15
 70
     1
102
RTVSPropertyOp16
 70
     1
102
RTVSPropertyOp17
 70
     1
102
RTVSPropertyOp18
 70
     1
102
RTVSPropertyOp19
 70
     1
102
RTVSPropertyOp20
 70
     1
102
RTVSPropertyOp21
 70
     1
102
RTVSPropertyOp22
 70
     1
102
RTVSPropertyOp23
 70
     1
102
RTVSPropertyOp24
 70
     1
102
RTVSPropertyOp25
 70
     1
102
RTVSPropertyOp26
 70
     1
102
RTVSPropertyOp27
 70
     1
102
RTVSPropertyOp28
 70
     1
102
RTVSPropertyOp29
 70
     1
102
RTVSPropertyOp30
 70
     1
102
RTVSPropertyOp31
 70
     1
102
RTVSPropertyOp32
 70
     1
102
RTVSPropertyOp33
 70
     1
102
RTVSPropertyOp34
 70
     1
102
RTVSPropertyOp35
 70
     1
102
RTVSPropertyOp36
 70
     1
102
RTVSPropertyOp37
 70
     1
102
RTVSPropertyOp38
 70
     1
102
RTVSPropertyOp39
 70
     1
102
RTVSPropertyOp40
 70
     1
102
RTVSPropertyOp41
 70
     1
102
RTVSPropertyOp42
 70
     1
102
RTVSPropertyOp43
 70
     1
102
RTVSPropertyOp44
 70
     1
102
RTVSPropertyOp45
 70
     1
102
RTVSPropertyOp46
 70
     1
102
RTVSPropertyOp47
 70
     1
102
RTVSPropertyOp48
 70
     1
102
RTVSPropertyOp49
 70
     1
102
RTVSPropertyOp50
 70
     1
102
RTVSPropertyOp51
 70
     0
102
RTVSPropertyOp52
 70
     0
102
RTVSPropertyOp53
 70
     1
102
RTVSPropertyOp54
 70
     1
102
RTVSPropertyOp55
 70
     1
102
RTVSPropertyOp56
 70
     1
102
RTVSPropertyOp57
 70
     1
102
RTVSPropertyOp58
 70
     1
102
RTVSPropertyOp59
 70
     1
102
RTVSPropertyOp60
 70
     1
102
RTVSPropertyOp61
 70
     1
102
RTVSPropertyOp62
 70
     1
  0
XRECORD
  5
F3
102
{ACAD_REACTORS
330
F2
102
}
330
F2
100
AcDbXrecord
280
     1
102
RTVSPost2010Prop28
280
     0
102
RTVSPost2010PropOp28
 70
     0
102
RTVSPost2010Prop29
280
     1
102
RTVSPost2010PropOp29
 70
     0
102
RTVSPost2010Prop30
280
     1
102
RTVSPost2010PropOp30
 70
     0
102
RTVSPost2010Prop31
280
     0
102
RTVSPost2010PropOp31
 70
     0
102
RTVSPost2010Prop32
280
     0
102
RTVSPost2010PropOp32
 70
     0
102
RTVSPost2010Prop33
280
     0
102
RTVSPost2010PropOp33
 70
     0
102
RTVSPost2010Prop34
280
     0
102
RTVSPost2010PropOp34
 70
     0
102
RTVSPost2010Prop35
280
     0
102
RTVSPost2010PropOp35
 70
     0
102
RTVSPost2010Prop36
280
     0
102
RTVSPost2010PropOp36
 70
     0
102
RTVSPost2010Prop37
 90
       50
102
RTVSPost2010PropOp37
 70
     0
102
RTVSPost2010Prop38
140
0.0
102
RTVSPost2010PropOp38
 70
     0
102
RTVSPost2010Prop39
140
1.0
102
RTVSPost2010PropOp39
 70
     0
102
RTVSPost2010Prop40
 90
        0
102
RTVSPost2010PropOp40
 70
     0
102
RTVSPost2010Prop41ColorIndex
 90
       18
102
RTVSPost2010Prop41ColorRGB
 90
        0
102
RTVSPost2010PropOp41
 70
     0
102
RTVSPost2010Prop42
 90
       50
102
RTVSPost2010PropOp42
 70
     0
102
RTVSPost2010Prop43
 90
        3
102
RTVSPost2010PropOp43
 70
     0
102
RTVSPost2010Prop44ColorIndex
 90
        5
102
RTVSPost2010Prop44ColorRGB
 90
      255
102
RTVSPost2010PropOp44
 70
     0
102
RTVSPost2010Prop45
280
     0
102
RTVSPost2010PropOp45
 70
     0
102
RTVSPost2010Prop46
 90
       50
102
RTVSPost2010PropOp46
 70
     0
102
RTVSPost2010Prop47
 90
       50
102
RTVSPost2010PropOp47
 70
     0
102
RTVSPost2010Prop48
 90
       50
102
RTVSPost2010PropOp48
 70
     0
102
RTVSPost2010Prop49
280
     0
102
RTVSPost2010PropOp49
 70
     0
102
RTVSPost2010Prop50
 90
       50
102
RTVSPost2010PropOp50
 70
     0
102
RTVSPost2010Prop51ColorIndex
 90
      256
102
RTVSPost2010Prop51ColorRGB
 90
-16777216
102
RTVSPost2010PropOp51
 70
     0
102
RTVSPost2010Prop52
140
1.0
102
RTVSPost2010PropOp52
 70
     0
102
RTVSPost2010Prop53
 90
        2
102
RTVSPost2010PropOp53
 70
     0
102
RTVSPost2010Prop54
  1
strokes_ogs.tif
102
RTVSPost2010PropOp54
 70
     0
102
RTVSPost2010Prop55
280
     0
102
RTVSPost2010PropOp55
 70
     0
102
RTVSPost2010Prop56
140
1.0
102
RTVSPost2010PropOp56
 70
     0
102
RTVSPost2010Prop57
140
1.0
102
RTVSPost2010PropOp57
 70
     0
102
RTVSPropertyOp0
 70
     0
102
RTVSPropertyOp1
 70
     0
102
RTVSPropertyOp2
 70
     0
102
RTVSPropertyOp3
 70
     0
102
RTVSPropertyOp4
 70
     0
102
RTVSPropertyOp5
 70
     0
102
RTVSPropertyOp6
 70
     0
102
RTVSPropertyOp7
 70
     0
102
RTVSPropertyOp8
 70
     0
102
RTVSPropertyOp9
 70
     0
102
RTVSPropertyOp10
 70
     0
102
RTVSPropertyOp11
 70
     0
102
RTVSPropertyOp12
 70
     0
102
RTVSPropertyOp13
 70
     0
102
RTVSPropertyOp14
 70
     2
102
RTVSPropertyOp15
 70
     0
102
RTVSPropertyOp16
 70
     0
102
RTVSPropertyOp17
 70
     0
102
RTVSPropertyOp18
 70
     0
102
RTVSPropertyOp19
 70
     0
102
RTVSPropertyOp20
 70
     0
102
RTVSPropertyOp21
 70
     0
102
RTVSPropertyOp22
 70
     0
102
RTVSPropertyOp23
 70
     0
102
RTVSPropertyOp24
 70
     0
102
RTVSPropertyOp25
 70
     0
102
RTVSPropertyOp26
 70
     0
102
RTVSPropertyOp27
 70
     0
102
RTVSPropertyOp28
 70
     0
102
RTVSPropertyOp29
 70
     0
102
RTVSPropertyOp30
 70
     0
102
RTVSPropertyOp31
 70
     0
102
RTVSPropertyOp32
 70
     0
102
RTVSPropertyOp33
 70
     0
102
RTVSPropertyOp34
 70
     0
102
RTVSPropertyOp35
 70
     0
102
RTVSPropertyOp36
 70
     0
102
RTVSPropertyOp37
 70
     0
102
RTVSPropertyOp38
 70
     0
102
RTVSPropertyOp39
 70
     0
102
RTVSPropertyOp40
 70
     0
102
RTVSPropertyOp41
 70
     0
102
RTVSPropertyOp42
 70
     0
102
RTVSPropertyOp43
 70
     0
102
RTVSPropertyOp44
 70
     0
102
RTVSPropertyOp45
 70
     0
102
RTVSPropertyOp46
 70
     0
102
RTVSPropertyOp47
 70
     0
102
RTVSPropertyOp48
 70
     0
102
RTVSPropertyOp49
 70
     0
102
RTVSPropertyOp50
 70
     0
102
RTVSPropertyOp51
 70
     0
102
RTVSPropertyOp52
 70
     0
102
RTVSPropertyOp53
 70
     0
102
RTVSPropertyOp54
 70
     0
102
RTVSPropertyOp55
 70
     0
102
RTVSPropertyOp56
 70
     0
102
RTVSPropertyOp57
 70
     0
102
RTVSPropertyOp58
 70
     0
102
RTVSPropertyOp59
 70
     0
102
RTVSPropertyOp60
 70
     0
102
RTVSPropertyOp61
 70
     0
102
RTVSPropertyOp62
 70
     0
  0
XRECORD
  5
E3
102
{ACAD_REACTORS
330
E2
102
}
330
E2
100
AcDbXrecord
280
     1
102
RTVSPost2010Prop28
280
     0
102
RTVSPost2010PropOp28
 70
     1
102
RTVSPost2010Prop29
280
     1
102
RTVSPost2010PropOp29
 70
     1
102
RTVSPost2010Prop30
280
     1
102
RTVSPost2010PropOp30
 70
     1
102
RTVSPost2010Prop31
280
     0
102
RTVSPost2010PropOp31
 70
     1
102
RTVSPost2010Prop32
280
     0
102
RTVSPost2010PropOp32
 70
     1
102
RTVSPost2010Prop33
280
     0
102
RTVSPost2010PropOp33
 70
     1
102
RTVSPost2010Prop34
280
     0
102
RTVSPost2010PropOp34
 70
     1
102
RTVSPost2010Prop35
280
     0
102
RTVSPost2010PropOp35
 70
     1
102
RTVSPost2010Prop36
280
     0
102
RTVSPost2010PropOp36
 70
     1
102
RTVSPost2010Prop37
 90
       50
102
RTVSPost2010PropOp37
 70
     1
102
RTVSPost2010Prop38
140
0.0
102
RTVSPost2010PropOp38
 70
     1
102
RTVSPost2010Prop39
140
1.0
102
RTVSPost2010PropOp39
 70
     1
102
RTVSPost2010Prop40
 90
        0
102
RTVSPost2010PropOp40
 70
     1
102
RTVSPost2010Prop41ColorIndex
 90
       18
102
RTVSPost2010Prop41ColorRGB
 90
        0
102
RTVSPost2010PropOp41
 70
     1
102
RTVSPost2010Prop42
 90
       50
102
RTVSPost2010PropOp42
 70
     1
102
RTVSPost2010Prop43
 90
        3
102
RTVSPost2010PropOp43
 70
     1
102
RTVSPost2010Prop44ColorIndex
 90
        5
102
RTVSPost2010Prop44ColorRGB
 90
      255
102
RTVSPost2010PropOp44
 70
     1
102
RTVSPost2010Prop45
280
     0
102
RTVSPost2010PropOp45
 70
     1
102
RTVSPost2010Prop46
 90
       50
102
RTVSPost2010PropOp46
 70
     1
102
RTVSPost2010Prop47
 90
       50
102
RTVSPost2010PropOp47
 70
     1
102
RTVSPost2010Prop48
 90
       50
102
RTVSPost2010PropOp48
 70
     1
102
RTVSPost2010Prop49
280
     0
102
RTVSPost2010PropOp49
 70
     1
102
RTVSPost2010Prop50
 90
       50
102
RTVSPost2010PropOp50
 70
     1
102
RTVSPost2010Prop51ColorIndex
 90
      256
102
RTVSPost2010Prop51ColorRGB
 90
-16777216
102
RTVSPost2010PropOp51
 70
     0
102
RTVSPost2010Prop52
140
1.0
102
RTVSPost2010PropOp52
 70
     0
102
RTVSPost2010Prop53
 90
        2
102
RTVSPost2010PropOp53
 70
     1
102
RTVSPost2010Prop54
  1
strokes_ogs.tif
102
RTVSPost2010PropOp54
 70
     1
102
RTVSPost2010Prop55
280
     0
102
RTVSPost2010PropOp55
 70
     1
102
RTVSPost2010Prop56
140
1.0
102
RTVSPost2010PropOp56
 70
     1
102
RTVSPost2010Prop57
140
1.0
102
RTVSPost2010PropOp57
 70
     1
102
RTVSPropertyOp0
 70
     1
102
RTVSPropertyOp1
 70
     1
102
RTVSPropertyOp2
 70
     1
102
RTVSPropertyOp3
 70
     1
102
RTVSPropertyOp4
 70
     1
102
RTVSPropertyOp5
 70
     1
102
RTVSPropertyOp6
 70
     1
102
RTVSPropertyOp7
 70
     1
102
RTVSPropertyOp8
 70
     1
102
RTVSPropertyOp9
 70
     1
102
RTVSPropertyOp10
 70
     1
102
RTVSPropertyOp11
 70
     1
102
RTVSPropertyOp12
 70
     1
102
RTVSPropertyOp13
 70
     1
102
RTVSPropertyOp14
 70
     1
102
RTVSPropertyOp15
 70
     1
102
RTVSPropertyOp16
 70
     1
102
RTVSPropertyOp17
 70
     1
102
RTVSPropertyOp18
 70
     1
102
RTVSPropertyOp19
 70
     1
102
RTVSPropertyOp20
 70
     1
102
RTVSPropertyOp21
 70
     1
102
RTVSPropertyOp22
 70
     1
102
RTVSPropertyOp23
 70
     1
102
RTVSPropertyOp24
 70
     1
102
RTVSPropertyOp25
 70
     1
102
RTVSPropertyOp26
 70
     1
102
RTVSPropertyOp27
 70
     1
102
RTVSPropertyOp28
 70
     1
102
RTVSPropertyOp29
 70
     1
102
RTVSPropertyOp30
 70
     1
102
RTVSPropertyOp31
 70
     1
102
RTVSPropertyOp32
 70
     1
102
RTVSPropertyOp33
 70
     1
102
RTVSPropertyOp34
 70
     1
102
RTVSPropertyOp35
 70
     1
102
RTVSPropertyOp36
 70
     1
102
RTVSPropertyOp37
 70
     1
102
RTVSPropertyOp38
 70
     1
102
RTVSPropertyOp39
 70
     1
102
RTVSPropertyOp40
 70
     1
102
RTVSPropertyOp41
 70
     1
102
RTVSPropertyOp42
 70
     1
102
RTVSPropertyOp43
 70
     1
102
RTVSPropertyOp44
 70
     1
102
RTVSPropertyOp45
 70
     1
102
RTVSPropertyOp46
 70
     1
102
RTVSPropertyOp47
 70
     1
102
RTVSPropertyOp48
 70
     1
102
RTVSPropertyOp49
 70
     1
102
RTVSPropertyOp50
 70
     1
102
RTVSPropertyOp51
 70
     0
102
RTVSPropertyOp52
 70
     0
102
RTVSPropertyOp53
 70
     1
102
RTVSPropertyOp54
 70
     1
102
RTVSPropertyOp55
 70
     1
102
RTVSPropertyOp56
 70
     1
102
RTVSPropertyOp57
 70
     1
102
RTVSPropertyOp58
 70
     1
102
RTVSPropertyOp59
 70
     1
102
RTVSPropertyOp60
 70
     1
102
RTVSPropertyOp61
 70
     1
102
RTVSPropertyOp62
 70
     1
  0
XRECORD
  5
F5
102
{ACAD_REACTORS
330
F4
102
}
330
F4
100
AcDbXrecord
280
     1
102
RTVSPost2010Prop28
280
     0
102
RTVSPost2010PropOp28
 70
     0
102
RTVSPost2010Prop29
280
     1
102
RTVSPost2010PropOp29
 70
     0
102
RTVSPost2010Prop30
280
     1
102
RTVSPost2010PropOp30
 70
     0
102
RTVSPost2010Prop31
280
     0
102
RTVSPost2010PropOp31
 70
     0
102
RTVSPost2010Prop32
280
     0
102
RTVSPost2010PropOp32
 70
     0
102
RTVSPost2010Prop33
280
     0
102
RTVSPost2010PropOp33
 70
     0
102
RTVSPost2010Prop34
280
     0
102
RTVSPost2010PropOp34
 70
     0
102
RTVSPost2010Prop35
280
     0
102
RTVSPost2010PropOp35
 70
     0
102
RTVSPost2010Prop36
280
     0
102
RTVSPost2010PropOp36
 70
     0
102
RTVSPost2010Prop37
 90
       50
102
RTVSPost2010PropOp37
 70
     0
102
RTVSPost2010Prop38
140
0.0
102
RTVSPost2010PropOp38
 70
     0
102
RTVSPost2010Prop39
140
1.0
102
RTVSPost2010PropOp39
 70
     0
102
RTVSPost2010Prop40
 90
        0
102
RTVSPost2010PropOp40
 70
     0
102
RTVSPost2010Prop41ColorIndex
 90
       18
102
RTVSPost2010Prop41ColorRGB
 90
        0
102
RTVSPost2010PropOp41
 70
     0
102
RTVSPost2010Prop42
 90
       50
102
RTVSPost2010PropOp42
 70
     0
102
RTVSPost2010Prop43
 90
        3
102
RTVSPost2010PropOp43
 70
     0
102
RTVSPost2010Prop44ColorIndex
 90
        5
102
RTVSPost2010Prop44ColorRGB
 90
      255
102
RTVSPost2010PropOp44
 70
     0
102
RTVSPost2010Prop45
280
     0
102
RTVSPost2010PropOp45
 70
     0
102
RTVSPost2010Prop46
 90
       50
102
RTVSPost2010PropOp46
 70
     0
102
RTVSPost2010Prop47
 90
       50
102
RTVSPost2010PropOp47
 70
     0
102
RTVSPost2010Prop48
 90
       50
102
RTVSPost2010PropOp48
 70
     0
102
RTVSPost2010Prop49
280
     0
102
RTVSPost2010PropOp49
 70
     0
102
RTVSPost2010Prop50
 90
       50
102
RTVSPost2010PropOp50
 70
     0
102
RTVSPost2010Prop51ColorIndex
 90
      256
102
RTVSPost2010Prop51ColorRGB
 90
-16777216
102
RTVSPost2010PropOp51
 70
     0
102
RTVSPost2010Prop52
140
1.0
102
RTVSPost2010PropOp52
 70
     0
102
RTVSPost2010Prop53
 90
        2
102
RTVSPost2010PropOp53
 70
     0
102
RTVSPost2010Prop54
  1
strokes_ogs.tif
102
RTVSPost2010PropOp54
 70
     0
102
RTVSPost2010Prop55
280
     0
102
RTVSPost2010PropOp55
 70
     0
102
RTVSPost2010Prop56
140
1.0
102
RTVSPost2010PropOp56
 70
     0
102
RTVSPost2010Prop57
140
1.0
102
RTVSPost2010PropOp57
 70
     0
102
RTVSPropertyOp0
 70
     0
102
RTVSPropertyOp1
 70
     0
102
RTVSPropertyOp2
 70
     0
102
RTVSPropertyOp3
 70
     0
102
RTVSPropertyOp4
 70
     0
102
RTVSPropertyOp5
 70
     0
102
RTVSPropertyOp6
 70
     0
102
RTVSPropertyOp7
 70
     0
102
RTVSPropertyOp8
 70
     0
102
RTVSPropertyOp9
 70
     0
102
RTVSPropertyOp10
 70
     0
102
RTVSPropertyOp11
 70
     0
102
RTVSPropertyOp12
 70
     0
102
RTVSPropertyOp13
 70
     0
102
RTVSPropertyOp14
 70
     2
102
RTVSPropertyOp15
 70
     0
102
RTVSPropertyOp16
 70
     0
102
RTVSPropertyOp17
 70
     0
102
RTVSPropertyOp18
 70
     0
102
RTVSPropertyOp19
 70
     0
102
RTVSPropertyOp20
 70
     0
102
RTVSPropertyOp21
 70
     0
102
RTVSPropertyOp22
 70
     0
102
RTVSPropertyOp23
 70
     0
102
RTVSPropertyOp24
 70
     0
102
RTVSPropertyOp25
 70
     0
102
RTVSPropertyOp26
 70
     0
102
RTVSPropertyOp27
 70
     0
102
RTVSPropertyOp28
 70
     0
102
RTVSPropertyOp29
 70
     0
102
RTVSPropertyOp30
 70
     0
102
RTVSPropertyOp31
 70
     0
102
RTVSPropertyOp32
 70
     0
102
RTVSPropertyOp33
 70
     0
102
RTVSPropertyOp34
 70
     0
102
RTVSPropertyOp35
 70
     0
102
RTVSPropertyOp36
 70
     0
102
RTVSPropertyOp37
 70
     0
102
RTVSPropertyOp38
 70
     0
102
RTVSPropertyOp39
 70
     0
102
RTVSPropertyOp40
 70
     0
102
RTVSPropertyOp41
 70
     0
102
RTVSPropertyOp42
 70
     0
102
RTVSPropertyOp43
 70
     0
102
RTVSPropertyOp44
 70
     0
102
RTVSPropertyOp45
 70
     0
102
RTVSPropertyOp46
 70
     0
102
RTVSPropertyOp47
 70
     0
102
RTVSPropertyOp48
 70
     0
102
RTVSPropertyOp49
 70
     0
102
RTVSPropertyOp50
 70
     0
102
RTVSPropertyOp51
 70
     0
102
RTVSPropertyOp52
 70
     0
102
RTVSPropertyOp53
 70
     0
102
RTVSPropertyOp54
 70
     0
102
RTVSPropertyOp55
 70
     0
102
RTVSPropertyOp56
 70
     0
102
RTVSPropertyOp57
 70
     0
102
RTVSPropertyOp58
 70
     0
102
RTVSPropertyOp59
 70
     0
102
RTVSPropertyOp60
 70
     0
102
RTVSPropertyOp61
 70
     0
102
RTVSPropertyOp62
 70
     0
  0
XRECORD
  5
DB
102
{ACAD_REACTORS
330
DA
102
}
330
DA
100
AcDbXrecord
280
     1
102
RTVSPost2010Prop28
280
     0
102
RTVSPost2010PropOp28
 70
     1
102
RTVSPost2010Prop29
280
     1
102
RTVSPost2010PropOp29
 70
     1
102
RTVSPost2010Prop30
280
     1
102
RTVSPost2010PropOp30
 70
     1
102
RTVSPost2010Prop31
280
     0
102
RTVSPost2010PropOp31
 70
     1
102
RTVSPost2010Prop32
280
     0
102
RTVSPost2010PropOp32
 70
     1
102
RTVSPost2010Prop33
280
     0
102
RTVSPost2010PropOp33
 70
     1
102
RTVSPost2010Prop34
280
     0
102
RTVSPost2010PropOp34
 70
     1
102
RTVSPost2010Prop35
280
     0
102
RTVSPost2010PropOp35
 70
     1
102
RTVSPost2010Prop36
280
     0
102
RTVSPost2010PropOp36
 70
     1
102
RTVSPost2010Prop37
 90
       50
102
RTVSPost2010PropOp37
 70
     1
102
RTVSPost2010Prop38
140
0.0
102
RTVSPost2010PropOp38
 70
     1
102
RTVSPost2010Prop39
140
1.0
102
RTVSPost2010PropOp39
 70
     1
102
RTVSPost2010Prop40
 90
        0
102
RTVSPost2010PropOp40
 70
     1
102
RTVSPost2010Prop41ColorIndex
 90
       18
102
RTVSPost2010Prop41ColorRGB
 90
        0
102
RTVSPost2010PropOp41
 70
     1
102
RTVSPost2010Prop42
 90
       50
102
RTVSPost2010PropOp42
 70
     1
102
RTVSPost2010Prop43
 90
        3
102
RTVSPost2010PropOp43
 70
     1
102
RTVSPost2010Prop44ColorIndex
 90
        5
102
RTVSPost2010Prop44ColorRGB
 90
      255
102
RTVSPost2010PropOp44
 70
     1
102
RTVSPost2010Prop45
280
     0
102
RTVSPost2010PropOp45
 70
     1
102
RTVSPost2010Prop46
 90
       50
102
RTVSPost2010PropOp46
 70
     1
102
RTVSPost2010Prop47
 90
       50
102
RTVSPost2010PropOp47
 70
     1
102
RTVSPost2010Prop48
 90
       50
102
RTVSPost2010PropOp48
 70
     1
102
RTVSPost2010Prop49
280
     0
102
RTVSPost2010PropOp49
 70
     1
102
RTVSPost2010Prop50
 90
       50
102
RTVSPost2010PropOp50
 70
     1
102
RTVSPost2010Prop51ColorIndex
 90
      256
102
RTVSPost2010Prop51ColorRGB
 90
-16777216
102
RTVSPost2010PropOp51
 70
     0
102
RTVSPost2010Prop52
140
1.0
102
RTVSPost2010PropOp52
 70
     0
102
RTVSPost2010Prop53
 90
        2
102
RTVSPost2010PropOp53
 70
     1
102
RTVSPost2010Prop54
  1
strokes_ogs.tif
102
RTVSPost2010PropOp54
 70
     1
102
RTVSPost2010Prop55
280
     0
102
RTVSPost2010PropOp55
 70
     1
102
RTVSPost2010Prop56
140
1.0
102
RTVSPost2010PropOp56
 70
     1
102
RTVSPost2010Prop57
140
1.0
102
RTVSPost2010PropOp57
 70
     1
102
RTVSPropertyOp0
 70
     1
102
RTVSPropertyOp1
 70
     1
102
RTVSPropertyOp2
 70
     1
102
RTVSPropertyOp3
 70
     1
102
RTVSPropertyOp4
 70
     1
102
RTVSPropertyOp5
 70
     1
102
RTVSPropertyOp6
 70
     1
102
RTVSPropertyOp7
 70
     1
102
RTVSPropertyOp8
 70
     1
102
RTVSPropertyOp9
 70
     1
102
RTVSPropertyOp10
 70
     1
102
RTVSPropertyOp11
 70
     1
102
RTVSPropertyOp12
 70
     1
102
RTVSPropertyOp13
 70
     1
102
RTVSPropertyOp14
 70
     1
102
RTVSPropertyOp15
 70
     1
102
RTVSPropertyOp16
 70
     1
102
RTVSPropertyOp17
 70
     1
102
RTVSPropertyOp18
 70
     1
102
RTVSPropertyOp19
 70
     1
102
RTVSPropertyOp20
 70
     1
102
RTVSPropertyOp21
 70
     1
102
RTVSPropertyOp22
 70
     1
102
RTVSPropertyOp23
 70
     1
102
RTVSPropertyOp24
 70
     1
102
RTVSPropertyOp25
 70
     1
102
RTVSPropertyOp26
 70
     1
102
RTVSPropertyOp27
 70
     1
102
RTVSPropertyOp28
 70
     1
102
RTVSPropertyOp29
 70
     1
102
RTVSPropertyOp30
 70
     1
102
RTVSPropertyOp31
 70
     1
102
RTVSPropertyOp32
 70
     1
102
RTVSPropertyOp33
 70
     1
102
RTVSPropertyOp34
 70
     1
102
RTVSPropertyOp35
 70
     1
102
RTVSPropertyOp36
 70
     1
102
RTVSPropertyOp37
 70
     1
102
RTVSPropertyOp38
 70
     1
102
RTVSPropertyOp39
 70
     1
102
RTVSPropertyOp40
 70
     1
102
RTVSPropertyOp41
 70
     1
102
RTVSPropertyOp42
 70
     1
102
RTVSPropertyOp43
 70
     1
102
RTVSPropertyOp44
 70
     1
102
RTVSPropertyOp45
 70
     1
102
RTVSPropertyOp46
 70
     1
102
RTVSPropertyOp47
 70
     1
102
RTVSPropertyOp48
 70
     1
102
RTVSPropertyOp49
 70
     1
102
RTVSPropertyOp50
 70
     1
102
RTVSPropertyOp51
 70
     0
102
RTVSPropertyOp52
 70
     0
102
RTVSPropertyOp53
 70
     1
102
RTVSPropertyOp54
 70
     1
102
RTVSPropertyOp55
 70
     1
102
RTVSPropertyOp56
 70
     1
102
RTVSPropertyOp57
 70
     1
102
RTVSPropertyOp58
 70
     1
102
RTVSPropertyOp59
 70
     1
102
RTVSPropertyOp60
 70
     1
102
RTVSPropertyOp61
 70
     1
102
RTVSPropertyOp62
 70
     1
  0
XRECORD
  5
F1
102
{ACAD_REACTORS
330
F0
102
}
330
F0
100
AcDbXrecord
280
     1
102
RTVSPost2010Prop28
280
     0
102
RTVSPost2010PropOp28
 70
     1
102
RTVSPost2010Prop29
280
     1
102
RTVSPost2010PropOp29
 70
     1
102
RTVSPost2010Prop30
280
     1
102
RTVSPost2010PropOp30
 70
     1
102
RTVSPost2010Prop31
280
     0
102
RTVSPost2010PropOp31
 70
     1
102
RTVSPost2010Prop32
280
     0
102
RTVSPost2010PropOp32
 70
     1
102
RTVSPost2010Prop33
280
     0
102
RTVSPost2010PropOp33
 70
     1
102
RTVSPost2010Prop34
280
     0
102
RTVSPost2010PropOp34
 70
     1
102
RTVSPost2010Prop35
280
     0
102
RTVSPost2010PropOp35
 70
     1
102
RTVSPost2010Prop36
280
     0
102
RTVSPost2010PropOp36
 70
     1
102
RTVSPost2010Prop37
 90
       50
102
RTVSPost2010PropOp37
 70
     1
102
RTVSPost2010Prop38
140
0.0
102
RTVSPost2010PropOp38
 70
     1
102
RTVSPost2010Prop39
140
1.0
102
RTVSPost2010PropOp39
 70
     1
102
RTVSPost2010Prop40
 90
        0
102
RTVSPost2010PropOp40
 70
     1
102
RTVSPost2010Prop41ColorIndex
 90
       18
102
RTVSPost2010Prop41ColorRGB
 90
        0
102
RTVSPost2010PropOp41
 70
     1
102
RTVSPost2010Prop42
 90
       50
102
RTVSPost2010PropOp42
 70
     1
102
RTVSPost2010Prop43
 90
        3
102
RTVSPost2010PropOp43
 70
     1
102
RTVSPost2010Prop44ColorIndex
 90
        5
102
RTVSPost2010Prop44ColorRGB
 90
      255
102
RTVSPost2010PropOp44
 70
     1
102
RTVSPost2010Prop45
280
     0
102
RTVSPost2010PropOp45
 70
     1
102
RTVSPost2010Prop46
 90
       50
102
RTVSPost2010PropOp46
 70
     1
102
RTVSPost2010Prop47
 90
       50
102
RTVSPost2010PropOp47
 70
     1
102
RTVSPost2010Prop48
 90
       50
102
RTVSPost2010PropOp48
 70
     1
102
RTVSPost2010Prop49
280
     0
102
RTVSPost2010PropOp49
 70
     1
102
RTVSPost2010Prop50
 90
       50
102
RTVSPost2010PropOp50
 70
     1
102
RTVSPost2010Prop51ColorIndex
 90
      256
102
RTVSPost2010Prop51ColorRGB
 90
-16777216
102
RTVSPost2010PropOp51
 70
     0
102
RTVSPost2010Prop52
140
1.0
102
RTVSPost2010PropOp52
 70
     0
102
RTVSPost2010Prop53
 90
        2
102
RTVSPost2010PropOp53
 70
     1
102
RTVSPost2010Prop54
  1
strokes_ogs.tif
102
RTVSPost2010PropOp54
 70
     1
102
RTVSPost2010Prop55
280
     0
102
RTVSPost2010PropOp55
 70
     1
102
RTVSPost2010Prop56
140
1.0
102
RTVSPost2010PropOp56
 70
     1
102
RTVSPost2010Prop57
140
1.0
102
RTVSPost2010PropOp57
 70
     1
102
RTVSPropertyOp0
 70
     1
102
RTVSPropertyOp1
 70
     1
102
RTVSPropertyOp2
 70
     1
102
RTVSPropertyOp3
 70
     1
102
RTVSPropertyOp4
 70
     1
102
RTVSPropertyOp5
 70
     1
102
RTVSPropertyOp6
 70
     1
102
RTVSPropertyOp7
 70
     1
102
RTVSPropertyOp8
 70
     1
102
RTVSPropertyOp9
 70
     1
102
RTVSPropertyOp10
 70
     1
102
RTVSPropertyOp11
 70
     1
102
RTVSPropertyOp12
 70
     1
102
RTVSPropertyOp13
 70
     1
102
RTVSPropertyOp14
 70
     1
102
RTVSPropertyOp15
 70
     1
102
RTVSPropertyOp16
 70
     1
102
RTVSPropertyOp17
 70
     1
102
RTVSPropertyOp18
 70
     1
102
RTVSPropertyOp19
 70
     1
102
RTVSPropertyOp20
 70
     1
102
RTVSPropertyOp21
 70
     1
102
RTVSPropertyOp22
 70
     1
102
RTVSPropertyOp23
 70
     1
102
RTVSPropertyOp24
 70
     1
102
RTVSPropertyOp25
 70
     1
102
RTVSPropertyOp26
 70
     1
102
RTVSPropertyOp27
 70
     1
102
RTVSPropertyOp28
 70
     1
102
RTVSPropertyOp29
 70
     1
102
RTVSPropertyOp30
 70
     1
102
RTVSPropertyOp31
 70
     1
102
RTVSPropertyOp32
 70
     1
102
RTVSPropertyOp33
 70
     1
102
RTVSPropertyOp34
 70
     1
102
RTVSPropertyOp35
 70
     1
102
RTVSPropertyOp36
 70
     1
102
RTVSPropertyOp37
 70
     1
102
RTVSPropertyOp38
 70
     1
102
RTVSPropertyOp39
 70
     1
102
RTVSPropertyOp40
 70
     1
102
RTVSPropertyOp41
 70
     1
102
RTVSPropertyOp42
 70
     1
102
RTVSPropertyOp43
 70
     1
102
RTVSPropertyOp44
 70
     1
102
RTVSPropertyOp45
 70
     1
102
RTVSPropertyOp46
 70
     1
102
RTVSPropertyOp47
 70
     1
102
RTVSPropertyOp48
 70
     1
102
RTVSPropertyOp49
 70
     1
102
RTVSPropertyOp50
 70
     1
102
RTVSPropertyOp51
 70
     0
102
RTVSPropertyOp52
 70
     0
102
RTVSPropertyOp53
 70
     1
102
RTVSPropertyOp54
 70
     1
102
RTVSPropertyOp55
 70
     1
102
RTVSPropertyOp56
 70
     1
102
RTVSPropertyOp57
 70
     1
102
RTVSPropertyOp58
 70
     1
102
RTVSPropertyOp59
 70
     1
102
RTVSPropertyOp60
 70
     1
102
RTVSPropertyOp61
 70
     1
102
RTVSPropertyOp62
 70
     1
  0
XRECORD
  5
EF
102
{ACAD_REACTORS
330
EE
102
}
330
EE
100
AcDbXrecord
280
     1
102
RTVSPost2010Prop28
280
     0
102
RTVSPost2010PropOp28
 70
     1
102
RTVSPost2010Prop29
280
     1
102
RTVSPost2010PropOp29
 70
     1
102
RTVSPost2010Prop30
280
     1
102
RTVSPost2010PropOp30
 70
     1
102
RTVSPost2010Prop31
280
     0
102
RTVSPost2010PropOp31
 70
     1
102
RTVSPost2010Prop32
280
     0
102
RTVSPost2010PropOp32
 70
     1
102
RTVSPost2010Prop33
280
     0
102
RTVSPost2010PropOp33
 70
     1
102
RTVSPost2010Prop34
280
     0
102
RTVSPost2010PropOp34
 70
     1
102
RTVSPost2010Prop35
280
     0
102
RTVSPost2010PropOp35
 70
     1
102
RTVSPost2010Prop36
280
     0
102
RTVSPost2010PropOp36
 70
     1
102
RTVSPost2010Prop37
 90
       50
102
RTVSPost2010PropOp37
 70
     1
102
RTVSPost2010Prop38
140
0.0
102
RTVSPost2010PropOp38
 70
     1
102
RTVSPost2010Prop39
140
1.0
102
RTVSPost2010PropOp39
 70
     1
102
RTVSPost2010Prop40
 90
        0
102
RTVSPost2010PropOp40
 70
     1
102
RTVSPost2010Prop41ColorIndex
 90
       18
102
RTVSPost2010Prop41ColorRGB
 90
        0
102
RTVSPost2010PropOp41
 70
     1
102
RTVSPost2010Prop42
 90
       50
102
RTVSPost2010PropOp42
 70
     1
102
RTVSPost2010Prop43
 90
        3
102
RTVSPost2010PropOp43
 70
     1
102
RTVSPost2010Prop44ColorIndex
 90
        5
102
RTVSPost2010Prop44ColorRGB
 90
      255
102
RTVSPost2010PropOp44
 70
     1
102
RTVSPost2010Prop45
280
     0
102
RTVSPost2010PropOp45
 70
     1
102
RTVSPost2010Prop46
 90
       50
102
RTVSPost2010PropOp46
 70
     1
102
RTVSPost2010Prop47
 90
       50
102
RTVSPost2010PropOp47
 70
     1
102
RTVSPost2010Prop48
 90
       50
102
RTVSPost2010PropOp48
 70
     1
102
RTVSPost2010Prop49
280
     0
102
RTVSPost2010PropOp49
 70
     1
102
RTVSPost2010Prop50
 90
       50
102
RTVSPost2010PropOp50
 70
     1
102
RTVSPost2010Prop51ColorIndex
 90
      256
102
RTVSPost2010Prop51ColorRGB
 90
-16777216
102
RTVSPost2010PropOp51
 70
     0
102
RTVSPost2010Prop52
140
1.0
102
RTVSPost2010PropOp52
 70
     0
102
RTVSPost2010Prop53
 90
        2
102
RTVSPost2010PropOp53
 70
     1
102
RTVSPost2010Prop54
  1
strokes_ogs.tif
102
RTVSPost2010PropOp54
 70
     1
102
RTVSPost2010Prop55
280
     0
102
RTVSPost2010PropOp55
 70
     1
102
RTVSPost2010Prop56
140
1.0
102
RTVSPost2010PropOp56
 70
     1
102
RTVSPost2010Prop57
140
1.0
102
RTVSPost2010PropOp57
 70
     1
102
RTVSPropertyOp0
 70
     1
102
RTVSPropertyOp1
 70
     1
102
RTVSPropertyOp2
 70
     1
102
RTVSPropertyOp3
 70
     1
102
RTVSPropertyOp4
 70
     1
102
RTVSPropertyOp5
 70
     1
102
RTVSPropertyOp6
 70
     1
102
RTVSPropertyOp7
 70
     1
102
RTVSPropertyOp8
 70
     1
102
RTVSPropertyOp9
 70
     1
102
RTVSPropertyOp10
 70
     1
102
RTVSPropertyOp11
 70
     1
102
RTVSPropertyOp12
 70
     1
102
RTVSPropertyOp13
 70
     1
102
RTVSPropertyOp14
 70
     1
102
RTVSPropertyOp15
 70
     1
102
RTVSPropertyOp16
 70
     1
102
RTVSPropertyOp17
 70
     1
102
RTVSPropertyOp18
 70
     1
102
RTVSPropertyOp19
 70
     1
102
RTVSPropertyOp20
 70
     1
102
RTVSPropertyOp21
 70
     1
102
RTVSPropertyOp22
 70
     1
102
RTVSPropertyOp23
 70
     1
102
RTVSPropertyOp24
 70
     1
102
RTVSPropertyOp25
 70
     1
102
RTVSPropertyOp26
 70
     1
102
RTVSPropertyOp27
 70
     1
102
RTVSPropertyOp28
 70
     1
102
RTVSPropertyOp29
 70
     1
102
RTVSPropertyOp30
 70
     1
102
RTVSPropertyOp31
 70
     1
102
RTVSPropertyOp32
 70
     1
102
RTVSPropertyOp33
 70
     1
102
RTVSPropertyOp34
 70
     1
102
RTVSPropertyOp35
 70
     1
102
RTVSPropertyOp36
 70
     1
102
RTVSPropertyOp37
 70
     1
102
RTVSPropertyOp38
 70
     1
102
RTVSPropertyOp39
 70
     1
102
RTVSPropertyOp40
 70
     1
102
RTVSPropertyOp41
 70
     1
102
RTVSPropertyOp42
 70
     1
102
RTVSPropertyOp43
 70
     1
102
RTVSPropertyOp44
 70
     1
102
RTVSPropertyOp45
 70
     1
102
RTVSPropertyOp46
 70
     1
102
RTVSPropertyOp47
 70
     1
102
RTVSPropertyOp48
 70
     1
102
RTVSPropertyOp49
 70
     1
102
RTVSPropertyOp50
 70
     1
102
RTVSPropertyOp51
 70
     0
102
RTVSPropertyOp52
 70
     0
102
RTVSPropertyOp53
 70
     1
102
RTVSPropertyOp54
 70
     1
102
RTVSPropertyOp55
 70
     1
102
RTVSPropertyOp56
 70
     1
102
RTVSPropertyOp57
 70
     1
102
RTVSPropertyOp58
 70
     1
102
RTVSPropertyOp59
 70
     1
102
RTVSPropertyOp60
 70
     1
102
RTVSPropertyOp61
 70
     1
102
RTVSPropertyOp62
 70
     1
  0
XRECORD
  5
E9
102
{ACAD_REACTORS
330
E8
102
}
330
E8
100
AcDbXrecord
280
     1
102
RTVSPost2010Prop28
280
     0
102
RTVSPost2010PropOp28
 70
     1
102
RTVSPost2010Prop29
280
     1
102
RTVSPost2010PropOp29
 70
     1
102
RTVSPost2010Prop30
280
     1
102
RTVSPost2010PropOp30
 70
     1
102
RTVSPost2010Prop31
280
     0
102
RTVSPost2010PropOp31
 70
     1
102
RTVSPost2010Prop32
280
     0
102
RTVSPost2010PropOp32
 70
     1
102
RTVSPost2010Prop33
280
     0
102
RTVSPost2010PropOp33
 70
     1
102
RTVSPost2010Prop34
280
     0
102
RTVSPost2010PropOp34
 70
     1
102
RTVSPost2010Prop35
280
     0
102
RTVSPost2010PropOp35
 70
     1
102
RTVSPost2010Prop36
280
     0
102
RTVSPost2010PropOp36
 70
     1
102
RTVSPost2010Prop37
 90
       50
102
RTVSPost2010PropOp37
 70
     1
102
RTVSPost2010Prop38
140
0.0
102
RTVSPost2010PropOp38
 70
     1
102
RTVSPost2010Prop39
140
1.0
102
RTVSPost2010PropOp39
 70
     1
102
RTVSPost2010Prop40
 90
        0
102
RTVSPost2010PropOp40
 70
     1
102
RTVSPost2010Prop41ColorIndex
 90
       18
102
RTVSPost2010Prop41ColorRGB
 90
        0
102
RTVSPost2010PropOp41
 70
     1
102
RTVSPost2010Prop42
 90
       50
102
RTVSPost2010PropOp42
 70
     1
102
RTVSPost2010Prop43
 90
        3
102
RTVSPost2010PropOp43
 70
     1
102
RTVSPost2010Prop44ColorIndex
 90
        5
102
RTVSPost2010Prop44ColorRGB
 90
      255
102
RTVSPost2010PropOp44
 70
     1
102
RTVSPost2010Prop45
280
     0
102
RTVSPost2010PropOp45
 70
     1
102
RTVSPost2010Prop46
 90
       50
102
RTVSPost2010PropOp46
 70
     1
102
RTVSPost2010Prop47
 90
       50
102
RTVSPost2010PropOp47
 70
     1
102
RTVSPost2010Prop48
 90
       50
102
RTVSPost2010PropOp48
 70
     1
102
RTVSPost2010Prop49
280
     0
102
RTVSPost2010PropOp49
 70
     1
102
RTVSPost2010Prop50
 90
       50
102
RTVSPost2010PropOp50
 70
     1
102
RTVSPost2010Prop51ColorIndex
 90
      256
102
RTVSPost2010Prop51ColorRGB
 90
-16777216
102
RTVSPost2010PropOp51
 70
     0
102
RTVSPost2010Prop52
140
1.0
102
RTVSPost2010PropOp52
 70
     0
102
RTVSPost2010Prop53
 90
        2
102
RTVSPost2010PropOp53
 70
     1
102
RTVSPost2010Prop54
  1
strokes_ogs.tif
102
RTVSPost2010PropOp54
 70
     1
102
RTVSPost2010Prop55
280
     0
102
RTVSPost2010PropOp55
 70
     1
102
RTVSPost2010Prop56
140
1.0
102
RTVSPost2010PropOp56
 70
     1
102
RTVSPost2010Prop57
140
1.0
102
RTVSPost2010PropOp57
 70
     1
102
RTVSPropertyOp0
 70
     1
102
RTVSPropertyOp1
 70
     1
102
RTVSPropertyOp2
 70
     1
102
RTVSPropertyOp3
 70
     1
102
RTVSPropertyOp4
 70
     1
102
RTVSPropertyOp5
 70
     1
102
RTVSPropertyOp6
 70
     1
102
RTVSPropertyOp7
 70
     1
102
RTVSPropertyOp8
 70
     1
102
RTVSPropertyOp9
 70
     1
102
RTVSPropertyOp10
 70
     1
102
RTVSPropertyOp11
 70
     1
102
RTVSPropertyOp12
 70
     1
102
RTVSPropertyOp13
 70
     1
102
RTVSPropertyOp14
 70
     1
102
RTVSPropertyOp15
 70
     1
102
RTVSPropertyOp16
 70
     1
102
RTVSPropertyOp17
 70
     1
102
RTVSPropertyOp18
 70
     1
102
RTVSPropertyOp19
 70
     1
102
RTVSPropertyOp20
 70
     1
102
RTVSPropertyOp21
 70
     1
102
RTVSPropertyOp22
 70
     1
102
RTVSPropertyOp23
 70
     1
102
RTVSPropertyOp24
 70
     1
102
RTVSPropertyOp25
 70
     1
102
RTVSPropertyOp26
 70
     1
102
RTVSPropertyOp27
 70
     1
102
RTVSPropertyOp28
 70
     1
102
RTVSPropertyOp29
 70
     1
102
RTVSPropertyOp30
 70
     1
102
RTVSPropertyOp31
 70
     1
102
RTVSPropertyOp32
 70
     1
102
RTVSPropertyOp33
 70
     1
102
RTVSPropertyOp34
 70
     1
102
RTVSPropertyOp35
 70
     1
102
RTVSPropertyOp36
 70
     1
102
RTVSPropertyOp37
 70
     1
102
RTVSPropertyOp38
 70
     1
102
RTVSPropertyOp39
 70
     1
102
RTVSPropertyOp40
 70
     1
102
RTVSPropertyOp41
 70
     1
102
RTVSPropertyOp42
 70
     1
102
RTVSPropertyOp43
 70
     1
102
RTVSPropertyOp44
 70
     1
102
RTVSPropertyOp45
 70
     1
102
RTVSPropertyOp46
 70
     1
102
RTVSPropertyOp47
 70
     1
102
RTVSPropertyOp48
 70
     1
102
RTVSPropertyOp49
 70
     1
102
RTVSPropertyOp50
 70
     1
102
RTVSPropertyOp51
 70
     0
102
RTVSPropertyOp52
 70
     0
102
RTVSPropertyOp53
 70
     1
102
RTVSPropertyOp54
 70
     1
102
RTVSPropertyOp55
 70
     1
102
RTVSPropertyOp56
 70
     1
102
RTVSPropertyOp57
 70
     1
102
RTVSPropertyOp58
 70
     1
102
RTVSPropertyOp59
 70
     1
102
RTVSPropertyOp60
 70
     1
102
RTVSPropertyOp61
 70
     1
102
RTVSPropertyOp62
 70
     1
  0
XRECORD
  5
EB
102
{ACAD_REACTORS
330
EA
102
}
330
EA
100
AcDbXrecord
280
     1
102
RTVSPost2010Prop28
280
     0
102
RTVSPost2010PropOp28
 70
     1
102
RTVSPost2010Prop29
280
     1
102
RTVSPost2010PropOp29
 70
     1
102
RTVSPost2010Prop30
280
     1
102
RTVSPost2010PropOp30
 70
     1
102
RTVSPost2010Prop31
280
     0
102
RTVSPost2010PropOp31
 70
     1
102
RTVSPost2010Prop32
280
     0
102
RTVSPost2010PropOp32
 70
     1
102
RTVSPost2010Prop33
280
     0
102
RTVSPost2010PropOp33
 70
     1
102
RTVSPost2010Prop34
280
     0
102
RTVSPost2010PropOp34
 70
     1
102
RTVSPost2010Prop35
280
     0
102
RTVSPost2010PropOp35
 70
     1
102
RTVSPost2010Prop36
280
     0
102
RTVSPost2010PropOp36
 70
     1
102
RTVSPost2010Prop37
 90
       50
102
RTVSPost2010PropOp37
 70
     1
102
RTVSPost2010Prop38
140
0.0
102
RTVSPost2010PropOp38
 70
     1
102
RTVSPost2010Prop39
140
1.0
102
RTVSPost2010PropOp39
 70
     1
102
RTVSPost2010Prop40
 90
        0
102
RTVSPost2010PropOp40
 70
     1
102
RTVSPost2010Prop41ColorIndex
 90
       18
102
RTVSPost2010Prop41ColorRGB
 90
        0
102
RTVSPost2010PropOp41
 70
     1
102
RTVSPost2010Prop42
 90
       50
102
RTVSPost2010PropOp42
 70
     1
102
RTVSPost2010Prop43
 90
        3
102
RTVSPost2010PropOp43
 70
     1
102
RTVSPost2010Prop44ColorIndex
 90
        5
102
RTVSPost2010Prop44ColorRGB
 90
      255
102
RTVSPost2010PropOp44
 70
     1
102
RTVSPost2010Prop45
280
     0
102
RTVSPost2010PropOp45
 70
     1
102
RTVSPost2010Prop46
 90
       50
102
RTVSPost2010PropOp46
 70
     1
102
RTVSPost2010Prop47
 90
       50
102
RTVSPost2010PropOp47
 70
     1
102
RTVSPost2010Prop48
 90
       50
102
RTVSPost2010PropOp48
 70
     1
102
RTVSPost2010Prop49
280
     0
102
RTVSPost2010PropOp49
 70
     1
102
RTVSPost2010Prop50
 90
       50
102
RTVSPost2010PropOp50
 70
     1
102
RTVSPost2010Prop51ColorIndex
 90
      256
102
RTVSPost2010Prop51ColorRGB
 90
-16777216
102
RTVSPost2010PropOp51
 70
     0
102
RTVSPost2010Prop52
140
1.0
102
RTVSPost2010PropOp52
 70
     0
102
RTVSPost2010Prop53
 90
        2
102
RTVSPost2010PropOp53
 70
     1
102
RTVSPost2010Prop54
  1
strokes_ogs.tif
102
RTVSPost2010PropOp54
 70
     1
102
RTVSPost2010Prop55
280
     0
102
RTVSPost2010PropOp55
 70
     1
102
RTVSPost2010Prop56
140
1.0
102
RTVSPost2010PropOp56
 70
     1
102
RTVSPost2010Prop57
140
1.0
102
RTVSPost2010PropOp57
 70
     1
102
RTVSPropertyOp0
 70
     1
102
RTVSPropertyOp1
 70
     1
102
RTVSPropertyOp2
 70
     1
102
RTVSPropertyOp3
 70
     1
102
RTVSPropertyOp4
 70
     1
102
RTVSPropertyOp5
 70
     1
102
RTVSPropertyOp6
 70
     1
102
RTVSPropertyOp7
 70
     1
102
RTVSPropertyOp8
 70
     1
102
RTVSPropertyOp9
 70
     1
102
RTVSPropertyOp10
 70
     1
102
RTVSPropertyOp11
 70
     1
102
RTVSPropertyOp12
 70
     1
102
RTVSPropertyOp13
 70
     1
102
RTVSPropertyOp14
 70
     1
102
RTVSPropertyOp15
 70
     1
102
RTVSPropertyOp16
 70
     1
102
RTVSPropertyOp17
 70
     1
102
RTVSPropertyOp18
 70
     1
102
RTVSPropertyOp19
 70
     1
102
RTVSPropertyOp20
 70
     1
102
RTVSPropertyOp21
 70
     1
102
RTVSPropertyOp22
 70
     1
102
RTVSPropertyOp23
 70
     1
102
RTVSPropertyOp24
 70
     1
102
RTVSPropertyOp25
 70
     1
102
RTVSPropertyOp26
 70
     1
102
RTVSPropertyOp27
 70
     1
102
RTVSPropertyOp28
 70
     1
102
RTVSPropertyOp29
 70
     1
102
RTVSPropertyOp30
 70
     1
102
RTVSPropertyOp31
 70
     1
102
RTVSPropertyOp32
 70
     1
102
RTVSPropertyOp33
 70
     1
102
RTVSPropertyOp34
 70
     1
102
RTVSPropertyOp35
 70
     1
102
RTVSPropertyOp36
 70
     1
102
RTVSPropertyOp37
 70
     1
102
RTVSPropertyOp38
 70
     1
102
RTVSPropertyOp39
 70
     1
102
RTVSPropertyOp40
 70
     1
102
RTVSPropertyOp41
 70
     1
102
RTVSPropertyOp42
 70
     1
102
RTVSPropertyOp43
 70
     1
102
RTVSPropertyOp44
 70
     1
102
RTVSPropertyOp45
 70
     1
102
RTVSPropertyOp46
 70
     1
102
RTVSPropertyOp47
 70
     1
102
RTVSPropertyOp48
 70
     1
102
RTVSPropertyOp49
 70
     1
102
RTVSPropertyOp50
 70
     1
102
RTVSPropertyOp51
 70
     0
102
RTVSPropertyOp52
 70
     0
102
RTVSPropertyOp53
 70
     1
102
RTVSPropertyOp54
 70
     1
102
RTVSPropertyOp55
 70
     1
102
RTVSPropertyOp56
 70
     1
102
RTVSPropertyOp57
 70
     1
102
RTVSPropertyOp58
 70
     1
102
RTVSPropertyOp59
 70
     1
102
RTVSPropertyOp60
 70
     1
102
RTVSPropertyOp61
 70
     1
102
RTVSPropertyOp62
 70
     1
  0
XRECORD
  5
E1
102
{ACAD_REACTORS
330
E0
102
}
330
E0
100
AcDbXrecord
280
     1
102
RTVSPost2010Prop28
280
     0
102
RTVSPost2010PropOp28
 70
     1
102
RTVSPost2010Prop29
280
     1
102
RTVSPost2010PropOp29
 70
     1
102
RTVSPost2010Prop30
280
     1
102
RTVSPost2010PropOp30
 70
     1
102
RTVSPost2010Prop31
280
     0
102
RTVSPost2010PropOp31
 70
     1
102
RTVSPost2010Prop32
280
     0
102
RTVSPost2010PropOp32
 70
     1
102
RTVSPost2010Prop33
280
     0
102
RTVSPost2010PropOp33
 70
     1
102
RTVSPost2010Prop34
280
     0
102
RTVSPost2010PropOp34
 70
     1
102
RTVSPost2010Prop35
280
     0
102
RTVSPost2010PropOp35
 70
     1
102
RTVSPost2010Prop36
280
     0
102
RTVSPost2010PropOp36
 70
     1
102
RTVSPost2010Prop37
 90
       50
102
RTVSPost2010PropOp37
 70
     1
102
RTVSPost2010Prop38
140
0.0
102
RTVSPost2010PropOp38
 70
     1
102
RTVSPost2010Prop39
140
1.0
102
RTVSPost2010PropOp39
 70
     1
102
RTVSPost2010Prop40
 90
        0
102
RTVSPost2010PropOp40
 70
     1
102
RTVSPost2010Prop41ColorIndex
 90
       18
102
RTVSPost2010Prop41ColorRGB
 90
        0
102
RTVSPost2010PropOp41
 70
     1
102
RTVSPost2010Prop42
 90
       50
102
RTVSPost2010PropOp42
 70
     1
102
RTVSPost2010Prop43
 90
        3
102
RTVSPost2010PropOp43
 70
     1
102
RTVSPost2010Prop44ColorIndex
 90
        5
102
RTVSPost2010Prop44ColorRGB
 90
      255
102
RTVSPost2010PropOp44
 70
     1
102
RTVSPost2010Prop45
280
     0
102
RTVSPost2010PropOp45
 70
     1
102
RTVSPost2010Prop46
 90
       50
102
RTVSPost2010PropOp46
 70
     1
102
RTVSPost2010Prop47
 90
       50
102
RTVSPost2010PropOp47
 70
     1
102
RTVSPost2010Prop48
 90
       50
102
RTVSPost2010PropOp48
 70
     1
102
RTVSPost2010Prop49
280
     0
102
RTVSPost2010PropOp49
 70
     1
102
RTVSPost2010Prop50
 90
       50
102
RTVSPost2010PropOp50
 70
     1
102
RTVSPost2010Prop51ColorIndex
 90
      256
102
RTVSPost2010Prop51ColorRGB
 90
-16777216
102
RTVSPost2010PropOp51
 70
     0
102
RTVSPost2010Prop52
140
1.0
102
RTVSPost2010PropOp52
 70
     0
102
RTVSPost2010Prop53
 90
        2
102
RTVSPost2010PropOp53
 70
     1
102
RTVSPost2010Prop54
  1
strokes_ogs.tif
102
RTVSPost2010PropOp54
 70
     1
102
RTVSPost2010Prop55
280
     0
102
RTVSPost2010PropOp55
 70
     1
102
RTVSPost2010Prop56
140
1.0
102
RTVSPost2010PropOp56
 70
     1
102
RTVSPost2010Prop57
140
1.0
102
RTVSPost2010PropOp57
 70
     1
102
RTVSPropertyOp0
 70
     1
102
RTVSPropertyOp1
 70
     1
102
RTVSPropertyOp2
 70
     1
102
RTVSPropertyOp3
 70
     1
102
RTVSPropertyOp4
 70
     1
102
RTVSPropertyOp5
 70
     1
102
RTVSPropertyOp6
 70
     1
102
RTVSPropertyOp7
 70
     1
102
RTVSPropertyOp8
 70
     1
102
RTVSPropertyOp9
 70
     1
102
RTVSPropertyOp10
 70
     1
102
RTVSPropertyOp11
 70
     1
102
RTVSPropertyOp12
 70
     1
102
RTVSPropertyOp13
 70
     1
102
RTVSPropertyOp14
 70
     1
102
RTVSPropertyOp15
 70
     1
102
RTVSPropertyOp16
 70
     1
102
RTVSPropertyOp17
 70
     1
102
RTVSPropertyOp18
 70
     1
102
RTVSPropertyOp19
 70
     1
102
RTVSPropertyOp20
 70
     1
102
RTVSPropertyOp21
 70
     1
102
RTVSPropertyOp22
 70
     1
102
RTVSPropertyOp23
 70
     1
102
RTVSPropertyOp24
 70
     1
102
RTVSPropertyOp25
 70
     1
102
RTVSPropertyOp26
 70
     1
102
RTVSPropertyOp27
 70
     1
102
RTVSPropertyOp28
 70
     1
102
RTVSPropertyOp29
 70
     1
102
RTVSPropertyOp30
 70
     1
102
RTVSPropertyOp31
 70
     1
102
RTVSPropertyOp32
 70
     1
102
RTVSPropertyOp33
 70
     1
102
RTVSPropertyOp34
 70
     1
102
RTVSPropertyOp35
 70
     1
102
RTVSPropertyOp36
 70
     1
102
RTVSPropertyOp37
 70
     1
102
RTVSPropertyOp38
 70
     1
102
RTVSPropertyOp39
 70
     1
102
RTVSPropertyOp40
 70
     1
102
RTVSPropertyOp41
 70
     1
102
RTVSPropertyOp42
 70
     1
102
RTVSPropertyOp43
 70
     1
102
RTVSPropertyOp44
 70
     1
102
RTVSPropertyOp45
 70
     1
102
RTVSPropertyOp46
 70
     1
102
RTVSPropertyOp47
 70
     1
102
RTVSPropertyOp48
 70
     1
102
RTVSPropertyOp49
 70
     1
102
RTVSPropertyOp50
 70
     1
102
RTVSPropertyOp51
 70
     0
102
RTVSPropertyOp52
 70
     0
102
RTVSPropertyOp53
 70
     1
102
RTVSPropertyOp54
 70
     1
102
RTVSPropertyOp55
 70
     1
102
RTVSPropertyOp56
 70
     1
102
RTVSPropertyOp57
 70
     1
102
RTVSPropertyOp58
 70
     1
102
RTVSPropertyOp59
 70
     1
102
RTVSPropertyOp60
 70
     1
102
RTVSPropertyOp61
 70
     1
102
RTVSPropertyOp62
 70
     1
  0
XRECORD
  5
D5
102
{ACAD_REACTORS
330
D4
102
}
330
D4
100
AcDbXrecord
280
     1
102
RTVSPost2010Prop28
280
     0
102
RTVSPost2010PropOp28
 70
     1
102
RTVSPost2010Prop29
280
     1
102
RTVSPost2010PropOp29
 70
     1
102
RTVSPost2010Prop30
280
     1
102
RTVSPost2010PropOp30
 70
     1
102
RTVSPost2010Prop31
280
     0
102
RTVSPost2010PropOp31
 70
     1
102
RTVSPost2010Prop32
280
     0
102
RTVSPost2010PropOp32
 70
     1
102
RTVSPost2010Prop33
280
     0
102
RTVSPost2010PropOp33
 70
     1
102
RTVSPost2010Prop34
280
     0
102
RTVSPost2010PropOp34
 70
     1
102
RTVSPost2010Prop35
280
     0
102
RTVSPost2010PropOp35
 70
     1
102
RTVSPost2010Prop36
280
     0
102
RTVSPost2010PropOp36
 70
     1
102
RTVSPost2010Prop37
 90
       50
102
RTVSPost2010PropOp37
 70
     1
102
RTVSPost2010Prop38
140
0.0
102
RTVSPost2010PropOp38
 70
     1
102
RTVSPost2010Prop39
140
1.0
102
RTVSPost2010PropOp39
 70
     1
102
RTVSPost2010Prop40
 90
        0
102
RTVSPost2010PropOp40
 70
     1
102
RTVSPost2010Prop41ColorIndex
 90
       18
102
RTVSPost2010Prop41ColorRGB
 90
        0
102
RTVSPost2010PropOp41
 70
     1
102
RTVSPost2010Prop42
 90
       50
102
RTVSPost2010PropOp42
 70
     1
102
RTVSPost2010Prop43
 90
        3
102
RTVSPost2010PropOp43
 70
     1
102
RTVSPost2010Prop44ColorIndex
 90
        5
102
RTVSPost2010Prop44ColorRGB
 90
      255
102
RTVSPost2010PropOp44
 70
     1
102
RTVSPost2010Prop45
280
     0
102
RTVSPost2010PropOp45
 70
     1
102
RTVSPost2010Prop46
 90
       50
102
RTVSPost2010PropOp46
 70
     1
102
RTVSPost2010Prop47
 90
       50
102
RTVSPost2010PropOp47
 70
     1
102
RTVSPost2010Prop48
 90
       50
102
RTVSPost2010PropOp48
 70
     1
102
RTVSPost2010Prop49
280
     0
102
RTVSPost2010PropOp49
 70
     1
102
RTVSPost2010Prop50
 90
       50
102
RTVSPost2010PropOp50
 70
     1
102
RTVSPost2010Prop51ColorIndex
 90
      256
102
RTVSPost2010Prop51ColorRGB
 90
-16777216
102
RTVSPost2010PropOp51
 70
     0
102
RTVSPost2010Prop52
140
1.0
102
RTVSPost2010PropOp52
 70
     0
102
RTVSPost2010Prop53
 90
        2
102
RTVSPost2010PropOp53
 70
     1
102
RTVSPost2010Prop54
  1
strokes_ogs.tif
102
RTVSPost2010PropOp54
 70
     1
102
RTVSPost2010Prop55
280
     0
102
RTVSPost2010PropOp55
 70
     1
102
RTVSPost2010Prop56
140
1.0
102
RTVSPost2010PropOp56
 70
     1
102
RTVSPost2010Prop57
140
1.0
102
RTVSPost2010PropOp57
 70
     1
102
RTVSPropertyOp0
 70
     1
102
RTVSPropertyOp1
 70
     1
102
RTVSPropertyOp2
 70
     1
102
RTVSPropertyOp3
 70
     1
102
RTVSPropertyOp4
 70
     1
102
RTVSPropertyOp5
 70
     1
102
RTVSPropertyOp6
 70
     1
102
RTVSPropertyOp7
 70
     1
102
RTVSPropertyOp8
 70
     1
102
RTVSPropertyOp9
 70
     1
102
RTVSPropertyOp10
 70
     1
102
RTVSPropertyOp11
 70
     1
102
RTVSPropertyOp12
 70
     1
102
RTVSPropertyOp13
 70
     1
102
RTVSPropertyOp14
 70
     1
102
RTVSPropertyOp15
 70
     1
102
RTVSPropertyOp16
 70
     1
102
RTVSPropertyOp17
 70
     1
102
RTVSPropertyOp18
 70
     1
102
RTVSPropertyOp19
 70
     1
102
RTVSPropertyOp20
 70
     1
102
RTVSPropertyOp21
 70
     1
102
RTVSPropertyOp22
 70
     1
102
RTVSPropertyOp23
 70
     1
102
RTVSPropertyOp24
 70
     1
102
RTVSPropertyOp25
 70
     1
102
RTVSPropertyOp26
 70
     1
102
RTVSPropertyOp27
 70
     1
102
RTVSPropertyOp28
 70
     1
102
RTVSPropertyOp29
 70
     1
102
RTVSPropertyOp30
 70
     1
102
RTVSPropertyOp31
 70
     1
102
RTVSPropertyOp32
 70
     1
102
RTVSPropertyOp33
 70
     1
102
RTVSPropertyOp34
 70
     1
102
RTVSPropertyOp35
 70
     1
102
RTVSPropertyOp36
 70
     1
102
RTVSPropertyOp37
 70
     1
102
RTVSPropertyOp38
 70
     1
102
RTVSPropertyOp39
 70
     1
102
RTVSPropertyOp40
 70
     1
102
RTVSPropertyOp41
 70
     1
102
RTVSPropertyOp42
 70
     1
102
RTVSPropertyOp43
 70
     1
102
RTVSPropertyOp44
 70
     1
102
RTVSPropertyOp45
 70
     1
102
RTVSPropertyOp46
 70
     1
102
RTVSPropertyOp47
 70
     1
102
RTVSPropertyOp48
 70
     1
102
RTVSPropertyOp49
 70
     1
102
RTVSPropertyOp50
 70
     1
102
RTVSPropertyOp51
 70
     0
102
RTVSPropertyOp52
 70
     0
102
RTVSPropertyOp53
 70
     1
102
RTVSPropertyOp54
 70
     1
102
RTVSPropertyOp55
 70
     1
102
RTVSPropertyOp56
 70
     1
102
RTVSPropertyOp57
 70
     1
102
RTVSPropertyOp58
 70
     1
102
RTVSPropertyOp59
 70
     1
102
RTVSPropertyOp60
 70
     1
102
RTVSPropertyOp61
 70
     1
102
RTVSPropertyOp62
 70
     1
  0
XRECORD
  5
ED
102
{ACAD_REACTORS
330
EC
102
}
330
EC
100
AcDbXrecord
280
     1
102
RTVSPost2010Prop28
280
     0
102
RTVSPost2010PropOp28
 70
     1
102
RTVSPost2010Prop29
280
     1
102
RTVSPost2010PropOp29
 70
     1
102
RTVSPost2010Prop30
280
     1
102
RTVSPost2010PropOp30
 70
     1
102
RTVSPost2010Prop31
280
     0
102
RTVSPost2010PropOp31
 70
     1
102
RTVSPost2010Prop32
280
     0
102
RTVSPost2010PropOp32
 70
     1
102
RTVSPost2010Prop33
280
     0
102
RTVSPost2010PropOp33
 70
     1
102
RTVSPost2010Prop34
280
     0
102
RTVSPost2010PropOp34
 70
     1
102
RTVSPost2010Prop35
280
     0
102
RTVSPost2010PropOp35
 70
     1
102
RTVSPost2010Prop36
280
     0
102
RTVSPost2010PropOp36
 70
     1
102
RTVSPost2010Prop37
 90
       50
102
RTVSPost2010PropOp37
 70
     1
102
RTVSPost2010Prop38
140
0.0
102
RTVSPost2010PropOp38
 70
     1
102
RTVSPost2010Prop39
140
1.0
102
RTVSPost2010PropOp39
 70
     1
102
RTVSPost2010Prop40
 90
        0
102
RTVSPost2010PropOp40
 70
     1
102
RTVSPost2010Prop41ColorIndex
 90
       18
102
RTVSPost2010Prop41ColorRGB
 90
        0
102
RTVSPost2010PropOp41
 70
     1
102
RTVSPost2010Prop42
 90
       50
102
RTVSPost2010PropOp42
 70
     1
102
RTVSPost2010Prop43
 90
        3
102
RTVSPost2010PropOp43
 70
     1
102
RTVSPost2010Prop44ColorIndex
 90
        5
102
RTVSPost2010Prop44ColorRGB
 90
      255
102
RTVSPost2010PropOp44
 70
     1
102
RTVSPost2010Prop45
280
     0
102
RTVSPost2010PropOp45
 70
     1
102
RTVSPost2010Prop46
 90
       50
102
RTVSPost2010PropOp46
 70
     1
102
RTVSPost2010Prop47
 90
       50
102
RTVSPost2010PropOp47
 70
     1
102
RTVSPost2010Prop48
 90
       50
102
RTVSPost2010PropOp48
 70
     1
102
RTVSPost2010Prop49
280
     0
102
RTVSPost2010PropOp49
 70
     1
102
RTVSPost2010Prop50
 90
       50
102
RTVSPost2010PropOp50
 70
     1
102
RTVSPost2010Prop51ColorIndex
 90
      256
102
RTVSPost2010Prop51ColorRGB
 90
-16777216
102
RTVSPost2010PropOp51
 70
     0
102
RTVSPost2010Prop52
140
1.0
102
RTVSPost2010PropOp52
 70
     0
102
RTVSPost2010Prop53
 90
        2
102
RTVSPost2010PropOp53
 70
     1
102
RTVSPost2010Prop54
  1
strokes_ogs.tif
102
RTVSPost2010PropOp54
 70
     1
102
RTVSPost2010Prop55
280
     0
102
RTVSPost2010PropOp55
 70
     1
102
RTVSPost2010Prop56
140
1.0
102
RTVSPost2010PropOp56
 70
     1
102
RTVSPost2010Prop57
140
1.0
102
RTVSPost2010PropOp57
 70
     1
102
RTVSPropertyOp0
 70
     1
102
RTVSPropertyOp1
 70
     1
102
RTVSPropertyOp2
 70
     1
102
RTVSPropertyOp3
 70
     1
102
RTVSPropertyOp4
 70
     1
102
RTVSPropertyOp5
 70
     1
102
RTVSPropertyOp6
 70
     1
102
RTVSPropertyOp7
 70
     1
102
RTVSPropertyOp8
 70
     1
102
RTVSPropertyOp9
 70
     1
102
RTVSPropertyOp10
 70
     1
102
RTVSPropertyOp11
 70
     1
102
RTVSPropertyOp12
 70
     1
102
RTVSPropertyOp13
 70
     1
102
RTVSPropertyOp14
 70
     1
102
RTVSPropertyOp15
 70
     1
102
RTVSPropertyOp16
 70
     1
102
RTVSPropertyOp17
 70
     1
102
RTVSPropertyOp18
 70
     1
102
RTVSPropertyOp19
 70
     1
102
RTVSPropertyOp20
 70
     1
102
RTVSPropertyOp21
 70
     1
102
RTVSPropertyOp22
 70
     1
102
RTVSPropertyOp23
 70
     1
102
RTVSPropertyOp24
 70
     1
102
RTVSPropertyOp25
 70
     1
102
RTVSPropertyOp26
 70
     1
102
RTVSPropertyOp27
 70
     1
102
RTVSPropertyOp28
 70
     1
102
RTVSPropertyOp29
 70
     1
102
RTVSPropertyOp30
 70
     1
102
RTVSPropertyOp31
 70
     1
102
RTVSPropertyOp32
 70
     1
102
RTVSPropertyOp33
 70
     1
102
RTVSPropertyOp34
 70
     1
102
RTVSPropertyOp35
 70
     1
102
RTVSPropertyOp36
 70
     1
102
RTVSPropertyOp37
 70
     1
102
RTVSPropertyOp38
 70
     1
102
RTVSPropertyOp39
 70
     1
102
RTVSPropertyOp40
 70
     1
102
RTVSPropertyOp41
 70
     1
102
RTVSPropertyOp42
 70
     1
102
RTVSPropertyOp43
 70
     1
102
RTVSPropertyOp44
 70
     1
102
RTVSPropertyOp45
 70
     1
102
RTVSPropertyOp46
 70
     1
102
RTVSPropertyOp47
 70
     1
102
RTVSPropertyOp48
 70
     1
102
RTVSPropertyOp49
 70
     1
102
RTVSPropertyOp50
 70
     1
102
RTVSPropertyOp51
 70
     0
102
RTVSPropertyOp52
 70
     0
102
RTVSPropertyOp53
 70
     1
102
RTVSPropertyOp54
 70
     1
102
RTVSPropertyOp55
 70
     1
102
RTVSPropertyOp56
 70
     1
102
RTVSPropertyOp57
 70
     1
102
RTVSPropertyOp58
 70
     1
102
RTVSPropertyOp59
 70
     1
102
RTVSPropertyOp60
 70
     1
102
RTVSPropertyOp61
 70
     1
102
RTVSPropertyOp62
 70
     1
  0
ENDSEC
  0
EOF
