  0
SECTION
  2
HEADER
  9
$ACADVER
  1
AC1009
  0
ENDSEC
  0
SECTION
  2
ENTITIES
  0
POLYLINE
  5
90
  8
Layer_0
  62
0
  70
1
  66
1
  10
0
  20
0
  30
0
  0
VERTEX
  5
90
  8
Layer_0
  10
491.86224
  20
230.14218
  0
VERTEX
  5
91
  8
Layer_0
  10
571.18445
  20
230.14218
  0
VERTEX
  5
92
  8
Layer_0
  10
571.18445
  20
250.14218
  0
VERTEX
  5
93
  8
Layer_0
  10
491.86227
  20
250.14218
  0
VERTEX
  5
94
  8
Layer_0
  10
491.86224
  20
230.14218
  0
SEQEND
  0
POLYLINE
  5
96
  8
Layer_0
  62
0
  70
1
  66
1
  10
0
  20
0
  30
0
  0
VERTEX
  5
96
  8
Layer_0
  10
492.75
  20
228.91875
  0
VERTEX
  5
97
  8
Layer_0
  10
531.25
  20
199.08125
  0
VERTEX
  5
98
  8
Layer_0
  10
531.25
  20
228.91875
  0
VERTEX
  5
99
  8
Layer_0
  10
492.75
  20
228.91875
  0
SEQEND
  0
POLYLINE
  5
9b
  8
Layer_0
  62
0
  70
1
  66
1
  10
0
  20
0
  30
0
  0
VERTEX
  5
9b
  8
Layer_0
  10
530.69312
  20
198.5298
  0
VERTEX
  5
9c
  8
Layer_0
  10
492.19315
  20
228.36731
  0
VERTEX
  5
9d
  8
Layer_0
  10
492.19315
  20
198.52982
  0
VERTEX
  5
9e
  8
Layer_0
  10
530.69312
  20
198.5298
  0
SEQEND
  0
POLYLINE
  5
a0
  8
Layer_0
  62
0
  70
1
  66
1
  10
0
  20
0
  30
0
  0
VERTEX
  5
a0
  8
Layer_0
  10
532.74719
  20
228.731
  0
VERTEX
  5
a1
  8
Layer_0
  10
571.24719
  20
198.89351
  0
VERTEX
  5
a2
  8
Layer_0
  10
571.24719
  20
228.731
  0
VERTEX
  5
a3
  8
Layer_0
  10
532.74719
  20
228.731
  0
SEQEND
  0
POLYLINE
  5
a5
  8
Layer_0
  62
0
  70
1
  66
1
  10
0
  20
0
  30
0
  0
VERTEX
  5
a5
  8
Layer_0
  10
570.69019
  20
198.34195
  0
VERTEX
  5
a6
  8
Layer_0
  10
532.19019
  20
228.17946
  0
VERTEX
  5
a7
  8
Layer_0
  10
532.19019
  20
198.34196
  0
VERTEX
  5
a8
  8
Layer_0
  10
570.69019
  20
198.34195
  0
SEQEND
  0
POLYLINE
  5
aa
  8
Layer_0
  62
0
  70
1
  66
1
  10
0
  20
0
  30
0
  0
VERTEX
  5
aa
  8
Layer_0
  10
493.02997
  20
197.28853
  0
VERTEX
  5
ab
  8
Layer_0
  10
531.52997
  20
167.45103
  0
VERTEX
  5
ac
  8
Layer_0
  10
531.52997
  20
197.28853
  0
VERTEX
  5
ad
  8
Layer_0
  10
493.02997
  20
197.28853
  0
SEQEND
  0
POLYLINE
  5
af
  8
Layer_0
  62
0
  70
1
  66
1
  10
0
  20
0
  30
0
  0
VERTEX
  5
af
  8
Layer_0
  10
530.97296
  20
166.89948
  0
VERTEX
  5
b0
  8
Layer_0
  10
492.47296
  20
196.73698
  0
VERTEX
  5
b1
  8
Layer_0
  10
492.47296
  20
166.89949
  0
VERTEX
  5
b2
  8
Layer_0
  10
530.97296
  20
166.89948
  0
SEQEND
  0
POLYLINE
  5
b4
  8
Layer_0
  62
0
  70
1
  66
1
  10
0
  20
0
  30
0
  0
VERTEX
  5
b4
  8
Layer_0
  10
533.02698
  20
197.10052
  0
VERTEX
  5
b5
  8
Layer_0
  10
571.52698
  20
167.26303
  0
VERTEX
  5
b6
  8
Layer_0
  10
571.52698
  20
197.10052
  0
VERTEX
  5
b7
  8
Layer_0
  10
533.02698
  20
197.10052
  0
SEQEND
  0
POLYLINE
  5
b9
  8
Layer_0
  62
0
  70
1
  66
1
  10
0
  20
0
  30
0
  0
VERTEX
  5
b9
  8
Layer_0
  10
570.96997
  20
166.71147
  0
VERTEX
  5
ba
  8
Layer_0
  10
532.46997
  20
196.54898
  0
VERTEX
  5
bb
  8
Layer_0
  10
532.46997
  20
166.71149
  0
VERTEX
  5
bc
  8
Layer_0
  10
570.96997
  20
166.71147
  0
SEQEND
  0
POLYLINE
  5
be
  8
Layer_0
  62
0
  70
1
  66
1
  10
0
  20
0
  30
0
  0
VERTEX
  5
be
  8
Layer_0
  10
491.86218
  20
251.14218
  0
VERTEX
  5
bf
  8
Layer_0
  10
571.18457
  20
251.14218
  0
VERTEX
  5
c0
  8
Layer_0
  10
571.18457
  20
271.14218
  0
VERTEX
  5
c1
  8
Layer_0
  10
491.86218
  20
271.14218
  0
VERTEX
  5
c2
  8
Layer_0
  10
491.86218
  20
251.14218
  0
SEQEND
  0
POLYLINE
  5
c4
  8
Layer_0
  62
0
  70
1
  66
1
  10
0
  20
0
  30
0
  0
VERTEX
  5
c4
  8
Layer_0
  10
491.80481
  20
292.92227
  0
VERTEX
  5
c5
  8
Layer_0
  10
571.1272
  20
292.92224
  0
VERTEX
  5
c6
  8
Layer_0
  10
571.1272
  20
312.92224
  0
VERTEX
  5
c7
  8
Layer_0
  10
491.80481
  20
312.92224
  0
VERTEX
  5
c8
  8
Layer_0
  10
491.80481
  20
292.92227
  0
SEQEND
  0
POLYLINE
  5
ca
  8
Layer_0
  62
0
  70
1
  66
1
  10
0
  20
0
  30
0
  0
VERTEX
  5
ca
  8
Layer_0
  10
491.80481
  20
271.92227
  0
VERTEX
  5
cb
  8
Layer_0
  10
571.1272
  20
271.92224
  0
VERTEX
  5
cc
  8
Layer_0
  10
571.1272
  20
291.92224
  0
VERTEX
  5
cd
  8
Layer_0
  10
491.80481
  20
291.92224
  0
VERTEX
  5
ce
  8
Layer_0
  10
491.80481
  20
271.92227
  0
SEQEND
  0
ENDSEC
  0
EOF
