  0
SECTION
  2
HEADER
  9
$ACADVER
  1
AC1009
  0
ENDSEC
  0
SECTION
  2
TABLES
  0
TABLE
  2
LAYER
  70
3
  0
LAYER
  2
Layer_0
  70
0
  62
7
  6
CONTINUOUS
  0
LAYER
  2
Layer_27
  70
0
  62
138
  6
CONTINUOUS
  0
LAYER
  2
Layer_2
  70
0
  62
1
  6
CONTINUOUS
  0
ENDTAB
  0
ENDSEC
  0
SECTION
  2
ENTITIES
  0
POLYLINE
  5
90
  8
Layer_2
  62
1
  70
1
  66
1
  10
0
  20
0
  30
0
  0
VERTEX
  5
90
  8
Layer_2
  10
323
  20
189.00002
  0
VERTEX
  5
91
  8
Layer_2
  10
173
  20
189.00002
  0
VERTEX
  5
92
  8
Layer_2
  10
173
  20
249.00003
  0
VERTEX
  5
93
  8
Layer_2
  10
323
  20
249.00003
  0
SEQEND
  0
POLYLINE
  5
95
  8
Layer_27
  62
138
  70
1
  66
1
  10
0
  20
0
  30
0
  0
VERTEX
  5
95
  8
Layer_27
  10
191.22807
  20
215.83238
  0
VERTEX
  5
96
  8
Layer_27
  10
187.56628
  20
221.37812
  0
VERTEX
  5
97
  8
Layer_27
  10
187.46034
  20
221.37812
  0
VERTEX
  5
98
  8
Layer_27
  10
185.66115
  20
221.37812
  0
VERTEX
  5
99
  8
Layer_27
  10
185.66115
  20
215.83238
  0
VERTEX
  5
9a
  8
Layer_27
  10
182.88837
  20
215.83238
  0
VERTEX
  5
9b
  8
Layer_27
  10
182.88837
  20
230.52209
  0
VERTEX
  5
9c
  8
Layer_27
  10
187.46034
  20
230.52209
  0
VERTEX
  5
9d
  8
Layer_27
  10
188.17595
  20
230.50683
  0
VERTEX
  5
9e
  8
Layer_27
  10
188.84142
  20
230.46112
  0
VERTEX
  5
9f
  8
Layer_27
  10
189.45666
  20
230.38504
  0
VERTEX
  5
a0
  8
Layer_27
  10
190.0216
  20
230.2787
  0
VERTEX
  5
a1
  8
Layer_27
  10
190.53618
  20
230.13839
  0
VERTEX
  5
a2
  8
Layer_27
  10
191.00046
  20
229.9611
  0
VERTEX
  5
a3
  8
Layer_27
  10
191.41452
  20
229.7468
  0
VERTEX
  5
a4
  8
Layer_27
  10
191.77843
  20
229.49546
  42
-0.13481729
  0
VERTEX
  5
a5
  8
Layer_27
  10
192.78387
  20
228.08797
  0
VERTEX
  5
a6
  8
Layer_27
  10
192.92734
  20
227.63011
  0
VERTEX
  5
a7
  8
Layer_27
  10
193.02984
  20
227.12471
  0
VERTEX
  5
a8
  8
Layer_27
  10
193.09135
  20
226.57178
  0
VERTEX
  5
a9
  8
Layer_27
  10
193.11185
  20
225.97129
  0
VERTEX
  5
aa
  8
Layer_27
  10
193.1011
  20
225.51896
  0
VERTEX
  5
ab
  8
Layer_27
  10
193.06884
  20
225.09342
  0
VERTEX
  5
ac
  8
Layer_27
  10
193.01508
  20
224.69467
  0
VERTEX
  5
ad
  8
Layer_27
  10
192.93984
  20
224.32273
  0
VERTEX
  5
ae
  8
Layer_27
  10
192.8431
  20
223.9776
  0
VERTEX
  5
af
  8
Layer_27
  10
192.72489
  20
223.65928
  0
VERTEX
  5
b0
  8
Layer_27
  10
192.5852
  20
223.36777
  0
VERTEX
  5
b1
  8
Layer_27
  10
192.42404
  20
223.10308
  0
VERTEX
  5
b2
  8
Layer_27
  10
192.23996
  20
222.86111
  0
VERTEX
  5
b3
  8
Layer_27
  10
192.03175
  20
222.638
  0
VERTEX
  5
b4
  8
Layer_27
  10
191.7994
  20
222.43375
  0
VERTEX
  5
b5
  8
Layer_27
  10
191.54291
  20
222.24837
  0
VERTEX
  5
b6
  8
Layer_27
  10
191.26229
  20
222.08187
  0
VERTEX
  5
b7
  8
Layer_27
  10
190.95751
  20
221.93423
  0
VERTEX
  5
b8
  8
Layer_27
  10
190.62859
  20
221.80547
  0
VERTEX
  5
b9
  8
Layer_27
  10
190.27551
  20
221.69559
  0
VERTEX
  5
ba
  8
Layer_27
  10
194.48766
  20
215.83238
  0
SEQEND
  0
POLYLINE
  5
bc
  8
Layer_27
  62
138
  70
1
  66
1
  10
0
  20
0
  30
0
  0
VERTEX
  5
bc
  8
Layer_27
  10
187.07932
  20
223.49479
  42
0.038522596
  0
VERTEX
  5
bd
  8
Layer_27
  10
188.58224
  20
223.59004
  0
VERTEX
  5
be
  8
Layer_27
  10
188.87519
  20
223.64816
  0
VERTEX
  5
bf
  8
Layer_27
  10
189.14039
  20
223.72744
  0
VERTEX
  5
c0
  8
Layer_27
  10
189.37788
  20
223.82794
  0
VERTEX
  5
c1
  8
Layer_27
  10
189.58769
  20
223.94971
  42
0.15687545
  0
VERTEX
  5
c2
  8
Layer_27
  10
190.15906
  20
224.70126
  0
VERTEX
  5
c3
  8
Layer_27
  10
190.23769
  20
224.9631
  0
VERTEX
  5
c4
  8
Layer_27
  10
190.29396
  20
225.26206
  0
VERTEX
  5
c5
  8
Layer_27
  10
190.32778
  20
225.59813
  0
VERTEX
  5
c6
  8
Layer_27
  10
190.33907
  20
225.97129
  0
VERTEX
  5
c7
  8
Layer_27
  10
190.32778
  20
226.31383
  0
VERTEX
  5
c8
  8
Layer_27
  10
190.29396
  20
226.62207
  0
VERTEX
  5
c9
  8
Layer_27
  10
190.23769
  20
226.89595
  0
VERTEX
  5
ca
  8
Layer_27
  10
190.15906
  20
227.13539
  42
0.15375138
  0
VERTEX
  5
cb
  8
Layer_27
  10
189.58769
  20
227.83389
  0
VERTEX
  5
cc
  8
Layer_27
  10
189.37788
  20
227.95096
  0
VERTEX
  5
cd
  8
Layer_27
  10
189.14039
  20
228.04819
  0
VERTEX
  5
ce
  8
Layer_27
  10
188.87519
  20
228.12556
  0
VERTEX
  5
cf
  8
Layer_27
  10
188.58224
  20
228.18304
  42
0.038522596
  0
VERTEX
  5
d0
  8
Layer_27
  10
187.07932
  20
228.27831
  0
VERTEX
  5
d1
  8
Layer_27
  10
185.66115
  20
228.27831
  0
VERTEX
  5
d2
  8
Layer_27
  10
185.66115
  20
223.49479
  0
SEQEND
  0
POLYLINE
  5
d4
  8
Layer_27
  62
138
  70
1
  66
1
  10
0
  20
0
  30
0
  0
VERTEX
  5
d4
  8
Layer_27
  10
209.70636
  20
218.26651
  0
VERTEX
  5
d5
  8
Layer_27
  10
209.70636
  20
215.83238
  0
VERTEX
  5
d6
  8
Layer_27
  10
200.62578
  20
215.83238
  0
VERTEX
  5
d7
  8
Layer_27
  10
200.62578
  20
230.52209
  0
VERTEX
  5
d8
  8
Layer_27
  10
209.32533
  20
230.52209
  0
VERTEX
  5
d9
  8
Layer_27
  10
209.32533
  20
228.10898
  0
VERTEX
  5
da
  8
Layer_27
  10
203.39856
  20
228.10898
  0
VERTEX
  5
db
  8
Layer_27
  10
203.39856
  20
224.55312
  0
VERTEX
  5
dc
  8
Layer_27
  10
208.90193
  20
224.55312
  0
VERTEX
  5
dd
  8
Layer_27
  10
208.90193
  20
222.24594
  0
VERTEX
  5
de
  8
Layer_27
  10
203.39856
  20
222.24594
  0
VERTEX
  5
df
  8
Layer_27
  10
203.39856
  20
218.26651
  0
SEQEND
  0
POLYLINE
  5
e1
  8
Layer_27
  62
138
  70
1
  66
1
  10
0
  20
0
  30
0
  0
VERTEX
  5
e1
  8
Layer_27
  10
220.45885
  20
215.62068
  42
-0.016554975
  0
VERTEX
  5
e2
  8
Layer_27
  10
219.16763
  20
215.66306
  42
-0.019820111
  0
VERTEX
  5
e3
  8
Layer_27
  10
217.96115
  20
215.79001
  42
-0.0083447559
  0
VERTEX
  5
e4
  8
Layer_27
  10
216.92401
  20
215.95934
  42
-0.035843582
  0
VERTEX
  5
e5
  8
Layer_27
  10
216.14076
  20
216.14984
  0
VERTEX
  5
e6
  8
Layer_27
  10
216.14076
  20
218.62635
  42
0.03627546
  0
VERTEX
  5
e7
  8
Layer_27
  10
216.96638
  20
218.39346
  42
0.016337165
  0
VERTEX
  5
e8
  8
Layer_27
  10
218.01404
  20
218.20313
  42
0.015938834
  0
VERTEX
  5
e9
  8
Layer_27
  10
219.17831
  20
218.06549
  42
0.022011559
  0
VERTEX
  5
ea
  8
Layer_27
  10
220.3741
  20
218.0126
  0
VERTEX
  5
eb
  8
Layer_27
  10
220.74158
  20
218.01938
  0
VERTEX
  5
ec
  8
Layer_27
  10
221.08191
  20
218.03971
  0
VERTEX
  5
ed
  8
Layer_27
  10
221.39512
  20
218.0736
  0
VERTEX
  5
ee
  8
Layer_27
  10
221.68119
  20
218.12104
  0
VERTEX
  5
ef
  8
Layer_27
  10
221.94014
  20
218.18205
  0
VERTEX
  5
f0
  8
Layer_27
  10
222.17198
  20
218.25663
  0
VERTEX
  5
f1
  8
Layer_27
  10
222.37671
  20
218.34479
  0
VERTEX
  5
f2
  8
Layer_27
  10
222.55433
  20
218.44652
  0
VERTEX
  5
f3
  8
Layer_27
  10
222.70804
  20
218.56566
  0
VERTEX
  5
f4
  8
Layer_27
  10
222.84128
  20
218.70632
  0
VERTEX
  5
f5
  8
Layer_27
  10
222.95405
  20
218.8685
  0
VERTEX
  5
f6
  8
Layer_27
  10
223.04633
  20
219.05219
  0
VERTEX
  5
f7
  8
Layer_27
  10
223.11812
  20
219.2574
  0
VERTEX
  5
f8
  8
Layer_27
  10
223.16941
  20
219.48412
  0
VERTEX
  5
f9
  8
Layer_27
  10
223.20019
  20
219.73238
  0
VERTEX
  5
fa
  8
Layer_27
  10
223.21045
  20
220.00215
  42
0.080500273
  0
VERTEX
  5
fb
  8
Layer_27
  10
223.09399
  20
220.85947
  42
0.13919147
  0
VERTEX
  5
fc
  8
Layer_27
  10
222.6601
  20
221.47337
  0
VERTEX
  5
fd
  8
Layer_27
  10
222.48618
  20
221.60157
  0
VERTEX
  5
fe
  8
Layer_27
  10
222.28178
  20
221.72188
  0
VERTEX
  5
ff
  8
Layer_27
  10
222.04695
  20
221.83433
  0
VERTEX
  5
100
  8
Layer_27
  10
221.78176
  20
221.93898
  42
0.023195052
  0
VERTEX
  5
101
  8
Layer_27
  10
220.31071
  20
222.37289
  0
VERTEX
  5
102
  8
Layer_27
  10
219.75306
  20
222.51306
  0
VERTEX
  5
103
  8
Layer_27
  10
219.24437
  20
222.6586
  0
VERTEX
  5
104
  8
Layer_27
  10
218.78464
  20
222.80947
  0
VERTEX
  5
105
  8
Layer_27
  10
218.37388
  20
222.96562
  0
VERTEX
  5
106
  8
Layer_27
  10
218.00606
  20
223.13422
  0
VERTEX
  5
107
  8
Layer_27
  10
217.67536
  20
223.32271
  0
VERTEX
  5
108
  8
Layer_27
  10
217.38171
  20
223.53109
  0
VERTEX
  5
109
  8
Layer_27
  10
217.12503
  20
223.75937
  42
-0.12375693
  0
VERTEX
  5
10a
  8
Layer_27
  10
216.44772
  20
224.90228
  0
VERTEX
  5
10b
  8
Layer_27
  10
216.3597
  20
225.25486
  0
VERTEX
  5
10c
  8
Layer_27
  10
216.29689
  20
225.64573
  0
VERTEX
  5
10d
  8
Layer_27
  10
216.25924
  20
226.07498
  0
VERTEX
  5
10e
  8
Layer_27
  10
216.2467
  20
226.54266
  0
VERTEX
  5
10f
  8
Layer_27
  10
216.26737
  20
227.08388
  0
VERTEX
  5
110
  8
Layer_27
  10
216.32936
  20
227.58575
  0
VERTEX
  5
111
  8
Layer_27
  10
216.43269
  20
228.04827
  0
VERTEX
  5
112
  8
Layer_27
  10
216.57737
  20
228.47144
  0
VERTEX
  5
113
  8
Layer_27
  10
216.76339
  20
228.85526
  0
VERTEX
  5
114
  8
Layer_27
  10
216.99077
  20
229.19972
  0
VERTEX
  5
115
  8
Layer_27
  10
217.25951
  20
229.50482
  0
VERTEX
  5
116
  8
Layer_27
  10
217.56962
  20
229.77055
  0
VERTEX
  5
117
  8
Layer_27
  10
217.91964
  20
230.00127
  0
VERTEX
  5
118
  8
Layer_27
  10
218.30837
  20
230.20121
  0
VERTEX
  5
119
  8
Layer_27
  10
218.7358
  20
230.37038
  0
VERTEX
  5
11a
  8
Layer_27
  10
219.20195
  20
230.50879
  0
VERTEX
  5
11b
  8
Layer_27
  10
219.7068
  20
230.61643
  0
VERTEX
  5
11c
  8
Layer_27
  10
220.25037
  20
230.69331
  0
VERTEX
  5
11d
  8
Layer_27
  10
220.83264
  20
230.73944
  0
VERTEX
  5
11e
  8
Layer_27
  10
221.45362
  20
230.75481
  42
-0.039536899
  0
VERTEX
  5
11f
  8
Layer_27
  10
223.63385
  20
230.59616
  0
VERTEX
  5
120
  8
Layer_27
  10
224.10478
  20
230.51339
  0
VERTEX
  5
121
  8
Layer_27
  10
224.52281
  20
230.42402
  0
VERTEX
  5
122
  8
Layer_27
  10
224.88794
  20
230.32808
  0
VERTEX
  5
123
  8
Layer_27
  10
225.20016
  20
230.22564
  0
VERTEX
  5
124
  8
Layer_27
  10
225.20016
  20
227.87626
  42
0.030180781
  0
VERTEX
  5
125
  8
Layer_27
  10
224.48048
  20
228.07729
  42
0.012985365
  0
VERTEX
  5
126
  8
Layer_27
  10
223.55978
  20
228.25729
  42
0.021813498
  0
VERTEX
  5
127
  8
Layer_27
  10
222.53314
  20
228.38424
  42
0.019859964
  0
VERTEX
  5
128
  8
Layer_27
  10
221.53838
  20
228.42661
  0
VERTEX
  5
129
  8
Layer_27
  10
220.9159
  20
228.40411
  0
VERTEX
  5
12a
  8
Layer_27
  10
220.38204
  20
228.33661
  0
VERTEX
  5
12b
  8
Layer_27
  10
219.93684
  20
228.22415
  0
VERTEX
  5
12c
  8
Layer_27
  10
219.58035
  20
228.06677
  0
VERTEX
  5
12d
  8
Layer_27
  10
219.43398
  20
227.96516
  0
VERTEX
  5
12e
  8
Layer_27
  10
219.30714
  20
227.8404
  0
VERTEX
  5
12f
  8
Layer_27
  10
219.19982
  20
227.69252
  0
VERTEX
  5
130
  8
Layer_27
  10
219.11201
  20
227.5215
  0
VERTEX
  5
131
  8
Layer_27
  10
219.04372
  20
227.32736
  0
VERTEX
  5
132
  8
Layer_27
  10
218.99495
  20
227.1101
  0
VERTEX
  5
133
  8
Layer_27
  10
218.96568
  20
226.86972
  0
VERTEX
  5
134
  8
Layer_27
  10
218.95593
  20
226.60623
  42
0.072200452
  0
VERTEX
  5
135
  8
Layer_27
  10
219.04068
  20
225.89705
  42
0.15702183
  0
VERTEX
  5
136
  8
Layer_27
  10
219.41103
  20
225.38907
  0
VERTEX
  5
137
  8
Layer_27
  10
219.56912
  20
225.27994
  0
VERTEX
  5
138
  8
Layer_27
  10
219.75764
  20
225.17477
  0
VERTEX
  5
139
  8
Layer_27
  10
219.97659
  20
225.07357
  0
VERTEX
  5
13a
  8
Layer_27
  10
220.22596
  20
224.97635
  42
0.026701742
  0
VERTEX
  5
13b
  8
Layer_27
  10
221.62294
  20
224.57413
  0
VERTEX
  5
13c
  8
Layer_27
  10
222.23999
  20
224.41279
  0
VERTEX
  5
13d
  8
Layer_27
  10
222.80024
  20
224.24608
  0
VERTEX
  5
13e
  8
Layer_27
  10
223.30368
  20
224.07407
  0
VERTEX
  5
13f
  8
Layer_27
  10
223.75029
  20
223.89683
  0
VERTEX
  5
140
  8
Layer_27
  10
224.1464
  20
223.70621
  0
VERTEX
  5
141
  8
Layer_27
  10
224.49889
  20
223.49451
  0
VERTEX
  5
142
  8
Layer_27
  10
224.80781
  20
223.26172
  0
VERTEX
  5
143
  8
Layer_27
  10
225.07321
  20
223.00782
  42
-0.12008553
  0
VERTEX
  5
144
  8
Layer_27
  10
225.76102
  20
221.73796
  0
VERTEX
  5
145
  8
Layer_27
  10
225.849
  20
221.34884
  0
VERTEX
  5
146
  8
Layer_27
  10
225.91188
  20
220.92279
  0
VERTEX
  5
147
  8
Layer_27
  10
225.94963
  20
220.45982
  0
VERTEX
  5
148
  8
Layer_27
  10
225.96222
  20
219.95995
  0
VERTEX
  5
149
  8
Layer_27
  10
225.94171
  20
219.43689
  0
VERTEX
  5
14a
  8
Layer_27
  10
225.88018
  20
218.94723
  0
VERTEX
  5
14b
  8
Layer_27
  10
225.77764
  20
218.49097
  0
VERTEX
  5
14c
  8
Layer_27
  10
225.63409
  20
218.06812
  0
VERTEX
  5
14d
  8
Layer_27
  10
225.44953
  20
217.67868
  0
VERTEX
  5
14e
  8
Layer_27
  10
225.22396
  20
217.32266
  0
VERTEX
  5
14f
  8
Layer_27
  10
224.95739
  20
217.00005
  0
VERTEX
  5
150
  8
Layer_27
  10
224.64981
  20
216.71088
  0
VERTEX
  5
151
  8
Layer_27
  10
224.2972
  20
216.45528
  0
VERTEX
  5
152
  8
Layer_27
  10
223.89565
  20
216.23379
  0
VERTEX
  5
153
  8
Layer_27
  10
223.44518
  20
216.04641
  0
VERTEX
  5
154
  8
Layer_27
  10
222.94578
  20
215.89312
  0
VERTEX
  5
155
  8
Layer_27
  10
222.39744
  20
215.77391
  0
VERTEX
  5
156
  8
Layer_27
  10
221.80018
  20
215.68878
  0
VERTEX
  5
157
  8
Layer_27
  10
221.15398
  20
215.6377
  0
VERTEX
  5
158
  8
Layer_27
  10
220.45885
  20
215.62068
  0
SEQEND
  0
POLYLINE
  5
15a
  8
Layer_27
  62
138
  70
1
  66
1
  10
0
  20
0
  30
0
  0
VERTEX
  5
15a
  8
Layer_27
  10
242.1757
  20
218.26651
  0
VERTEX
  5
15b
  8
Layer_27
  10
242.1757
  20
215.83238
  0
VERTEX
  5
15c
  8
Layer_27
  10
233.09511
  20
215.83238
  0
VERTEX
  5
15d
  8
Layer_27
  10
233.09511
  20
230.52209
  0
VERTEX
  5
15e
  8
Layer_27
  10
241.79466
  20
230.52209
  0
VERTEX
  5
15f
  8
Layer_27
  10
241.79466
  20
228.10898
  0
VERTEX
  5
160
  8
Layer_27
  10
235.86807
  20
228.10898
  0
VERTEX
  5
161
  8
Layer_27
  10
235.86807
  20
224.55312
  0
VERTEX
  5
162
  8
Layer_27
  10
241.37126
  20
224.55312
  0
VERTEX
  5
163
  8
Layer_27
  10
241.37126
  20
222.24594
  0
VERTEX
  5
164
  8
Layer_27
  10
235.86807
  20
222.24594
  0
VERTEX
  5
165
  8
Layer_27
  10
235.86807
  20
218.26651
  0
SEQEND
  0
POLYLINE
  5
167
  8
Layer_27
  62
138
  70
1
  66
1
  10
0
  20
0
  30
0
  0
VERTEX
  5
167
  8
Layer_27
  10
257.52136
  20
215.83238
  0
VERTEX
  5
168
  8
Layer_27
  10
253.85956
  20
221.37812
  0
VERTEX
  5
169
  8
Layer_27
  10
253.7538
  20
221.37812
  0
VERTEX
  5
16a
  8
Layer_27
  10
251.95477
  20
221.37812
  0
VERTEX
  5
16b
  8
Layer_27
  10
251.95477
  20
215.83238
  0
VERTEX
  5
16c
  8
Layer_27
  10
249.18181
  20
215.83238
  0
VERTEX
  5
16d
  8
Layer_27
  10
249.18181
  20
230.52209
  0
VERTEX
  5
16e
  8
Layer_27
  10
253.7538
  20
230.52209
  0
VERTEX
  5
16f
  8
Layer_27
  10
254.46945
  20
230.50683
  0
VERTEX
  5
170
  8
Layer_27
  10
255.13485
  20
230.46112
  0
VERTEX
  5
171
  8
Layer_27
  10
255.75
  20
230.38504
  0
VERTEX
  5
172
  8
Layer_27
  10
256.31489
  20
230.2787
  0
VERTEX
  5
173
  8
Layer_27
  10
256.82952
  20
230.13839
  0
VERTEX
  5
174
  8
Layer_27
  10
257.2939
  20
229.9611
  0
VERTEX
  5
175
  8
Layer_27
  10
257.70802
  20
229.7468
  0
VERTEX
  5
176
  8
Layer_27
  10
258.07188
  20
229.49546
  42
-0.13483598
  0
VERTEX
  5
177
  8
Layer_27
  10
259.07715
  20
228.08797
  0
VERTEX
  5
178
  8
Layer_27
  10
259.22075
  20
227.63011
  0
VERTEX
  5
179
  8
Layer_27
  10
259.32336
  20
227.12471
  0
VERTEX
  5
17a
  8
Layer_27
  10
259.38494
  20
226.57178
  0
VERTEX
  5
17b
  8
Layer_27
  10
259.40548
  20
225.97129
  0
VERTEX
  5
17c
  8
Layer_27
  10
259.39471
  20
225.51896
  0
VERTEX
  5
17d
  8
Layer_27
  10
259.36242
  20
225.09342
  0
VERTEX
  5
17e
  8
Layer_27
  10
259.30861
  20
224.69467
  0
VERTEX
  5
17f
  8
Layer_27
  10
259.23331
  20
224.32273
  0
VERTEX
  5
180
  8
Layer_27
  10
259.13653
  20
223.9776
  0
VERTEX
  5
181
  8
Layer_27
  10
259.0183
  20
223.65928
  0
VERTEX
  5
182
  8
Layer_27
  10
258.87861
  20
223.36777
  0
VERTEX
  5
183
  8
Layer_27
  10
258.7175
  20
223.10308
  0
VERTEX
  5
184
  8
Layer_27
  10
258.53337
  20
222.86111
  0
VERTEX
  5
185
  8
Layer_27
  10
258.32513
  20
222.638
  0
VERTEX
  5
186
  8
Layer_27
  10
258.09279
  20
222.43375
  0
VERTEX
  5
187
  8
Layer_27
  10
257.83633
  20
222.24837
  0
VERTEX
  5
188
  8
Layer_27
  10
257.55574
  20
222.08187
  0
VERTEX
  5
189
  8
Layer_27
  10
257.25102
  20
221.93423
  0
VERTEX
  5
18a
  8
Layer_27
  10
256.92215
  20
221.80547
  0
VERTEX
  5
18b
  8
Layer_27
  10
256.56914
  20
221.69559
  0
VERTEX
  5
18c
  8
Layer_27
  10
260.78113
  20
215.83238
  0
SEQEND
  0
POLYLINE
  5
18e
  8
Layer_27
  62
138
  70
1
  66
1
  10
0
  20
0
  30
0
  0
VERTEX
  5
18e
  8
Layer_27
  10
253.37277
  20
223.49479
  42
0.038538338
  0
VERTEX
  5
18f
  8
Layer_27
  10
254.87552
  20
223.59004
  0
VERTEX
  5
190
  8
Layer_27
  10
255.16855
  20
223.64816
  0
VERTEX
  5
191
  8
Layer_27
  10
255.43376
  20
223.72744
  0
VERTEX
  5
192
  8
Layer_27
  10
255.67126
  20
223.82794
  0
VERTEX
  5
193
  8
Layer_27
  10
255.88115
  20
223.94971
  42
0.1566795
  0
VERTEX
  5
194
  8
Layer_27
  10
256.4527
  20
224.70126
  0
VERTEX
  5
195
  8
Layer_27
  10
256.53122
  20
224.9631
  0
VERTEX
  5
196
  8
Layer_27
  10
256.58744
  20
225.26206
  0
VERTEX
  5
197
  8
Layer_27
  10
256.62123
  20
225.59813
  0
VERTEX
  5
198
  8
Layer_27
  10
256.63252
  20
225.97129
  0
VERTEX
  5
199
  8
Layer_27
  10
256.62123
  20
226.31383
  0
VERTEX
  5
19a
  8
Layer_27
  10
256.58744
  20
226.62207
  0
VERTEX
  5
19b
  8
Layer_27
  10
256.53122
  20
226.89595
  0
VERTEX
  5
19c
  8
Layer_27
  10
256.45269
  20
227.13539
  42
0.15354857
  0
VERTEX
  5
19d
  8
Layer_27
  10
255.88115
  20
227.83389
  0
VERTEX
  5
19e
  8
Layer_27
  10
255.67126
  20
227.95096
  0
VERTEX
  5
19f
  8
Layer_27
  10
255.43376
  20
228.04819
  0
VERTEX
  5
1a0
  8
Layer_27
  10
255.16855
  20
228.12556
  0
VERTEX
  5
1a1
  8
Layer_27
  10
254.87553
  20
228.18304
  42
0.038538338
  0
VERTEX
  5
1a2
  8
Layer_27
  10
253.37277
  20
228.27831
  0
VERTEX
  5
1a3
  8
Layer_27
  10
251.95477
  20
228.27831
  0
VERTEX
  5
1a4
  8
Layer_27
  10
251.95477
  20
223.49479
  0
SEQEND
  0
POLYLINE
  5
1a6
  8
Layer_27
  62
138
  70
1
  66
1
  10
0
  20
0
  30
0
  0
VERTEX
  5
1a6
  8
Layer_27
  10
264.92969
  20
230.52209
  0
VERTEX
  5
1a7
  8
Layer_27
  10
267.95654
  20
230.52209
  0
VERTEX
  5
1a8
  8
Layer_27
  10
271.70309
  20
218.77449
  0
VERTEX
  5
1a9
  8
Layer_27
  10
271.83023
  20
218.77449
  0
VERTEX
  5
1aa
  8
Layer_27
  10
275.68253
  20
230.52209
  0
VERTEX
  5
1ab
  8
Layer_27
  10
278.53989
  20
230.52209
  0
VERTEX
  5
1ac
  8
Layer_27
  10
273.41772
  20
215.83238
  0
VERTEX
  5
1ad
  8
Layer_27
  10
269.96747
  20
215.83238
  0
SEQEND
  0
POLYLINE
  5
1af
  8
Layer_27
  62
138
  70
1
  66
1
  10
0
  20
0
  30
0
  0
VERTEX
  5
1af
  8
Layer_27
  10
293.88571
  20
218.26651
  0
VERTEX
  5
1b0
  8
Layer_27
  10
293.88571
  20
215.83238
  0
VERTEX
  5
1b1
  8
Layer_27
  10
284.80515
  20
215.83238
  0
VERTEX
  5
1b2
  8
Layer_27
  10
284.80515
  20
230.52209
  0
VERTEX
  5
1b3
  8
Layer_27
  10
293.5047
  20
230.52209
  0
VERTEX
  5
1b4
  8
Layer_27
  10
293.5047
  20
228.10898
  0
VERTEX
  5
1b5
  8
Layer_27
  10
287.57809
  20
228.10898
  0
VERTEX
  5
1b6
  8
Layer_27
  10
287.57809
  20
224.55312
  0
VERTEX
  5
1b7
  8
Layer_27
  10
293.0813
  20
224.55312
  0
VERTEX
  5
1b8
  8
Layer_27
  10
293.0813
  20
222.24594
  0
VERTEX
  5
1b9
  8
Layer_27
  10
287.57809
  20
222.24594
  0
VERTEX
  5
1ba
  8
Layer_27
  10
287.57809
  20
218.26651
  0
SEQEND
  0
POLYLINE
  5
1bc
  8
Layer_27
  62
138
  70
1
  66
1
  10
0
  20
0
  30
0
  0
VERTEX
  5
1bc
  8
Layer_27
  10
305.65417
  20
230.52209
  0
VERTEX
  5
1bd
  8
Layer_27
  10
306.43983
  20
230.50423
  0
VERTEX
  5
1be
  8
Layer_27
  10
307.18861
  20
230.45065
  0
VERTEX
  5
1bf
  8
Layer_27
  10
307.90045
  20
230.36135
  0
VERTEX
  5
1c0
  8
Layer_27
  10
308.57526
  20
230.23632
  0
VERTEX
  5
1c1
  8
Layer_27
  10
309.20752
  20
230.06102
  0
VERTEX
  5
1c2
  8
Layer_27
  10
309.7922
  20
229.82089
  0
VERTEX
  5
1c3
  8
Layer_27
  10
310.32928
  20
229.51597
  0
VERTEX
  5
1c4
  8
Layer_27
  10
310.81871
  20
229.14629
  0
VERTEX
  5
1c5
  8
Layer_27
  10
311.25854
  20
228.70426
  0
VERTEX
  5
1c6
  8
Layer_27
  10
311.64683
  20
228.18298
  0
VERTEX
  5
1c7
  8
Layer_27
  10
311.98356
  20
227.58241
  0
VERTEX
  5
1c8
  8
Layer_27
  10
312.26875
  20
226.9025
  0
VERTEX
  5
1c9
  8
Layer_27
  10
312.39024
  20
226.52937
  0
VERTEX
  5
1ca
  8
Layer_27
  10
312.49554
  20
226.12983
  0
VERTEX
  5
1cb
  8
Layer_27
  10
312.58466
  20
225.70385
  0
VERTEX
  5
1cc
  8
Layer_27
  10
312.65757
  20
225.25144
  0
VERTEX
  5
1cd
  8
Layer_27
  10
312.7143
  20
224.77258
  0
VERTEX
  5
1ce
  8
Layer_27
  10
312.75482
  20
224.26725
  0
VERTEX
  5
1cf
  8
Layer_27
  10
312.77913
  20
223.73544
  0
VERTEX
  5
1d0
  8
Layer_27
  10
312.78724
  20
223.17715
  0
VERTEX
  5
1d1
  8
Layer_27
  10
312.77913
  20
222.65405
  0
VERTEX
  5
1d2
  8
Layer_27
  10
312.75482
  20
222.15379
  0
VERTEX
  5
1d3
  8
Layer_27
  10
312.7143
  20
221.67638
  0
VERTEX
  5
1d4
  8
Layer_27
  10
312.65757
  20
221.2218
  0
VERTEX
  5
1d5
  8
Layer_27
  10
312.58466
  20
220.79006
  0
VERTEX
  5
1d6
  8
Layer_27
  10
312.49554
  20
220.38115
  0
VERTEX
  5
1d7
  8
Layer_27
  10
312.39024
  20
219.99506
  0
VERTEX
  5
1d8
  8
Layer_27
  10
312.26875
  20
219.6318
  0
VERTEX
  5
1d9
  8
Layer_27
  10
311.98356
  20
218.96295
  0
VERTEX
  5
1da
  8
Layer_27
  10
311.64683
  20
218.36429
  0
VERTEX
  5
1db
  8
Layer_27
  10
311.25854
  20
217.83581
  0
VERTEX
  5
1dc
  8
Layer_27
  10
310.81871
  20
217.3775
  42
-0.12004308
  0
VERTEX
  5
1dd
  8
Layer_27
  10
308.57526
  20
216.18172
  0
VERTEX
  5
1de
  8
Layer_27
  10
307.90045
  20
216.02888
  0
VERTEX
  5
1df
  8
Layer_27
  10
307.18861
  20
215.91971
  0
VERTEX
  5
1e0
  8
Layer_27
  10
306.43983
  20
215.85421
  0
VERTEX
  5
1e1
  8
Layer_27
  10
305.65417
  20
215.83238
  0
VERTEX
  5
1e2
  8
Layer_27
  10
300.89166
  20
215.83238
  0
VERTEX
  5
1e3
  8
Layer_27
  10
300.89166
  20
230.52209
  0
VERTEX
  5
1e4
  8
Layer_27
  10
305.65417
  20
230.52209
  0
SEQEND
  0
POLYLINE
  5
1e6
  8
Layer_27
  62
138
  70
1
  66
1
  10
0
  20
0
  30
0
  0
VERTEX
  5
1e6
  8
Layer_27
  10
305.52705
  20
218.22414
  0
VERTEX
  5
1e7
  8
Layer_27
  10
306.04168
  20
218.23868
  0
VERTEX
  5
1e8
  8
Layer_27
  10
306.52724
  20
218.28232
  0
VERTEX
  5
1e9
  8
Layer_27
  10
306.98374
  20
218.35509
  0
VERTEX
  5
1ea
  8
Layer_27
  10
307.41116
  20
218.45702
  42
0.1282509
  0
VERTEX
  5
1eb
  8
Layer_27
  10
308.79749
  20
219.25078
  0
VERTEX
  5
1ec
  8
Layer_27
  10
309.06069
  20
219.55566
  0
VERTEX
  5
1ed
  8
Layer_27
  10
309.28961
  20
219.90956
  0
VERTEX
  5
1ee
  8
Layer_27
  10
309.48416
  20
220.31243
  0
VERTEX
  5
1ef
  8
Layer_27
  10
309.64428
  20
220.76421
  0
VERTEX
  5
1f0
  8
Layer_27
  10
309.76913
  20
221.27218
  0
VERTEX
  5
1f1
  8
Layer_27
  10
309.85839
  20
221.84368
  0
VERTEX
  5
1f2
  8
Layer_27
  10
309.912
  20
222.47868
  0
VERTEX
  5
1f3
  8
Layer_27
  10
309.92988
  20
223.17715
  0
VERTEX
  5
1f4
  8
Layer_27
  10
309.91134
  20
223.9048
  0
VERTEX
  5
1f5
  8
Layer_27
  10
309.85576
  20
224.56359
  0
VERTEX
  5
1f6
  8
Layer_27
  10
309.76317
  20
225.15358
  0
VERTEX
  5
1f7
  8
Layer_27
  10
309.6336
  20
225.67484
  0
VERTEX
  5
1f8
  8
Layer_27
  10
309.46816
  20
226.13576
  0
VERTEX
  5
1f9
  8
Layer_27
  10
309.26842
  20
226.54518
  0
VERTEX
  5
1fa
  8
Layer_27
  10
309.03431
  20
226.90309
  0
VERTEX
  5
1fb
  8
Layer_27
  10
308.76578
  20
227.20946
  42
0.13414025
  0
VERTEX
  5
1fc
  8
Layer_27
  10
307.37912
  20
227.97151
  42
0.060459994
  0
VERTEX
  5
1fd
  8
Layer_27
  10
305.52704
  20
228.17254
  0
VERTEX
  5
1fe
  8
Layer_27
  10
303.66461
  20
228.17254
  0
VERTEX
  5
1ff
  8
Layer_27
  10
303.66461
  20
218.22414
  0
VERTEX
  5
200
  8
Layer_27
  10
305.52704
  20
218.22414
  0
SEQEND
  0
POLYLINE
  5
202
  8
Layer_27
  62
138
  70
1
  66
1
  10
0
  20
0
  30
0
  0
VERTEX
  5
202
  8
Layer_27
  10
191.39027
  20
163.64467
  0
VERTEX
  5
203
  8
Layer_27
  10
187.72849
  20
169.1904
  0
VERTEX
  5
204
  8
Layer_27
  10
187.62254
  20
169.1904
  0
VERTEX
  5
205
  8
Layer_27
  10
185.82335
  20
169.1904
  0
VERTEX
  5
206
  8
Layer_27
  10
185.82335
  20
163.64467
  0
VERTEX
  5
207
  8
Layer_27
  10
183.05057
  20
163.64467
  0
VERTEX
  5
208
  8
Layer_27
  10
183.05057
  20
178.33438
  0
VERTEX
  5
209
  8
Layer_27
  10
187.62254
  20
178.33438
  0
VERTEX
  5
20a
  8
Layer_27
  10
188.33816
  20
178.31912
  0
VERTEX
  5
20b
  8
Layer_27
  10
189.00362
  20
178.2734
  0
VERTEX
  5
20c
  8
Layer_27
  10
189.61886
  20
178.19732
  0
VERTEX
  5
20d
  8
Layer_27
  10
190.1838
  20
178.09098
  0
VERTEX
  5
20e
  8
Layer_27
  10
190.69839
  20
177.95068
  0
VERTEX
  5
20f
  8
Layer_27
  10
191.16266
  20
177.77339
  0
VERTEX
  5
210
  8
Layer_27
  10
191.57672
  20
177.55909
  0
VERTEX
  5
211
  8
Layer_27
  10
191.94063
  20
177.30774
  42
-0.13481729
  0
VERTEX
  5
212
  8
Layer_27
  10
192.94608
  20
175.90025
  0
VERTEX
  5
213
  8
Layer_27
  10
193.08955
  20
175.4424
  0
VERTEX
  5
214
  8
Layer_27
  10
193.19204
  20
174.937
  0
VERTEX
  5
215
  8
Layer_27
  10
193.25355
  20
174.38406
  0
VERTEX
  5
216
  8
Layer_27
  10
193.27405
  20
173.78358
  0
VERTEX
  5
217
  8
Layer_27
  10
193.2633
  20
173.33124
  0
VERTEX
  5
218
  8
Layer_27
  10
193.23104
  20
172.9057
  0
VERTEX
  5
219
  8
Layer_27
  10
193.17728
  20
172.50696
  0
VERTEX
  5
21a
  8
Layer_27
  10
193.10204
  20
172.13502
  0
VERTEX
  5
21b
  8
Layer_27
  10
193.0053
  20
171.78988
  0
VERTEX
  5
21c
  8
Layer_27
  10
192.88709
  20
171.47156
  0
VERTEX
  5
21d
  8
Layer_27
  10
192.7474
  20
171.18005
  0
VERTEX
  5
21e
  8
Layer_27
  10
192.58624
  20
170.91537
  0
VERTEX
  5
21f
  8
Layer_27
  10
192.40216
  20
170.67339
  0
VERTEX
  5
220
  8
Layer_27
  10
192.19395
  20
170.45028
  0
VERTEX
  5
221
  8
Layer_27
  10
191.9616
  20
170.24604
  0
VERTEX
  5
222
  8
Layer_27
  10
191.70511
  20
170.06066
  0
VERTEX
  5
223
  8
Layer_27
  10
191.42449
  20
169.89415
  0
VERTEX
  5
224
  8
Layer_27
  10
191.11971
  20
169.74652
  0
VERTEX
  5
225
  8
Layer_27
  10
190.79079
  20
169.61776
  0
VERTEX
  5
226
  8
Layer_27
  10
190.43771
  20
169.50787
  0
VERTEX
  5
227
  8
Layer_27
  10
194.64986
  20
163.64467
  0
SEQEND
  0
POLYLINE
  5
229
  8
Layer_27
  62
138
  70
1
  66
1
  10
0
  20
0
  30
0
  0
VERTEX
  5
229
  8
Layer_27
  10
187.24152
  20
171.30707
  42
0.038522596
  0
VERTEX
  5
22a
  8
Layer_27
  10
188.74445
  20
171.40233
  0
VERTEX
  5
22b
  8
Layer_27
  10
189.03739
  20
171.46044
  0
VERTEX
  5
22c
  8
Layer_27
  10
189.30259
  20
171.53973
  0
VERTEX
  5
22d
  8
Layer_27
  10
189.54008
  20
171.64023
  0
VERTEX
  5
22e
  8
Layer_27
  10
189.74989
  20
171.762
  42
0.15687545
  0
VERTEX
  5
22f
  8
Layer_27
  10
190.32126
  20
172.51355
  0
VERTEX
  5
230
  8
Layer_27
  10
190.39989
  20
172.77538
  0
VERTEX
  5
231
  8
Layer_27
  10
190.45616
  20
173.07434
  0
VERTEX
  5
232
  8
Layer_27
  10
190.48998
  20
173.41042
  0
VERTEX
  5
233
  8
Layer_27
  10
190.50127
  20
173.78358
  0
VERTEX
  5
234
  8
Layer_27
  10
190.48998
  20
174.12612
  0
VERTEX
  5
235
  8
Layer_27
  10
190.45616
  20
174.43436
  0
VERTEX
  5
236
  8
Layer_27
  10
190.39989
  20
174.70823
  0
VERTEX
  5
237
  8
Layer_27
  10
190.32126
  20
174.94768
  42
0.15375138
  0
VERTEX
  5
238
  8
Layer_27
  10
189.74989
  20
175.64618
  0
VERTEX
  5
239
  8
Layer_27
  10
189.54008
  20
175.76325
  0
VERTEX
  5
23a
  8
Layer_27
  10
189.30259
  20
175.86048
  0
VERTEX
  5
23b
  8
Layer_27
  10
189.03739
  20
175.93784
  0
VERTEX
  5
23c
  8
Layer_27
  10
188.74444
  20
175.99533
  42
0.038522596
  0
VERTEX
  5
23d
  8
Layer_27
  10
187.24152
  20
176.09059
  0
VERTEX
  5
23e
  8
Layer_27
  10
185.82335
  20
176.09059
  0
VERTEX
  5
23f
  8
Layer_27
  10
185.82335
  20
171.30707
  0
SEQEND
  0
POLYLINE
  5
241
  8
Layer_27
  62
138
  70
1
  66
1
  10
0
  20
0
  30
0
  0
VERTEX
  5
241
  8
Layer_27
  10
209.86856
  20
166.0788
  0
VERTEX
  5
242
  8
Layer_27
  10
209.86856
  20
163.64467
  0
VERTEX
  5
243
  8
Layer_27
  10
200.78798
  20
163.64467
  0
VERTEX
  5
244
  8
Layer_27
  10
200.78798
  20
178.33438
  0
VERTEX
  5
245
  8
Layer_27
  10
209.48753
  20
178.33438
  0
VERTEX
  5
246
  8
Layer_27
  10
209.48753
  20
175.92126
  0
VERTEX
  5
247
  8
Layer_27
  10
203.56076
  20
175.92126
  0
VERTEX
  5
248
  8
Layer_27
  10
203.56076
  20
172.3654
  0
VERTEX
  5
249
  8
Layer_27
  10
209.06413
  20
172.3654
  0
VERTEX
  5
24a
  8
Layer_27
  10
209.06413
  20
170.05823
  0
VERTEX
  5
24b
  8
Layer_27
  10
203.56076
  20
170.05823
  0
VERTEX
  5
24c
  8
Layer_27
  10
203.56076
  20
166.0788
  0
SEQEND
  0
POLYLINE
  5
24e
  8
Layer_27
  62
138
  70
1
  66
1
  10
0
  20
0
  30
0
  0
VERTEX
  5
24e
  8
Layer_27
  10
220.62105
  20
163.43297
  42
-0.016554975
  0
VERTEX
  5
24f
  8
Layer_27
  10
219.32983
  20
163.47534
  42
-0.019820111
  0
VERTEX
  5
250
  8
Layer_27
  10
218.12335
  20
163.60229
  42
-0.0083447559
  0
VERTEX
  5
251
  8
Layer_27
  10
217.08621
  20
163.77162
  42
-0.035843582
  0
VERTEX
  5
252
  8
Layer_27
  10
216.30296
  20
163.96213
  0
VERTEX
  5
253
  8
Layer_27
  10
216.30296
  20
166.43863
  42
0.03627546
  0
VERTEX
  5
254
  8
Layer_27
  10
217.12859
  20
166.20575
  42
0.016337165
  0
VERTEX
  5
255
  8
Layer_27
  10
218.17624
  20
166.01541
  42
0.015938834
  0
VERTEX
  5
256
  8
Layer_27
  10
219.34052
  20
165.87778
  42
0.022011559
  0
VERTEX
  5
257
  8
Layer_27
  10
220.5363
  20
165.82489
  0
VERTEX
  5
258
  8
Layer_27
  10
220.90378
  20
165.83167
  0
VERTEX
  5
259
  8
Layer_27
  10
221.24411
  20
165.852
  0
VERTEX
  5
25a
  8
Layer_27
  10
221.55732
  20
165.88588
  0
VERTEX
  5
25b
  8
Layer_27
  10
221.84339
  20
165.93333
  0
VERTEX
  5
25c
  8
Layer_27
  10
222.10234
  20
165.99434
  0
VERTEX
  5
25d
  8
Layer_27
  10
222.33418
  20
166.06892
  0
VERTEX
  5
25e
  8
Layer_27
  10
222.53891
  20
166.15707
  0
VERTEX
  5
25f
  8
Layer_27
  10
222.71653
  20
166.2588
  0
VERTEX
  5
260
  8
Layer_27
  10
222.87024
  20
166.37795
  0
VERTEX
  5
261
  8
Layer_27
  10
223.00348
  20
166.51861
  0
VERTEX
  5
262
  8
Layer_27
  10
223.11625
  20
166.68078
  0
VERTEX
  5
263
  8
Layer_27
  10
223.20853
  20
166.86447
  0
VERTEX
  5
264
  8
Layer_27
  10
223.28032
  20
167.06968
  0
VERTEX
  5
265
  8
Layer_27
  10
223.33161
  20
167.29641
  0
VERTEX
  5
266
  8
Layer_27
  10
223.36239
  20
167.54466
  0
VERTEX
  5
267
  8
Layer_27
  10
223.37265
  20
167.81444
  42
0.080500273
  0
VERTEX
  5
268
  8
Layer_27
  10
223.2562
  20
168.67175
  42
0.13919147
  0
VERTEX
  5
269
  8
Layer_27
  10
222.8223
  20
169.28566
  0
VERTEX
  5
26a
  8
Layer_27
  10
222.64838
  20
169.41386
  0
VERTEX
  5
26b
  8
Layer_27
  10
222.44398
  20
169.53416
  0
VERTEX
  5
26c
  8
Layer_27
  10
222.20915
  20
169.64662
  0
VERTEX
  5
26d
  8
Layer_27
  10
221.94397
  20
169.75127
  42
0.023195052
  0
VERTEX
  5
26e
  8
Layer_27
  10
220.47292
  20
170.18518
  0
VERTEX
  5
26f
  8
Layer_27
  10
219.91526
  20
170.32534
  0
VERTEX
  5
270
  8
Layer_27
  10
219.40657
  20
170.47089
  0
VERTEX
  5
271
  8
Layer_27
  10
218.94684
  20
170.62176
  0
VERTEX
  5
272
  8
Layer_27
  10
218.53608
  20
170.77791
  0
VERTEX
  5
273
  8
Layer_27
  10
218.16826
  20
170.9465
  0
VERTEX
  5
274
  8
Layer_27
  10
217.83756
  20
171.13499
  0
VERTEX
  5
275
  8
Layer_27
  10
217.54391
  20
171.34338
  0
VERTEX
  5
276
  8
Layer_27
  10
217.28723
  20
171.57166
  42
-0.12375693
  0
VERTEX
  5
277
  8
Layer_27
  10
216.60992
  20
172.71457
  0
VERTEX
  5
278
  8
Layer_27
  10
216.52191
  20
173.06714
  0
VERTEX
  5
279
  8
Layer_27
  10
216.45909
  20
173.45802
  0
VERTEX
  5
27a
  8
Layer_27
  10
216.42144
  20
173.88727
  0
VERTEX
  5
27b
  8
Layer_27
  10
216.4089
  20
174.35495
  0
VERTEX
  5
27c
  8
Layer_27
  10
216.42957
  20
174.89616
  0
VERTEX
  5
27d
  8
Layer_27
  10
216.49156
  20
175.39803
  0
VERTEX
  5
27e
  8
Layer_27
  10
216.59489
  20
175.86056
  0
VERTEX
  5
27f
  8
Layer_27
  10
216.73957
  20
176.28373
  0
VERTEX
  5
280
  8
Layer_27
  10
216.92559
  20
176.66755
  0
VERTEX
  5
281
  8
Layer_27
  10
217.15297
  20
177.01201
  0
VERTEX
  5
282
  8
Layer_27
  10
217.42171
  20
177.3171
  0
VERTEX
  5
283
  8
Layer_27
  10
217.73182
  20
177.58283
  0
VERTEX
  5
284
  8
Layer_27
  10
218.08184
  20
177.81355
  0
VERTEX
  5
285
  8
Layer_27
  10
218.47057
  20
178.0135
  0
VERTEX
  5
286
  8
Layer_27
  10
218.898
  20
178.18267
  0
VERTEX
  5
287
  8
Layer_27
  10
219.36415
  20
178.32107
  0
VERTEX
  5
288
  8
Layer_27
  10
219.869
  20
178.42872
  0
VERTEX
  5
289
  8
Layer_27
  10
220.41257
  20
178.5056
  0
VERTEX
  5
28a
  8
Layer_27
  10
220.99484
  20
178.55172
  0
VERTEX
  5
28b
  8
Layer_27
  10
221.61582
  20
178.5671
  42
-0.039536899
  0
VERTEX
  5
28c
  8
Layer_27
  10
223.79605
  20
178.40845
  0
VERTEX
  5
28d
  8
Layer_27
  10
224.26698
  20
178.32568
  0
VERTEX
  5
28e
  8
Layer_27
  10
224.68501
  20
178.2363
  0
VERTEX
  5
28f
  8
Layer_27
  10
225.05014
  20
178.14037
  0
VERTEX
  5
290
  8
Layer_27
  10
225.36236
  20
178.03793
  0
VERTEX
  5
291
  8
Layer_27
  10
225.36237
  20
175.68854
  42
0.030180781
  0
VERTEX
  5
292
  8
Layer_27
  10
224.64268
  20
175.88957
  42
0.012985365
  0
VERTEX
  5
293
  8
Layer_27
  10
223.72198
  20
176.06958
  42
0.021813498
  0
VERTEX
  5
294
  8
Layer_27
  10
222.69534
  20
176.19653
  42
0.019859964
  0
VERTEX
  5
295
  8
Layer_27
  10
221.70058
  20
176.23889
  0
VERTEX
  5
296
  8
Layer_27
  10
221.0781
  20
176.21639
  0
VERTEX
  5
297
  8
Layer_27
  10
220.54425
  20
176.1489
  0
VERTEX
  5
298
  8
Layer_27
  10
220.09904
  20
176.03644
  0
VERTEX
  5
299
  8
Layer_27
  10
219.74255
  20
175.87906
  0
VERTEX
  5
29a
  8
Layer_27
  10
219.59618
  20
175.77744
  0
VERTEX
  5
29b
  8
Layer_27
  10
219.46934
  20
175.65269
  0
VERTEX
  5
29c
  8
Layer_27
  10
219.36202
  20
175.5048
  0
VERTEX
  5
29d
  8
Layer_27
  10
219.27421
  20
175.33379
  0
VERTEX
  5
29e
  8
Layer_27
  10
219.20592
  20
175.13965
  0
VERTEX
  5
29f
  8
Layer_27
  10
219.15715
  20
174.92239
  0
VERTEX
  5
2a0
  8
Layer_27
  10
219.12788
  20
174.68201
  0
VERTEX
  5
2a1
  8
Layer_27
  10
219.11813
  20
174.41851
  42
0.072200452
  0
VERTEX
  5
2a2
  8
Layer_27
  10
219.20288
  20
173.70934
  42
0.15702183
  0
VERTEX
  5
2a3
  8
Layer_27
  10
219.57323
  20
173.20135
  0
VERTEX
  5
2a4
  8
Layer_27
  10
219.73132
  20
173.09223
  0
VERTEX
  5
2a5
  8
Layer_27
  10
219.91984
  20
172.98705
  0
VERTEX
  5
2a6
  8
Layer_27
  10
220.13879
  20
172.88585
  0
VERTEX
  5
2a7
  8
Layer_27
  10
220.38816
  20
172.78864
  42
0.026701742
  0
VERTEX
  5
2a8
  8
Layer_27
  10
221.78514
  20
172.38641
  0
VERTEX
  5
2a9
  8
Layer_27
  10
222.40219
  20
172.22507
  0
VERTEX
  5
2aa
  8
Layer_27
  10
222.96244
  20
172.05836
  0
VERTEX
  5
2ab
  8
Layer_27
  10
223.46588
  20
171.88636
  0
VERTEX
  5
2ac
  8
Layer_27
  10
223.91249
  20
171.70912
  0
VERTEX
  5
2ad
  8
Layer_27
  10
224.3086
  20
171.51849
  0
VERTEX
  5
2ae
  8
Layer_27
  10
224.66109
  20
171.30679
  0
VERTEX
  5
2af
  8
Layer_27
  10
224.97001
  20
171.07401
  0
VERTEX
  5
2b0
  8
Layer_27
  10
225.23541
  20
170.82011
  42
-0.12008553
  0
VERTEX
  5
2b1
  8
Layer_27
  10
225.92322
  20
169.55025
  0
VERTEX
  5
2b2
  8
Layer_27
  10
226.0112
  20
169.16113
  0
VERTEX
  5
2b3
  8
Layer_27
  10
226.07408
  20
168.73507
  0
VERTEX
  5
2b4
  8
Layer_27
  10
226.11183
  20
168.27211
  0
VERTEX
  5
2b5
  8
Layer_27
  10
226.12442
  20
167.77224
  0
VERTEX
  5
2b6
  8
Layer_27
  10
226.10391
  20
167.24917
  0
VERTEX
  5
2b7
  8
Layer_27
  10
226.04238
  20
166.75951
  0
VERTEX
  5
2b8
  8
Layer_27
  10
225.93985
  20
166.30325
  0
VERTEX
  5
2b9
  8
Layer_27
  10
225.79629
  20
165.8804
  0
VERTEX
  5
2ba
  8
Layer_27
  10
225.61173
  20
165.49097
  0
VERTEX
  5
2bb
  8
Layer_27
  10
225.38616
  20
165.13494
  0
VERTEX
  5
2bc
  8
Layer_27
  10
225.11959
  20
164.81234
  0
VERTEX
  5
2bd
  8
Layer_27
  10
224.81201
  20
164.52316
  0
VERTEX
  5
2be
  8
Layer_27
  10
224.4594
  20
164.26757
  0
VERTEX
  5
2bf
  8
Layer_27
  10
224.05786
  20
164.04608
  0
VERTEX
  5
2c0
  8
Layer_27
  10
223.60738
  20
163.8587
  0
VERTEX
  5
2c1
  8
Layer_27
  10
223.10798
  20
163.70541
  0
VERTEX
  5
2c2
  8
Layer_27
  10
222.55964
  20
163.5862
  0
VERTEX
  5
2c3
  8
Layer_27
  10
221.96238
  20
163.50106
  0
VERTEX
  5
2c4
  8
Layer_27
  10
221.31618
  20
163.44999
  0
VERTEX
  5
2c5
  8
Layer_27
  10
220.62105
  20
163.43296
  0
SEQEND
  0
POLYLINE
  5
2c7
  8
Layer_27
  62
138
  70
1
  66
1
  10
0
  20
0
  30
0
  0
VERTEX
  5
2c7
  8
Layer_27
  10
242.33791
  20
166.0788
  0
VERTEX
  5
2c8
  8
Layer_27
  10
242.33791
  20
163.64467
  0
VERTEX
  5
2c9
  8
Layer_27
  10
233.25731
  20
163.64467
  0
VERTEX
  5
2ca
  8
Layer_27
  10
233.25731
  20
178.33438
  0
VERTEX
  5
2cb
  8
Layer_27
  10
241.95686
  20
178.33438
  0
VERTEX
  5
2cc
  8
Layer_27
  10
241.95686
  20
175.92126
  0
VERTEX
  5
2cd
  8
Layer_27
  10
236.03027
  20
175.92126
  0
VERTEX
  5
2ce
  8
Layer_27
  10
236.03027
  20
172.3654
  0
VERTEX
  5
2cf
  8
Layer_27
  10
241.53346
  20
172.3654
  0
VERTEX
  5
2d0
  8
Layer_27
  10
241.53346
  20
170.05823
  0
VERTEX
  5
2d1
  8
Layer_27
  10
236.03027
  20
170.05823
  0
VERTEX
  5
2d2
  8
Layer_27
  10
236.03027
  20
166.0788
  0
SEQEND
  0
POLYLINE
  5
2d4
  8
Layer_27
  62
138
  70
1
  66
1
  10
0
  20
0
  30
0
  0
VERTEX
  5
2d4
  8
Layer_27
  10
257.68356
  20
163.64467
  0
VERTEX
  5
2d5
  8
Layer_27
  10
254.02176
  20
169.1904
  0
VERTEX
  5
2d6
  8
Layer_27
  10
253.916
  20
169.1904
  0
VERTEX
  5
2d7
  8
Layer_27
  10
252.11697
  20
169.1904
  0
VERTEX
  5
2d8
  8
Layer_27
  10
252.11697
  20
163.64467
  0
VERTEX
  5
2d9
  8
Layer_27
  10
249.34401
  20
163.64467
  0
VERTEX
  5
2da
  8
Layer_27
  10
249.34401
  20
178.33438
  0
VERTEX
  5
2db
  8
Layer_27
  10
253.916
  20
178.33438
  0
VERTEX
  5
2dc
  8
Layer_27
  10
254.63166
  20
178.31912
  0
VERTEX
  5
2dd
  8
Layer_27
  10
255.29706
  20
178.2734
  0
VERTEX
  5
2de
  8
Layer_27
  10
255.9122
  20
178.19732
  0
VERTEX
  5
2df
  8
Layer_27
  10
256.47709
  20
178.09098
  0
VERTEX
  5
2e0
  8
Layer_27
  10
256.99172
  20
177.95068
  0
VERTEX
  5
2e1
  8
Layer_27
  10
257.4561
  20
177.77339
  0
VERTEX
  5
2e2
  8
Layer_27
  10
257.87022
  20
177.55909
  0
VERTEX
  5
2e3
  8
Layer_27
  10
258.23409
  20
177.30774
  42
-0.13483598
  0
VERTEX
  5
2e4
  8
Layer_27
  10
259.23938
  20
175.90025
  0
VERTEX
  5
2e5
  8
Layer_27
  10
259.38296
  20
175.4424
  0
VERTEX
  5
2e6
  8
Layer_27
  10
259.48556
  20
174.937
  0
VERTEX
  5
2e7
  8
Layer_27
  10
259.54714
  20
174.38406
  0
VERTEX
  5
2e8
  8
Layer_27
  10
259.56768
  20
173.78358
  0
VERTEX
  5
2e9
  8
Layer_27
  10
259.55691
  20
173.33124
  0
VERTEX
  5
2ea
  8
Layer_27
  10
259.52462
  20
172.9057
  0
VERTEX
  5
2eb
  8
Layer_27
  10
259.47081
  20
172.50696
  0
VERTEX
  5
2ec
  8
Layer_27
  10
259.39551
  20
172.13502
  0
VERTEX
  5
2ed
  8
Layer_27
  10
259.29873
  20
171.78988
  0
VERTEX
  5
2ee
  8
Layer_27
  10
259.1805
  20
171.47156
  0
VERTEX
  5
2ef
  8
Layer_27
  10
259.04081
  20
171.18005
  0
VERTEX
  5
2f0
  8
Layer_27
  10
258.8797
  20
170.91537
  0
VERTEX
  5
2f1
  8
Layer_27
  10
258.69557
  20
170.67339
  0
VERTEX
  5
2f2
  8
Layer_27
  10
258.48733
  20
170.45028
  0
VERTEX
  5
2f3
  8
Layer_27
  10
258.25499
  20
170.24604
  0
VERTEX
  5
2f4
  8
Layer_27
  10
257.99853
  20
170.06066
  0
VERTEX
  5
2f5
  8
Layer_27
  10
257.71794
  20
169.89415
  0
VERTEX
  5
2f6
  8
Layer_27
  10
257.41322
  20
169.74652
  0
VERTEX
  5
2f7
  8
Layer_27
  10
257.08435
  20
169.61776
  0
VERTEX
  5
2f8
  8
Layer_27
  10
256.73134
  20
169.50787
  0
VERTEX
  5
2f9
  8
Layer_27
  10
260.9433
  20
163.64467
  0
SEQEND
  0
POLYLINE
  5
2fb
  8
Layer_27
  62
138
  70
1
  66
1
  10
0
  20
0
  30
0
  0
VERTEX
  5
2fb
  8
Layer_27
  10
253.53497
  20
171.30707
  42
0.038538338
  0
VERTEX
  5
2fc
  8
Layer_27
  10
255.03772
  20
171.40233
  0
VERTEX
  5
2fd
  8
Layer_27
  10
255.33075
  20
171.46044
  0
VERTEX
  5
2fe
  8
Layer_27
  10
255.59596
  20
171.53973
  0
VERTEX
  5
2ff
  8
Layer_27
  10
255.83346
  20
171.64023
  0
VERTEX
  5
300
  8
Layer_27
  10
256.04335
  20
171.762
  42
0.1566795
  0
VERTEX
  5
301
  8
Layer_27
  10
256.6149
  20
172.51355
  0
VERTEX
  5
302
  8
Layer_27
  10
256.69342
  20
172.77538
  0
VERTEX
  5
303
  8
Layer_27
  10
256.74964
  20
173.07434
  0
VERTEX
  5
304
  8
Layer_27
  10
256.78344
  20
173.41042
  0
VERTEX
  5
305
  8
Layer_27
  10
256.79472
  20
173.78358
  0
VERTEX
  5
306
  8
Layer_27
  10
256.78344
  20
174.12612
  0
VERTEX
  5
307
  8
Layer_27
  10
256.74964
  20
174.43436
  0
VERTEX
  5
308
  8
Layer_27
  10
256.69342
  20
174.70823
  0
VERTEX
  5
309
  8
Layer_27
  10
256.61489
  20
174.94768
  42
0.15354857
  0
VERTEX
  5
30a
  8
Layer_27
  10
256.04333
  20
175.64618
  0
VERTEX
  5
30b
  8
Layer_27
  10
255.83346
  20
175.76325
  0
VERTEX
  5
30c
  8
Layer_27
  10
255.59596
  20
175.86048
  0
VERTEX
  5
30d
  8
Layer_27
  10
255.33075
  20
175.93784
  0
VERTEX
  5
30e
  8
Layer_27
  10
255.03773
  20
175.99533
  42
0.038538338
  0
VERTEX
  5
30f
  8
Layer_27
  10
253.53497
  20
176.09059
  0
VERTEX
  5
310
  8
Layer_27
  10
252.11697
  20
176.09059
  0
VERTEX
  5
311
  8
Layer_27
  10
252.11697
  20
171.30707
  0
SEQEND
  0
POLYLINE
  5
313
  8
Layer_27
  62
138
  70
1
  66
1
  10
0
  20
0
  30
0
  0
VERTEX
  5
313
  8
Layer_27
  10
265.09189
  20
178.33438
  0
VERTEX
  5
314
  8
Layer_27
  10
268.11877
  20
178.33438
  0
VERTEX
  5
315
  8
Layer_27
  10
271.8653
  20
166.58678
  0
VERTEX
  5
316
  8
Layer_27
  10
271.99243
  20
166.58678
  0
VERTEX
  5
317
  8
Layer_27
  10
275.84473
  20
178.33438
  0
VERTEX
  5
318
  8
Layer_27
  10
278.70209
  20
178.33438
  0
VERTEX
  5
319
  8
Layer_27
  10
273.57993
  20
163.64467
  0
VERTEX
  5
31a
  8
Layer_27
  10
270.12967
  20
163.64467
  0
SEQEND
  0
POLYLINE
  5
31c
  8
Layer_27
  62
138
  70
1
  66
1
  10
0
  20
0
  30
0
  0
VERTEX
  5
31c
  8
Layer_27
  10
294.04791
  20
166.0788
  0
VERTEX
  5
31d
  8
Layer_27
  10
294.04791
  20
163.64467
  0
VERTEX
  5
31e
  8
Layer_27
  10
284.96735
  20
163.64467
  0
VERTEX
  5
31f
  8
Layer_27
  10
284.96735
  20
178.33438
  0
VERTEX
  5
320
  8
Layer_27
  10
293.6669
  20
178.33438
  0
VERTEX
  5
321
  8
Layer_27
  10
293.6669
  20
175.92126
  0
VERTEX
  5
322
  8
Layer_27
  10
287.7403
  20
175.92126
  0
VERTEX
  5
323
  8
Layer_27
  10
287.7403
  20
172.3654
  0
VERTEX
  5
324
  8
Layer_27
  10
293.2435
  20
172.3654
  0
VERTEX
  5
325
  8
Layer_27
  10
293.2435
  20
170.05823
  0
VERTEX
  5
326
  8
Layer_27
  10
287.7403
  20
170.05823
  0
VERTEX
  5
327
  8
Layer_27
  10
287.7403
  20
166.0788
  0
SEQEND
  0
POLYLINE
  5
329
  8
Layer_27
  62
138
  70
1
  66
1
  10
0
  20
0
  30
0
  0
VERTEX
  5
329
  8
Layer_27
  10
305.81637
  20
178.33438
  0
VERTEX
  5
32a
  8
Layer_27
  10
306.60203
  20
178.31652
  0
VERTEX
  5
32b
  8
Layer_27
  10
307.35081
  20
178.26294
  0
VERTEX
  5
32c
  8
Layer_27
  10
308.06265
  20
178.17364
  0
VERTEX
  5
32d
  8
Layer_27
  10
308.73746
  20
178.04861
  0
VERTEX
  5
32e
  8
Layer_27
  10
309.36972
  20
177.8733
  0
VERTEX
  5
32f
  8
Layer_27
  10
309.9544
  20
177.63317
  0
VERTEX
  5
330
  8
Layer_27
  10
310.49148
  20
177.32826
  0
VERTEX
  5
331
  8
Layer_27
  10
310.98091
  20
176.95858
  0
VERTEX
  5
332
  8
Layer_27
  10
311.42074
  20
176.51655
  0
VERTEX
  5
333
  8
Layer_27
  10
311.80903
  20
175.99527
  0
VERTEX
  5
334
  8
Layer_27
  10
312.14576
  20
175.3947
  0
VERTEX
  5
335
  8
Layer_27
  10
312.43095
  20
174.71479
  0
VERTEX
  5
336
  8
Layer_27
  10
312.55244
  20
174.34166
  0
VERTEX
  5
337
  8
Layer_27
  10
312.65774
  20
173.94211
  0
VERTEX
  5
338
  8
Layer_27
  10
312.74686
  20
173.51614
  0
VERTEX
  5
339
  8
Layer_27
  10
312.81978
  20
173.06373
  0
VERTEX
  5
33a
  8
Layer_27
  10
312.8765
  20
172.58486
  0
VERTEX
  5
33b
  8
Layer_27
  10
312.91702
  20
172.07953
  0
VERTEX
  5
33c
  8
Layer_27
  10
312.94133
  20
171.54773
  0
VERTEX
  5
33d
  8
Layer_27
  10
312.94944
  20
170.98944
  0
VERTEX
  5
33e
  8
Layer_27
  10
312.94133
  20
170.46633
  0
VERTEX
  5
33f
  8
Layer_27
  10
312.91702
  20
169.96608
  0
VERTEX
  5
340
  8
Layer_27
  10
312.8765
  20
169.48866
  0
VERTEX
  5
341
  8
Layer_27
  10
312.81978
  20
169.03409
  0
VERTEX
  5
342
  8
Layer_27
  10
312.74686
  20
168.60235
  0
VERTEX
  5
343
  8
Layer_27
  10
312.65774
  20
168.19344
  0
VERTEX
  5
344
  8
Layer_27
  10
312.55244
  20
167.80735
  0
VERTEX
  5
345
  8
Layer_27
  10
312.43095
  20
167.44409
  0
VERTEX
  5
346
  8
Layer_27
  10
312.14576
  20
166.77523
  0
VERTEX
  5
347
  8
Layer_27
  10
311.80903
  20
166.17657
  0
VERTEX
  5
348
  8
Layer_27
  10
311.42074
  20
165.6481
  0
VERTEX
  5
349
  8
Layer_27
  10
310.98091
  20
165.18979
  42
-0.12004308
  0
VERTEX
  5
34a
  8
Layer_27
  10
308.73746
  20
163.994
  0
VERTEX
  5
34b
  8
Layer_27
  10
308.06265
  20
163.84117
  0
VERTEX
  5
34c
  8
Layer_27
  10
307.35081
  20
163.732
  0
VERTEX
  5
34d
  8
Layer_27
  10
306.60203
  20
163.6665
  0
VERTEX
  5
34e
  8
Layer_27
  10
305.81637
  20
163.64466
  0
VERTEX
  5
34f
  8
Layer_27
  10
301.05386
  20
163.64467
  0
VERTEX
  5
350
  8
Layer_27
  10
301.05386
  20
178.33438
  0
VERTEX
  5
351
  8
Layer_27
  10
305.81638
  20
178.33438
  0
SEQEND
  0
POLYLINE
  5
353
  8
Layer_27
  62
138
  70
1
  66
1
  10
0
  20
0
  30
0
  0
VERTEX
  5
353
  8
Layer_27
  10
305.68925
  20
166.03642
  0
VERTEX
  5
354
  8
Layer_27
  10
306.20388
  20
166.05096
  0
VERTEX
  5
355
  8
Layer_27
  10
306.68944
  20
166.0946
  0
VERTEX
  5
356
  8
Layer_27
  10
307.14594
  20
166.16737
  0
VERTEX
  5
357
  8
Layer_27
  10
307.57336
  20
166.26931
  42
0.1282509
  0
VERTEX
  5
358
  8
Layer_27
  10
308.95966
  20
167.06306
  0
VERTEX
  5
359
  8
Layer_27
  10
309.22289
  20
167.36794
  0
VERTEX
  5
35a
  8
Layer_27
  10
309.45181
  20
167.72185
  0
VERTEX
  5
35b
  8
Layer_27
  10
309.64636
  20
168.12472
  0
VERTEX
  5
35c
  8
Layer_27
  10
309.80648
  20
168.57649
  0
VERTEX
  5
35d
  8
Layer_27
  10
309.93133
  20
169.08447
  0
VERTEX
  5
35e
  8
Layer_27
  10
310.02059
  20
169.65597
  0
VERTEX
  5
35f
  8
Layer_27
  10
310.0742
  20
170.29097
  0
VERTEX
  5
360
  8
Layer_27
  10
310.09208
  20
170.98944
  0
VERTEX
  5
361
  8
Layer_27
  10
310.07355
  20
171.71708
  0
VERTEX
  5
362
  8
Layer_27
  10
310.01797
  20
172.37587
  0
VERTEX
  5
363
  8
Layer_27
  10
309.92537
  20
172.96587
  0
VERTEX
  5
364
  8
Layer_27
  10
309.7958
  20
173.48713
  0
VERTEX
  5
365
  8
Layer_27
  10
309.63036
  20
173.94805
  0
VERTEX
  5
366
  8
Layer_27
  10
309.43062
  20
174.35747
  0
VERTEX
  5
367
  8
Layer_27
  10
309.19651
  20
174.71537
  0
VERTEX
  5
368
  8
Layer_27
  10
308.92798
  20
175.02175
  42
0.13414025
  0
VERTEX
  5
369
  8
Layer_27
  10
307.54132
  20
175.7838
  42
0.060459994
  0
VERTEX
  5
36a
  8
Layer_27
  10
305.68924
  20
175.98483
  0
VERTEX
  5
36b
  8
Layer_27
  10
303.82684
  20
175.98483
  0
VERTEX
  5
36c
  8
Layer_27
  10
303.82684
  20
166.03642
  0
VERTEX
  5
36d
  8
Layer_27
  10
305.68924
  20
166.03642
  0
SEQEND
  0
ENDSEC
  0
EOF
