  0
SECTION
  2
HEADER
  9
$ACADVER
  1
AC1014
  9
$HANDSEED
  5
FFFF
  9
$MEASUREMENT
 70
     1
  0
ENDSEC
  0
SECTION
  2
TABLES
  0
TABLE
  2
VPORT
  5
8
330
0
100
AcDbSymbolTable
 70
     4
  0
VPORT
  5
2E
330
8
100
AcDbSymbolTableRecord
100
AcDbViewportTableRecord
  2
*ACTIVE
 70
     0
 10
0.0
 20
0.0
 11
1.0
 21
1.0
 12
210.0
 22
148.5
 13
0.0
 23
0.0
 14
10.0
 24
10.0
 15
10.0
 25
10.0
 16
0.0
 26
0.0
 36
1.0
 17
0.0
 27
0.0
 37
0.0
 40
341.0
 41
1.24
 42
50.0
 43
0.0
 44
0.0
 50
0.0
 51
0.0
 71
     0
 72
   100
 73
     1
 74
     3
 75
     0
 76
     0
 77
     0
 78
     0
  0
ENDTAB
  0
TABLE
  2
LTYPE
  5
5
330
0
100
AcDbSymbolTable
 70
     1
  0
LTYPE
  5
14
330
5
100
AcDbSymbolTableRecord
100
AcDbLinetypeTableRecord
  2
BYBLOCK
 70
     0
  3

 72
    65
 73
     0
 40
0.0
  0
LTYPE
  5
15
330
5
100
AcDbSymbolTableRecord
100
AcDbLinetypeTableRecord
  2
BYLAYER
 70
     0
  3

 72
    65
 73
     0
 40
0.0
  0
LTYPE
  5
16
330
5
100
AcDbSymbolTableRecord
100
AcDbLinetypeTableRecord
  2
CONTINUOUS
 70
     0
  3
Solid line
 72
    65
 73
     0
 40
0.0
  0
ENDTAB
  0
TABLE
  2
LAYER
  5
2
100
AcDbSymbolTable
 70
1
  0
LAYER
  5
50
100
AcDbSymbolTableRecord
100
AcDbLayerTableRecord
  2
0
 70
0
  6
CONTINUOUS
  0
ENDTAB
  0
TABLE
  2
STYLE
  5
3
330
0
100
AcDbSymbolTable
 70
     1
  0
STYLE
  5
11
330
3
100
AcDbSymbolTableRecord
100
AcDbTextStyleTableRecord
  2
STANDARD
 70
     0
 40
0.0
 41
1.0
 50
0.0
 71
     0
 42
2.5
  3
txt
  4

  0
ENDTAB
  0
TABLE
  2
VIEW
  5
6
330
0
100
AcDbSymbolTable
 70
     0
  0
ENDTAB
  0
TABLE
  2
UCS
  5
7
330
0
100
AcDbSymbolTable
 70
     0
  0
ENDTAB
  0
TABLE
  2
APPID
  5
9
330
0
100
AcDbSymbolTable
 70
     2
  0
APPID
  5
12
330
9
100
AcDbSymbolTableRecord
100
AcDbRegAppTableRecord
  2
ACAD
 70
     0
  0
ENDTAB
  0
TABLE
  2
DIMSTYLE
  5
A
330
0
100
AcDbSymbolTable
 70
     1
  0
DIMSTYLE
105
27
330
A
100
AcDbSymbolTableRecord
100
AcDbDimStyleTableRecord
  2
ISO-25
 70
     0
  3

  4

  5

  6

  7

 40
1.0
 41
2.5
 42
0.625
 43
3.75
 44
1.25
 45
0.0
 46
0.0
 47
0.0
 48
0.0
140
2.5
141
2.5
142
0.0
143
0.03937007874016
144
1.0
145
0.0
146
1.0
147
0.625
 71
     0
 72
     0
 73
     0
 74
     0
 75
     0
 76
     0
 77
     1
 78
     8
170
     0
171
     3
172
     1
173
     0
174
     0
175
     0
176
     0
177
     0
178
     0
270
     2
271
     2
272
     2
273
     2
274
     3
340
11
275
     0
280
     0
281
     0
282
     0
283
     0
284
     8
285
     0
286
     0
287
     3
288
     0
  0
ENDTAB
  0
TABLE
  2
BLOCK_RECORD
  5
1
330
0
100
AcDbSymbolTable
 70
     1
  0
BLOCK_RECORD
  5
1F
330
1
100
AcDbSymbolTableRecord
100
AcDbBlockTableRecord
  2
*MODEL_SPACE
  0
BLOCK_RECORD
  5
1B
330
1
100
AcDbSymbolTableRecord
100
AcDbBlockTableRecord
  2
*PAPER_SPACE
  0
ENDTAB
  0
ENDSEC
  0
SECTION
  2
BLOCKS
  0
BLOCK
  5
20
330
1F
100
AcDbEntity
  8
0
100
AcDbBlockBegin
  2
*MODEL_SPACE
 70
     0
 10
0.0
 20
0.0
 30
0.0
  3
*MODEL_SPACE
  1

  0
ENDBLK
  5
21
330
1F
100
AcDbEntity
  8
0
100
AcDbBlockEnd
  0
BLOCK
  5
1C
330
1B
100
AcDbEntity
 67
     1
  8
0
100
AcDbBlockBegin
  2
*PAPER_SPACE
  1

  0
ENDBLK
  5
1D
330
1B
100
AcDbEntity
 67
     1
  8
0
100
AcDbBlockEnd
  0
ENDSEC
  0
SECTION
  2
ENTITIES
  0
LWPOLYLINE
  5
100
100
AcDbEntity
  8
0
 62
7
100
AcDbPolyline
 90
7
 70
0
 10
5.509419
 20
71.967352
 30
0.0
 10
7.361502
 20
69.321519
 30
0.0
 10
58.955146
 20
69.321519
 30
0.0
 10
60.807230
 20
71.967352
 30
0.0
 10
60.807230
 20
60.061102
 30
0.0
 10
37.788480
 20
60.061102
 30
0.0
 10
37.788480
 20
12.965189
 30
0.0
  0
LWPOLYLINE
  5
101
100
AcDbEntity
  8
0
 62
7
100
AcDbPolyline
 90
2
 70
0
 10
20.590563
 20
12.965189
 30
0.0
 10
37.788480
 20
12.965189
 30
0.0
  0
LWPOLYLINE
  5
102
100
AcDbEntity
  8
0
 62
7
100
AcDbPolyline
 90
2
 70
0
 10
20.590563
 20
22.225685
 30
0.0
 10
20.590563
 20
12.965189
 30
0.0
  0
LWPOLYLINE
  5
103
100
AcDbEntity
  8
0
 62
7
100
AcDbPolyline
 90
2
 70
0
 10
29.850980
 20
22.225685
 30
0.0
 10
20.590563
 20
22.225685
 30
0.0
  0
LWPOLYLINE
  5
104
100
AcDbEntity
  8
0
 62
7
100
AcDbPolyline
 90
2
 70
0
 10
29.850980
 20
26.988185
 30
0.0
 10
29.850980
 20
22.225685
 30
0.0
  0
LWPOLYLINE
  5
105
100
AcDbEntity
  8
0
 62
7
100
AcDbPolyline
 90
2
 70
0
 10
20.590563
 20
26.988185
 30
0.0
 10
29.850980
 20
26.988185
 30
0.0
  0
LWPOLYLINE
  5
106
100
AcDbEntity
  8
0
 62
7
100
AcDbPolyline
 90
2
 70
0
 10
20.590563
 20
33.602769
 30
0.0
 10
20.590563
 20
26.988185
 30
0.0
  0
LWPOLYLINE
  5
107
100
AcDbEntity
  8
0
 62
7
100
AcDbPolyline
 90
2
 70
0
 10
28.528063
 20
33.602769
 30
0.0
 10
20.590563
 20
33.602769
 30
0.0
  0
LWPOLYLINE
  5
108
100
AcDbEntity
  8
0
 62
7
100
AcDbPolyline
 90
3
 70
0
 10
28.528063
 20
33.602769
 30
0.0
 10
28.528063
 20
60.061102
 30
0.0
 10
5.509419
 20
60.061102
 30
0.0
  0
LWPOLYLINE
  5
109
100
AcDbEntity
  8
0
 62
7
100
AcDbPolyline
 90
2
 70
0
 10
5.509419
 20
71.967352
 30
0.0
 10
5.509419
 20
60.061102
 30
0.0
  0
LWPOLYLINE
  5
10a
100
AcDbEntity
  8
0
 62
7
100
AcDbPolyline
 90
7
 70
0
 10
47.935250
 20
12.945441
 30
0.0
 10
49.787334
 20
15.591274
 30
0.0
 10
101.380978
 20
15.591274
 30
0.0
 10
103.233061
 20
12.945441
 30
0.0
 10
103.233061
 20
24.851691
 30
0.0
 10
80.214311
 20
24.851691
 30
0.0
 10
80.214311
 20
71.947603
 30
0.0
  0
LWPOLYLINE
  5
10b
100
AcDbEntity
  8
0
 62
7
100
AcDbPolyline
 90
2
 70
0
 10
63.016395
 20
71.947603
 30
0.0
 10
80.214311
 20
71.947603
 30
0.0
  0
LWPOLYLINE
  5
10c
100
AcDbEntity
  8
0
 62
7
100
AcDbPolyline
 90
2
 70
0
 10
63.016395
 20
62.687107
 30
0.0
 10
63.016395
 20
71.947603
 30
0.0
  0
LWPOLYLINE
  5
10d
100
AcDbEntity
  8
0
 62
7
100
AcDbPolyline
 90
2
 70
0
 10
72.276811
 20
62.687107
 30
0.0
 10
63.016395
 20
62.687107
 30
0.0
  0
LWPOLYLINE
  5
10e
100
AcDbEntity
  8
0
 62
7
100
AcDbPolyline
 90
2
 70
0
 10
72.276811
 20
57.924607
 30
0.0
 10
72.276811
 20
62.687107
 30
0.0
  0
LWPOLYLINE
  5
10f
100
AcDbEntity
  8
0
 62
7
100
AcDbPolyline
 90
2
 70
0
 10
63.016395
 20
57.924607
 30
0.0
 10
72.276811
 20
57.924607
 30
0.0
  0
LWPOLYLINE
  5
110
100
AcDbEntity
  8
0
 62
7
100
AcDbPolyline
 90
2
 70
0
 10
63.016395
 20
51.310024
 30
0.0
 10
63.016395
 20
57.924607
 30
0.0
  0
LWPOLYLINE
  5
111
100
AcDbEntity
  8
0
 62
7
100
AcDbPolyline
 90
2
 70
0
 10
70.953895
 20
51.310024
 30
0.0
 10
63.016395
 20
51.310024
 30
0.0
  0
LWPOLYLINE
  5
112
100
AcDbEntity
  8
0
 62
7
100
AcDbPolyline
 90
3
 70
0
 10
70.953895
 20
51.310024
 30
0.0
 10
70.953895
 20
24.851691
 30
0.0
 10
47.935250
 20
24.851691
 30
0.0
  0
LWPOLYLINE
  5
113
100
AcDbEntity
  8
0
 62
7
100
AcDbPolyline
 90
2
 70
0
 10
47.935250
 20
12.945441
 30
0.0
 10
47.935250
 20
24.851691
 30
0.0
  0
LWPOLYLINE
  5
114
100
AcDbEntity
  8
0
 62
7
100
AcDbPolyline
 90
7
 70
0
 10
90.361082
 20
71.967352
 30
0.0
 10
92.213165
 20
69.321519
 30
0.0
 10
143.806810
 20
69.321519
 30
0.0
 10
145.658893
 20
71.967352
 30
0.0
 10
145.658893
 20
60.061102
 30
0.0
 10
122.640143
 20
60.061102
 30
0.0
 10
122.640143
 20
12.965189
 30
0.0
  0
LWPOLYLINE
  5
115
100
AcDbEntity
  8
0
 62
7
100
AcDbPolyline
 90
2
 70
0
 10
105.442226
 20
12.965189
 30
0.0
 10
122.640143
 20
12.965189
 30
0.0
  0
LWPOLYLINE
  5
116
100
AcDbEntity
  8
0
 62
7
100
AcDbPolyline
 90
2
 70
0
 10
105.442226
 20
22.225685
 30
0.0
 10
105.442226
 20
12.965189
 30
0.0
  0
LWPOLYLINE
  5
117
100
AcDbEntity
  8
0
 62
7
100
AcDbPolyline
 90
2
 70
0
 10
114.702643
 20
22.225685
 30
0.0
 10
105.442226
 20
22.225685
 30
0.0
  0
LWPOLYLINE
  5
118
100
AcDbEntity
  8
0
 62
7
100
AcDbPolyline
 90
2
 70
0
 10
114.702643
 20
26.988185
 30
0.0
 10
114.702643
 20
22.225685
 30
0.0
  0
LWPOLYLINE
  5
119
100
AcDbEntity
  8
0
 62
7
100
AcDbPolyline
 90
2
 70
0
 10
105.442226
 20
26.988185
 30
0.0
 10
114.702643
 20
26.988185
 30
0.0
  0
LWPOLYLINE
  5
11a
100
AcDbEntity
  8
0
 62
7
100
AcDbPolyline
 90
2
 70
0
 10
105.442226
 20
33.602769
 30
0.0
 10
105.442226
 20
26.988185
 30
0.0
  0
LWPOLYLINE
  5
11b
100
AcDbEntity
  8
0
 62
7
100
AcDbPolyline
 90
2
 70
0
 10
113.379726
 20
33.602769
 30
0.0
 10
105.442226
 20
33.602769
 30
0.0
  0
LWPOLYLINE
  5
11c
100
AcDbEntity
  8
0
 62
7
100
AcDbPolyline
 90
3
 70
0
 10
113.379726
 20
33.602769
 30
0.0
 10
113.379726
 20
60.061102
 30
0.0
 10
90.361082
 20
60.061102
 30
0.0
  0
LWPOLYLINE
  5
11d
100
AcDbEntity
  8
0
 62
7
100
AcDbPolyline
 90
2
 70
0
 10
90.361082
 20
71.967352
 30
0.0
 10
90.361082
 20
60.061102
 30
0.0
  0
LWPOLYLINE
  5
11e
100
AcDbEntity
  8
0
 62
7
100
AcDbPolyline
 90
7
 70
0
 10
132.786914
 20
12.945441
 30
0.0
 10
134.638997
 20
15.591274
 30
0.0
 10
186.232641
 20
15.591274
 30
0.0
 10
188.084725
 20
12.945441
 30
0.0
 10
188.084725
 20
24.851691
 30
0.0
 10
165.065975
 20
24.851691
 30
0.0
 10
165.065975
 20
71.947603
 30
0.0
  0
LWPOLYLINE
  5
11f
100
AcDbEntity
  8
0
 62
7
100
AcDbPolyline
 90
2
 70
0
 10
147.868058
 20
71.947603
 30
0.0
 10
165.065975
 20
71.947603
 30
0.0
  0
LWPOLYLINE
  5
120
100
AcDbEntity
  8
0
 62
7
100
AcDbPolyline
 90
2
 70
0
 10
147.868058
 20
62.687107
 30
0.0
 10
147.868058
 20
71.947603
 30
0.0
  0
LWPOLYLINE
  5
121
100
AcDbEntity
  8
0
 62
7
100
AcDbPolyline
 90
2
 70
0
 10
157.128475
 20
62.687107
 30
0.0
 10
147.868058
 20
62.687107
 30
0.0
  0
LWPOLYLINE
  5
122
100
AcDbEntity
  8
0
 62
7
100
AcDbPolyline
 90
2
 70
0
 10
157.128475
 20
57.924607
 30
0.0
 10
157.128475
 20
62.687107
 30
0.0
  0
LWPOLYLINE
  5
123
100
AcDbEntity
  8
0
 62
7
100
AcDbPolyline
 90
2
 70
0
 10
147.868058
 20
57.924607
 30
0.0
 10
157.128475
 20
57.924607
 30
0.0
  0
LWPOLYLINE
  5
124
100
AcDbEntity
  8
0
 62
7
100
AcDbPolyline
 90
2
 70
0
 10
147.868058
 20
51.310024
 30
0.0
 10
147.868058
 20
57.924607
 30
0.0
  0
LWPOLYLINE
  5
125
100
AcDbEntity
  8
0
 62
7
100
AcDbPolyline
 90
2
 70
0
 10
155.805558
 20
51.310024
 30
0.0
 10
147.868058
 20
51.310024
 30
0.0
  0
LWPOLYLINE
  5
126
100
AcDbEntity
  8
0
 62
7
100
AcDbPolyline
 90
3
 70
0
 10
155.805558
 20
51.310024
 30
0.0
 10
155.805558
 20
24.851691
 30
0.0
 10
132.786914
 20
24.851691
 30
0.0
  0
LWPOLYLINE
  5
127
100
AcDbEntity
  8
0
 62
7
100
AcDbPolyline
 90
2
 70
0
 10
132.786914
 20
12.945441
 30
0.0
 10
132.786914
 20
24.851691
 30
0.0
  0
LWPOLYLINE
  5
128
100
AcDbEntity
  8
0
 62
7
100
AcDbPolyline
 90
7
 70
0
 10
175.212745
 20
71.967352
 30
0.0
 10
177.064829
 20
69.321519
 30
0.0
 10
228.658473
 20
69.321519
 30
0.0
 10
230.510556
 20
71.967352
 30
0.0
 10
230.510556
 20
60.061102
 30
0.0
 10
207.491806
 20
60.061102
 30
0.0
 10
207.491806
 20
12.965189
 30
0.0
  0
LWPOLYLINE
  5
129
100
AcDbEntity
  8
0
 62
7
100
AcDbPolyline
 90
2
 70
0
 10
190.293890
 20
12.965189
 30
0.0
 10
207.491806
 20
12.965189
 30
0.0
  0
LWPOLYLINE
  5
12a
100
AcDbEntity
  8
0
 62
7
100
AcDbPolyline
 90
2
 70
0
 10
190.293890
 20
22.225685
 30
0.0
 10
190.293890
 20
12.965189
 30
0.0
  0
LWPOLYLINE
  5
12b
100
AcDbEntity
  8
0
 62
7
100
AcDbPolyline
 90
2
 70
0
 10
199.554306
 20
22.225685
 30
0.0
 10
190.293890
 20
22.225685
 30
0.0
  0
LWPOLYLINE
  5
12c
100
AcDbEntity
  8
0
 62
7
100
AcDbPolyline
 90
2
 70
0
 10
199.554306
 20
26.988185
 30
0.0
 10
199.554306
 20
22.225685
 30
0.0
  0
LWPOLYLINE
  5
12d
100
AcDbEntity
  8
0
 62
7
100
AcDbPolyline
 90
2
 70
0
 10
190.293890
 20
26.988185
 30
0.0
 10
199.554306
 20
26.988185
 30
0.0
  0
LWPOLYLINE
  5
12e
100
AcDbEntity
  8
0
 62
7
100
AcDbPolyline
 90
2
 70
0
 10
190.293890
 20
33.602769
 30
0.0
 10
190.293890
 20
26.988185
 30
0.0
  0
LWPOLYLINE
  5
12f
100
AcDbEntity
  8
0
 62
7
100
AcDbPolyline
 90
2
 70
0
 10
198.231390
 20
33.602769
 30
0.0
 10
190.293890
 20
33.602769
 30
0.0
  0
LWPOLYLINE
  5
130
100
AcDbEntity
  8
0
 62
7
100
AcDbPolyline
 90
3
 70
0
 10
198.231390
 20
33.602769
 30
0.0
 10
198.231390
 20
60.061102
 30
0.0
 10
175.212745
 20
60.061102
 30
0.0
  0
LWPOLYLINE
  5
131
100
AcDbEntity
  8
0
 62
7
100
AcDbPolyline
 90
2
 70
0
 10
175.212745
 20
71.967352
 30
0.0
 10
175.212745
 20
60.061102
 30
0.0
  0
LWPOLYLINE
  5
132
100
AcDbEntity
  8
0
 62
7
100
AcDbPolyline
 90
7
 70
0
 10
217.638577
 20
12.945441
 30
0.0
 10
219.490661
 20
15.591274
 30
0.0
 10
271.084304
 20
15.591274
 30
0.0
 10
272.936388
 20
12.945441
 30
0.0
 10
272.936388
 20
24.851691
 30
0.0
 10
249.917638
 20
24.851691
 30
0.0
 10
249.917638
 20
71.947603
 30
0.0
  0
LWPOLYLINE
  5
133
100
AcDbEntity
  8
0
 62
7
100
AcDbPolyline
 90
2
 70
0
 10
232.719721
 20
71.947603
 30
0.0
 10
249.917638
 20
71.947603
 30
0.0
  0
LWPOLYLINE
  5
134
100
AcDbEntity
  8
0
 62
7
100
AcDbPolyline
 90
2
 70
0
 10
232.719721
 20
62.687107
 30
0.0
 10
232.719721
 20
71.947603
 30
0.0
  0
LWPOLYLINE
  5
135
100
AcDbEntity
  8
0
 62
7
100
AcDbPolyline
 90
2
 70
0
 10
241.980138
 20
62.687107
 30
0.0
 10
232.719721
 20
62.687107
 30
0.0
  0
LWPOLYLINE
  5
136
100
AcDbEntity
  8
0
 62
7
100
AcDbPolyline
 90
2
 70
0
 10
241.980138
 20
57.924607
 30
0.0
 10
241.980138
 20
62.687107
 30
0.0
  0
LWPOLYLINE
  5
137
100
AcDbEntity
  8
0
 62
7
100
AcDbPolyline
 90
2
 70
0
 10
232.719721
 20
57.924607
 30
0.0
 10
241.980138
 20
57.924607
 30
0.0
  0
LWPOLYLINE
  5
138
100
AcDbEntity
  8
0
 62
7
100
AcDbPolyline
 90
2
 70
0
 10
232.719721
 20
51.310024
 30
0.0
 10
232.719721
 20
57.924607
 30
0.0
  0
LWPOLYLINE
  5
139
100
AcDbEntity
  8
0
 62
7
100
AcDbPolyline
 90
2
 70
0
 10
240.657221
 20
51.310024
 30
0.0
 10
232.719721
 20
51.310024
 30
0.0
  0
LWPOLYLINE
  5
13a
100
AcDbEntity
  8
0
 62
7
100
AcDbPolyline
 90
3
 70
0
 10
240.657221
 20
51.310024
 30
0.0
 10
240.657221
 20
24.851691
 30
0.0
 10
217.638577
 20
24.851691
 30
0.0
  0
LWPOLYLINE
  5
13b
100
AcDbEntity
  8
0
 62
7
100
AcDbPolyline
 90
2
 70
0
 10
217.638577
 20
12.945441
 30
0.0
 10
217.638577
 20
24.851691
 30
0.0
  0
LWPOLYLINE
  5
13c
100
AcDbEntity
  8
0
 62
7
100
AcDbPolyline
 90
7
 70
0
 10
260.064409
 20
71.967352
 30
0.0
 10
261.916492
 20
69.321519
 30
0.0
 10
313.510136
 20
69.321519
 30
0.0
 10
315.362220
 20
71.967352
 30
0.0
 10
315.362220
 20
60.061102
 30
0.0
 10
292.343470
 20
60.061102
 30
0.0
 10
292.343470
 20
12.965189
 30
0.0
  0
LWPOLYLINE
  5
13d
100
AcDbEntity
  8
0
 62
7
100
AcDbPolyline
 90
2
 70
0
 10
275.145553
 20
12.965189
 30
0.0
 10
292.343470
 20
12.965189
 30
0.0
  0
LWPOLYLINE
  5
13e
100
AcDbEntity
  8
0
 62
7
100
AcDbPolyline
 90
2
 70
0
 10
275.145553
 20
22.225685
 30
0.0
 10
275.145553
 20
12.965189
 30
0.0
  0
LWPOLYLINE
  5
13f
100
AcDbEntity
  8
0
 62
7
100
AcDbPolyline
 90
2
 70
0
 10
284.405970
 20
22.225685
 30
0.0
 10
275.145553
 20
22.225685
 30
0.0
  0
LWPOLYLINE
  5
140
100
AcDbEntity
  8
0
 62
7
100
AcDbPolyline
 90
2
 70
0
 10
284.405970
 20
26.988185
 30
0.0
 10
284.405970
 20
22.225685
 30
0.0
  0
LWPOLYLINE
  5
141
100
AcDbEntity
  8
0
 62
7
100
AcDbPolyline
 90
2
 70
0
 10
275.145553
 20
26.988185
 30
0.0
 10
284.405970
 20
26.988185
 30
0.0
  0
LWPOLYLINE
  5
142
100
AcDbEntity
  8
0
 62
7
100
AcDbPolyline
 90
2
 70
0
 10
275.145553
 20
33.602769
 30
0.0
 10
275.145553
 20
26.988185
 30
0.0
  0
LWPOLYLINE
  5
143
100
AcDbEntity
  8
0
 62
7
100
AcDbPolyline
 90
2
 70
0
 10
283.083053
 20
33.602769
 30
0.0
 10
275.145553
 20
33.602769
 30
0.0
  0
LWPOLYLINE
  5
144
100
AcDbEntity
  8
0
 62
7
100
AcDbPolyline
 90
3
 70
0
 10
283.083053
 20
33.602769
 30
0.0
 10
283.083053
 20
60.061102
 30
0.0
 10
260.064409
 20
60.061102
 30
0.0
  0
LWPOLYLINE
  5
145
100
AcDbEntity
  8
0
 62
7
100
AcDbPolyline
 90
2
 70
0
 10
260.064409
 20
71.967352
 30
0.0
 10
260.064409
 20
60.061102
 30
0.0
  0
ENDSEC
  0
SECTION
  2
OBJECTS
  0
DICTIONARY
  5
C
330
0
100
AcDbDictionary
  3
ACAD_GROUP
350
D
  3
ACAD_MLINESTYLE
350
17
  0
DICTIONARY
  5
D
330
C
100
AcDbDictionary
  0
DICTIONARY
  5
1A
330
C
100
AcDbDictionary
  0
DICTIONARY
  5
17
330
C
100
AcDbDictionary
  3
STANDARD
350
18
  0
DICTIONARY
  5
19
330
C
100
AcDbDictionary
  0
ENDSEC
  0
EOF
