  0
SECTION
  2
HEADER
  9
$ACADVER
  1
AC1009
  0
ENDSEC
  0
SECTION
  2
ENTITIES
  0
POLYLINE
  5
90
  8
Layer_0
  62
0
  70
1
  66
1
  10
0
  20
0
  30
0
  0
VERTEX
  5
90
  8
Layer_0
  10
248.47162
  20
146.50893
  0
VERTEX
  5
91
  8
Layer_0
  10
254.08301
  20
167.45093
  0
VERTEX
  5
92
  8
Layer_0
  10
237.1087
  20
153.92671
  0
VERTEX
  5
93
  8
Layer_0
  10
219.77142
  20
167.75931
  0
VERTEX
  5
94
  8
Layer_0
  10
225.46545
  20
146.50893
  0
VERTEX
  5
95
  8
Layer_0
  10
207.44409
  20
133.89024
  0
VERTEX
  5
96
  8
Layer_0
  10
229.44409
  20
133.89024
  0
VERTEX
  5
97
  8
Layer_0
  10
236.96851
  20
113.21701
  0
VERTEX
  5
98
  8
Layer_0
  10
244.49298
  20
133.89024
  0
VERTEX
  5
99
  8
Layer_0
  10
266.49298
  20
133.89024
  0
VERTEX
  5
9a
  8
Layer_0
  10
248.47162
  20
146.50893
  0
SEQEND
  0
POLYLINE
  5
9c
  8
Layer_0
  62
0
  70
1
  66
1
  10
0
  20
0
  30
0
  0
VERTEX
  5
9c
  8
Layer_0
  10
266.48056
  20
111.93888
  0
VERTEX
  5
9d
  8
Layer_0
  10
244.48056
  20
111.93888
  0
VERTEX
  5
9e
  8
Layer_0
  10
244.48056
  20
131.93887
  0
VERTEX
  5
9f
  8
Layer_0
  10
266.48056
  20
131.93887
  0
VERTEX
  5
a0
  8
Layer_0
  10
266.48056
  20
111.93888
  0
SEQEND
  0
POLYLINE
  5
a2
  8
Layer_0
  62
0
  70
1
  66
1
  10
0
  20
0
  30
0
  0
VERTEX
  5
a2
  8
Layer_0
  10
276.99997
  20
167.00003
  0
VERTEX
  5
a3
  8
Layer_0
  10
276.99997
  20
147.00003
  0
VERTEX
  5
a4
  8
Layer_0
  10
254.99997
  20
147.00003
  0
VERTEX
  5
a5
  8
Layer_0
  10
254.99997
  20
167.00003
  0
VERTEX
  5
a6
  8
Layer_0
  10
276.99997
  20
167.00003
  0
SEQEND
  0
POLYLINE
  5
a8
  8
Layer_0
  62
0
  70
1
  66
1
  10
0
  20
0
  30
0
  0
VERTEX
  5
a8
  8
Layer_0
  10
289.28104
  20
131.99997
  0
VERTEX
  5
a9
  8
Layer_0
  10
289.28104
  20
111.99996
  0
VERTEX
  5
aa
  8
Layer_0
  10
267.28107
  20
111.99996
  0
VERTEX
  5
ab
  8
Layer_0
  10
267.28107
  20
131.99997
  0
VERTEX
  5
ac
  8
Layer_0
  10
289.28104
  20
131.99997
  0
SEQEND
  0
POLYLINE
  5
ae
  8
Layer_0
  62
0
  70
1
  66
1
  10
0
  20
0
  30
0
  0
VERTEX
  5
ae
  8
Layer_0
  10
256.00006
  20
90.999992
  0
VERTEX
  5
af
  8
Layer_0
  10
256.00006
  20
110.99999
  0
VERTEX
  5
b0
  8
Layer_0
  10
278.00006
  20
110.99999
  0
VERTEX
  5
b1
  8
Layer_0
  10
278.00006
  20
90.999992
  0
VERTEX
  5
b2
  8
Layer_0
  10
256.00006
  20
90.999992
  0
SEQEND
  0
POLYLINE
  5
b4
  8
Layer_0
  62
0
  70
1
  66
1
  10
0
  20
0
  30
0
  0
VERTEX
  5
b4
  8
Layer_0
  10
310.55597
  20
168.78305
  0
VERTEX
  5
b5
  8
Layer_0
  10
288.55597
  20
168.78305
  0
VERTEX
  5
b6
  8
Layer_0
  10
288.55597
  20
188.78305
  0
VERTEX
  5
b7
  8
Layer_0
  10
310.55597
  20
188.78305
  0
VERTEX
  5
b8
  8
Layer_0
  10
310.55597
  20
168.78305
  0
SEQEND
  0
POLYLINE
  5
ba
  8
Layer_0
  62
0
  70
1
  66
1
  10
0
  20
0
  30
0
  0
VERTEX
  5
ba
  8
Layer_0
  10
287.55597
  20
168.78305
  0
VERTEX
  5
bb
  8
Layer_0
  10
265.55597
  20
168.78305
  0
VERTEX
  5
bc
  8
Layer_0
  10
265.55597
  20
188.78305
  0
VERTEX
  5
bd
  8
Layer_0
  10
287.55597
  20
188.78305
  0
VERTEX
  5
be
  8
Layer_0
  10
287.55597
  20
168.78305
  0
SEQEND
  0
POLYLINE
  5
c0
  8
Layer_0
  62
0
  70
1
  66
1
  10
0
  20
0
  30
0
  0
VERTEX
  5
c0
  8
Layer_0
  10
264.55597
  20
168.78305
  0
VERTEX
  5
c1
  8
Layer_0
  10
242.55597
  20
168.78305
  0
VERTEX
  5
c2
  8
Layer_0
  10
242.55597
  20
188.78305
  0
VERTEX
  5
c3
  8
Layer_0
  10
264.55597
  20
188.78305
  0
VERTEX
  5
c4
  8
Layer_0
  10
264.55597
  20
168.78305
  0
SEQEND
  0
POLYLINE
  5
c6
  8
Layer_0
  62
0
  70
1
  66
1
  10
0
  20
0
  30
0
  0
VERTEX
  5
c6
  8
Layer_0
  10
241.55597
  20
168.78305
  0
VERTEX
  5
c7
  8
Layer_0
  10
219.55597
  20
168.78305
  0
VERTEX
  5
c8
  8
Layer_0
  10
219.55597
  20
188.78305
  0
VERTEX
  5
c9
  8
Layer_0
  10
241.55597
  20
188.78305
  0
VERTEX
  5
ca
  8
Layer_0
  10
241.55597
  20
168.78305
  0
SEQEND
  0
POLYLINE
  5
cc
  8
Layer_0
  62
0
  70
1
  66
1
  10
0
  20
0
  30
0
  0
VERTEX
  5
cc
  8
Layer_0
  10
308.47162
  20
146.50893
  0
VERTEX
  5
cd
  8
Layer_0
  10
314.08301
  20
167.45093
  0
VERTEX
  5
ce
  8
Layer_0
  10
297.1087
  20
153.92671
  0
VERTEX
  5
cf
  8
Layer_0
  10
279.77142
  20
167.75931
  0
VERTEX
  5
d0
  8
Layer_0
  10
285.46545
  20
146.50893
  0
VERTEX
  5
d1
  8
Layer_0
  10
267.44409
  20
133.89024
  0
VERTEX
  5
d2
  8
Layer_0
  10
289.44409
  20
133.89024
  0
VERTEX
  5
d3
  8
Layer_0
  10
296.96851
  20
113.21701
  0
VERTEX
  5
d4
  8
Layer_0
  10
304.49298
  20
133.89024
  0
VERTEX
  5
d5
  8
Layer_0
  10
326.49298
  20
133.89024
  0
VERTEX
  5
d6
  8
Layer_0
  10
308.47162
  20
146.50893
  0
SEQEND
  0
ENDSEC
  0
EOF
