ISO-10303-21;
HEADER;
/* Generated by software containing ST-Developer
 * from STEP Tools, Inc. (www.steptools.com) 
 */

FILE_DESCRIPTION(
/* description */ (''),
/* implementation_level */ '2;1');

FILE_NAME(
/* name */ 'C:/Users/jjsch/Desktop/Puzzlebox Files/Handle v1.step',
/* time_stamp */ '2022-02-24T15:32:39-08:00',
/* author */ (''),
/* organization */ (''),
/* preprocessor_version */ 'ST-DEVELOPER v18.1',
/* originating_system */ 'Autodesk Translation Framework v10.13.0.1454',

/* authorisation */ '');

FILE_SCHEMA (('AUTOMOTIVE_DESIGN { 1 0 10303 214 3 1 1 }'));
ENDSEC;

DATA;
#10=MECHANICAL_DESIGN_GEOMETRIC_PRESENTATION_REPRESENTATION('',(#13),#354);
#11=SHAPE_REPRESENTATION_RELATIONSHIP('SRR','None',#364,#12);
#12=ADVANCED_BREP_SHAPE_REPRESENTATION('',(#14),#353);
#13=STYLED_ITEM('',(#373),#14);
#14=MANIFOLD_SOLID_BREP('Body1',#206);
#15=CIRCLE('',#224,0.1);
#16=CIRCLE('',#225,0.1);
#17=CIRCLE('',#228,0.1);
#18=CIRCLE('',#229,0.1);
#19=CIRCLE('',#232,0.1);
#20=CIRCLE('',#233,0.1);
#21=CYLINDRICAL_SURFACE('',#223,0.1);
#22=CYLINDRICAL_SURFACE('',#227,0.1);
#23=CYLINDRICAL_SURFACE('',#231,0.1);
#24=FACE_OUTER_BOUND('',#35,.T.);
#25=FACE_OUTER_BOUND('',#36,.T.);
#26=FACE_OUTER_BOUND('',#37,.T.);
#27=FACE_OUTER_BOUND('',#38,.T.);
#28=FACE_OUTER_BOUND('',#39,.T.);
#29=FACE_OUTER_BOUND('',#40,.T.);
#30=FACE_OUTER_BOUND('',#41,.T.);
#31=FACE_OUTER_BOUND('',#42,.T.);
#32=FACE_OUTER_BOUND('',#43,.T.);
#33=FACE_OUTER_BOUND('',#44,.T.);
#34=FACE_OUTER_BOUND('',#45,.T.);
#35=EDGE_LOOP('',(#133,#134,#135,#136));
#36=EDGE_LOOP('',(#137,#138,#139,#140));
#37=EDGE_LOOP('',(#141,#142,#143,#144));
#38=EDGE_LOOP('',(#145,#146,#147,#148));
#39=EDGE_LOOP('',(#149,#150,#151,#152));
#40=EDGE_LOOP('',(#153,#154,#155,#156));
#41=EDGE_LOOP('',(#157,#158,#159,#160));
#42=EDGE_LOOP('',(#161,#162,#163,#164));
#43=EDGE_LOOP('',(#165,#166,#167,#168));
#44=EDGE_LOOP('',(#169,#170,#171,#172,#173,#174,#175,#176,#177));
#45=EDGE_LOOP('',(#178,#179,#180,#181,#182,#183,#184,#185,#186));
#46=LINE('',#298,#67);
#47=LINE('',#300,#68);
#48=LINE('',#302,#69);
#49=LINE('',#303,#70);
#50=LINE('',#306,#71);
#51=LINE('',#308,#72);
#52=LINE('',#309,#73);
#53=LINE('',#312,#74);
#54=LINE('',#314,#75);
#55=LINE('',#315,#76);
#56=LINE('',#321,#77);
#57=LINE('',#324,#78);
#58=LINE('',#326,#79);
#59=LINE('',#327,#80);
#60=LINE('',#333,#81);
#61=LINE('',#336,#82);
#62=LINE('',#338,#83);
#63=LINE('',#339,#84);
#64=LINE('',#345,#85);
#65=LINE('',#347,#86);
#66=LINE('',#348,#87);
#67=VECTOR('',#241,0.393700787401575);
#68=VECTOR('',#242,0.393700787401575);
#69=VECTOR('',#243,0.393700787401575);
#70=VECTOR('',#244,0.393700787401575);
#71=VECTOR('',#247,0.393700787401575);
#72=VECTOR('',#248,0.393700787401575);
#73=VECTOR('',#249,0.393700787401575);
#74=VECTOR('',#252,0.393700787401575);
#75=VECTOR('',#253,0.393700787401575);
#76=VECTOR('',#254,0.393700787401575);
#77=VECTOR('',#261,0.393700787401575);
#78=VECTOR('',#264,0.393700787401575);
#79=VECTOR('',#265,0.393700787401575);
#80=VECTOR('',#266,0.393700787401575);
#81=VECTOR('',#273,0.393700787401575);
#82=VECTOR('',#276,0.393700787401575);
#83=VECTOR('',#277,0.393700787401575);
#84=VECTOR('',#278,0.393700787401575);
#85=VECTOR('',#285,0.393700787401575);
#86=VECTOR('',#288,0.393700787401575);
#87=VECTOR('',#289,0.393700787401575);
#88=VERTEX_POINT('',#296);
#89=VERTEX_POINT('',#297);
#90=VERTEX_POINT('',#299);
#91=VERTEX_POINT('',#301);
#92=VERTEX_POINT('',#305);
#93=VERTEX_POINT('',#307);
#94=VERTEX_POINT('',#311);
#95=VERTEX_POINT('',#313);
#96=VERTEX_POINT('',#317);
#97=VERTEX_POINT('',#319);
#98=VERTEX_POINT('',#323);
#99=VERTEX_POINT('',#325);
#100=VERTEX_POINT('',#329);
#101=VERTEX_POINT('',#331);
#102=VERTEX_POINT('',#335);
#103=VERTEX_POINT('',#337);
#104=VERTEX_POINT('',#341);
#105=VERTEX_POINT('',#343);
#106=EDGE_CURVE('',#88,#89,#46,.T.);
#107=EDGE_CURVE('',#88,#90,#47,.T.);
#108=EDGE_CURVE('',#91,#90,#48,.T.);
#109=EDGE_CURVE('',#89,#91,#49,.T.);
#110=EDGE_CURVE('',#89,#92,#50,.T.);
#111=EDGE_CURVE('',#93,#91,#51,.T.);
#112=EDGE_CURVE('',#92,#93,#52,.T.);
#113=EDGE_CURVE('',#94,#92,#53,.T.);
#114=EDGE_CURVE('',#95,#93,#54,.T.);
#115=EDGE_CURVE('',#94,#95,#55,.T.);
#116=EDGE_CURVE('',#96,#94,#15,.T.);
#117=EDGE_CURVE('',#97,#95,#16,.T.);
#118=EDGE_CURVE('',#96,#97,#56,.T.);
#119=EDGE_CURVE('',#98,#96,#57,.T.);
#120=EDGE_CURVE('',#99,#97,#58,.T.);
#121=EDGE_CURVE('',#98,#99,#59,.T.);
#122=EDGE_CURVE('',#100,#98,#17,.T.);
#123=EDGE_CURVE('',#101,#99,#18,.T.);
#124=EDGE_CURVE('',#100,#101,#60,.T.);
#125=EDGE_CURVE('',#102,#100,#61,.T.);
#126=EDGE_CURVE('',#103,#101,#62,.T.);
#127=EDGE_CURVE('',#102,#103,#63,.T.);
#128=EDGE_CURVE('',#104,#102,#19,.T.);
#129=EDGE_CURVE('',#105,#103,#20,.T.);
#130=EDGE_CURVE('',#104,#105,#64,.T.);
#131=EDGE_CURVE('',#88,#104,#65,.T.);
#132=EDGE_CURVE('',#90,#105,#66,.T.);
#133=ORIENTED_EDGE('',*,*,#106,.F.);
#134=ORIENTED_EDGE('',*,*,#107,.T.);
#135=ORIENTED_EDGE('',*,*,#108,.F.);
#136=ORIENTED_EDGE('',*,*,#109,.F.);
#137=ORIENTED_EDGE('',*,*,#110,.F.);
#138=ORIENTED_EDGE('',*,*,#109,.T.);
#139=ORIENTED_EDGE('',*,*,#111,.F.);
#140=ORIENTED_EDGE('',*,*,#112,.F.);
#141=ORIENTED_EDGE('',*,*,#113,.T.);
#142=ORIENTED_EDGE('',*,*,#112,.T.);
#143=ORIENTED_EDGE('',*,*,#114,.F.);
#144=ORIENTED_EDGE('',*,*,#115,.F.);
#145=ORIENTED_EDGE('',*,*,#116,.T.);
#146=ORIENTED_EDGE('',*,*,#115,.T.);
#147=ORIENTED_EDGE('',*,*,#117,.F.);
#148=ORIENTED_EDGE('',*,*,#118,.F.);
#149=ORIENTED_EDGE('',*,*,#119,.T.);
#150=ORIENTED_EDGE('',*,*,#118,.T.);
#151=ORIENTED_EDGE('',*,*,#120,.F.);
#152=ORIENTED_EDGE('',*,*,#121,.F.);
#153=ORIENTED_EDGE('',*,*,#122,.T.);
#154=ORIENTED_EDGE('',*,*,#121,.T.);
#155=ORIENTED_EDGE('',*,*,#123,.F.);
#156=ORIENTED_EDGE('',*,*,#124,.F.);
#157=ORIENTED_EDGE('',*,*,#125,.T.);
#158=ORIENTED_EDGE('',*,*,#124,.T.);
#159=ORIENTED_EDGE('',*,*,#126,.F.);
#160=ORIENTED_EDGE('',*,*,#127,.F.);
#161=ORIENTED_EDGE('',*,*,#128,.T.);
#162=ORIENTED_EDGE('',*,*,#127,.T.);
#163=ORIENTED_EDGE('',*,*,#129,.F.);
#164=ORIENTED_EDGE('',*,*,#130,.F.);
#165=ORIENTED_EDGE('',*,*,#131,.T.);
#166=ORIENTED_EDGE('',*,*,#130,.T.);
#167=ORIENTED_EDGE('',*,*,#132,.F.);
#168=ORIENTED_EDGE('',*,*,#107,.F.);
#169=ORIENTED_EDGE('',*,*,#132,.T.);
#170=ORIENTED_EDGE('',*,*,#129,.T.);
#171=ORIENTED_EDGE('',*,*,#126,.T.);
#172=ORIENTED_EDGE('',*,*,#123,.T.);
#173=ORIENTED_EDGE('',*,*,#120,.T.);
#174=ORIENTED_EDGE('',*,*,#117,.T.);
#175=ORIENTED_EDGE('',*,*,#114,.T.);
#176=ORIENTED_EDGE('',*,*,#111,.T.);
#177=ORIENTED_EDGE('',*,*,#108,.T.);
#178=ORIENTED_EDGE('',*,*,#131,.F.);
#179=ORIENTED_EDGE('',*,*,#106,.T.);
#180=ORIENTED_EDGE('',*,*,#110,.T.);
#181=ORIENTED_EDGE('',*,*,#113,.F.);
#182=ORIENTED_EDGE('',*,*,#116,.F.);
#183=ORIENTED_EDGE('',*,*,#119,.F.);
#184=ORIENTED_EDGE('',*,*,#122,.F.);
#185=ORIENTED_EDGE('',*,*,#125,.F.);
#186=ORIENTED_EDGE('',*,*,#128,.F.);
#187=PLANE('',#220);
#188=PLANE('',#221);
#189=PLANE('',#222);
#190=PLANE('',#226);
#191=PLANE('',#230);
#192=PLANE('',#234);
#193=PLANE('',#235);
#194=PLANE('',#236);
#195=ADVANCED_FACE('',(#24),#187,.T.);
#196=ADVANCED_FACE('',(#25),#188,.T.);
#197=ADVANCED_FACE('',(#26),#189,.T.);
#198=ADVANCED_FACE('',(#27),#21,.T.);
#199=ADVANCED_FACE('',(#28),#190,.T.);
#200=ADVANCED_FACE('',(#29),#22,.T.);
#201=ADVANCED_FACE('',(#30),#191,.T.);
#202=ADVANCED_FACE('',(#31),#23,.T.);
#203=ADVANCED_FACE('',(#32),#192,.T.);
#204=ADVANCED_FACE('',(#33),#193,.T.);
#205=ADVANCED_FACE('',(#34),#194,.F.);
#206=CLOSED_SHELL('',(#195,#196,#197,#198,#199,#200,#201,#202,#203,#204,
#205));
#207=DERIVED_UNIT_ELEMENT(#209,1.);
#208=DERIVED_UNIT_ELEMENT(#358,-3.);
#209=(
MASS_UNIT()
NAMED_UNIT(*)
SI_UNIT(.KILO.,.GRAM.)
);
#210=DERIVED_UNIT((#207,#208));
#211=MEASURE_REPRESENTATION_ITEM('density measure',
POSITIVE_RATIO_MEASURE(570.2572828),#210);
#212=PROPERTY_DEFINITION_REPRESENTATION(#217,#214);
#213=PROPERTY_DEFINITION_REPRESENTATION(#218,#215);
#214=REPRESENTATION('material name',(#216),#353);
#215=REPRESENTATION('density',(#211),#353);
#216=DESCRIPTIVE_REPRESENTATION_ITEM('Pine','Pine');
#217=PROPERTY_DEFINITION('material property','material name',#366);
#218=PROPERTY_DEFINITION('material property','density of part',#366);
#219=AXIS2_PLACEMENT_3D('placement',#294,#237,#238);
#220=AXIS2_PLACEMENT_3D('',#295,#239,#240);
#221=AXIS2_PLACEMENT_3D('',#304,#245,#246);
#222=AXIS2_PLACEMENT_3D('',#310,#250,#251);
#223=AXIS2_PLACEMENT_3D('',#316,#255,#256);
#224=AXIS2_PLACEMENT_3D('',#318,#257,#258);
#225=AXIS2_PLACEMENT_3D('',#320,#259,#260);
#226=AXIS2_PLACEMENT_3D('',#322,#262,#263);
#227=AXIS2_PLACEMENT_3D('',#328,#267,#268);
#228=AXIS2_PLACEMENT_3D('',#330,#269,#270);
#229=AXIS2_PLACEMENT_3D('',#332,#271,#272);
#230=AXIS2_PLACEMENT_3D('',#334,#274,#275);
#231=AXIS2_PLACEMENT_3D('',#340,#279,#280);
#232=AXIS2_PLACEMENT_3D('',#342,#281,#282);
#233=AXIS2_PLACEMENT_3D('',#344,#283,#284);
#234=AXIS2_PLACEMENT_3D('',#346,#286,#287);
#235=AXIS2_PLACEMENT_3D('',#349,#290,#291);
#236=AXIS2_PLACEMENT_3D('',#350,#292,#293);
#237=DIRECTION('axis',(0.,0.,1.));
#238=DIRECTION('refdir',(1.,0.,0.));
#239=DIRECTION('center_axis',(-1.,0.,0.));
#240=DIRECTION('ref_axis',(0.,0.,1.));
#241=DIRECTION('',(0.,0.,-1.));
#242=DIRECTION('',(0.,1.,0.));
#243=DIRECTION('',(0.,0.,1.));
#244=DIRECTION('',(0.,1.,0.));
#245=DIRECTION('center_axis',(0.,0.,-1.));
#246=DIRECTION('ref_axis',(-1.,0.,0.));
#247=DIRECTION('',(1.,0.,0.));
#248=DIRECTION('',(-1.,0.,0.));
#249=DIRECTION('',(0.,1.,0.));
#250=DIRECTION('center_axis',(-1.,0.,5.46369598732853E-17));
#251=DIRECTION('ref_axis',(5.46369598732853E-17,0.,1.));
#252=DIRECTION('',(5.46369598732853E-17,0.,1.));
#253=DIRECTION('',(5.46369598732853E-17,0.,1.));
#254=DIRECTION('',(0.,1.,0.));
#255=DIRECTION('center_axis',(0.,1.,0.));
#256=DIRECTION('ref_axis',(-6.55643518479423E-16,0.,-1.));
#257=DIRECTION('center_axis',(0.,1.,0.));
#258=DIRECTION('ref_axis',(-6.55643518479423E-16,0.,-1.));
#259=DIRECTION('center_axis',(0.,1.,0.));
#260=DIRECTION('ref_axis',(-6.55643518479423E-16,0.,-1.));
#261=DIRECTION('',(0.,1.,0.));
#262=DIRECTION('center_axis',(-2.91397119324188E-16,0.,-1.));
#263=DIRECTION('ref_axis',(-1.,0.,2.91397119324188E-16));
#264=DIRECTION('',(-1.,0.,2.91397119324188E-16));
#265=DIRECTION('',(-1.,0.,2.91397119324188E-16));
#266=DIRECTION('',(0.,1.,0.));
#267=DIRECTION('center_axis',(0.,1.,0.));
#268=DIRECTION('ref_axis',(1.,0.,-1.74838271594512E-15));
#269=DIRECTION('center_axis',(0.,1.,0.));
#270=DIRECTION('ref_axis',(1.,0.,-1.74838271594512E-15));
#271=DIRECTION('center_axis',(0.,1.,0.));
#272=DIRECTION('ref_axis',(1.,0.,-1.74838271594512E-15));
#273=DIRECTION('',(0.,1.,0.));
#274=DIRECTION('center_axis',(1.,0.,0.));
#275=DIRECTION('ref_axis',(0.,0.,-1.));
#276=DIRECTION('',(0.,0.,-1.));
#277=DIRECTION('',(0.,0.,-1.));
#278=DIRECTION('',(0.,1.,0.));
#279=DIRECTION('center_axis',(0.,1.,0.));
#280=DIRECTION('ref_axis',(8.74191357972564E-16,0.,1.));
#281=DIRECTION('center_axis',(0.,1.,0.));
#282=DIRECTION('ref_axis',(8.74191357972564E-16,0.,1.));
#283=DIRECTION('center_axis',(0.,1.,0.));
#284=DIRECTION('ref_axis',(8.74191357972564E-16,0.,1.));
#285=DIRECTION('',(0.,1.,0.));
#286=DIRECTION('center_axis',(0.,0.,1.));
#287=DIRECTION('ref_axis',(1.,0.,0.));
#288=DIRECTION('',(1.,0.,0.));
#289=DIRECTION('',(1.,0.,0.));
#290=DIRECTION('center_axis',(0.,1.,0.));
#291=DIRECTION('ref_axis',(1.,0.,0.));
#292=DIRECTION('center_axis',(0.,1.,0.));
#293=DIRECTION('ref_axis',(1.,0.,0.));
#294=CARTESIAN_POINT('',(0.,0.,0.));
#295=CARTESIAN_POINT('Origin',(-0.4,0.,-0.3));
#296=CARTESIAN_POINT('',(-0.4,0.,0.));
#297=CARTESIAN_POINT('',(-0.4,0.,-0.3));
#298=CARTESIAN_POINT('',(-0.4,0.,0.));
#299=CARTESIAN_POINT('',(-0.4,0.2,0.));
#300=CARTESIAN_POINT('',(-0.4,0.,0.));
#301=CARTESIAN_POINT('',(-0.4,0.2,-0.3));
#302=CARTESIAN_POINT('',(-0.4,0.2,0.));
#303=CARTESIAN_POINT('',(-0.4,0.,-0.3));
#304=CARTESIAN_POINT('Origin',(0.,0.,-0.3));
#305=CARTESIAN_POINT('',(0.,0.,-0.3));
#306=CARTESIAN_POINT('',(-0.4,0.,-0.3));
#307=CARTESIAN_POINT('',(0.,0.2,-0.3));
#308=CARTESIAN_POINT('',(-0.4,0.2,-0.3));
#309=CARTESIAN_POINT('',(0.,0.,-0.3));
#310=CARTESIAN_POINT('Origin',(-2.18547839493141E-17,0.,-0.4));
#311=CARTESIAN_POINT('',(-2.18547839493141E-17,0.,-0.4));
#312=CARTESIAN_POINT('',(-2.18547839493141E-17,0.,-0.4));
#313=CARTESIAN_POINT('',(0.,0.2,-0.4));
#314=CARTESIAN_POINT('',(-2.18547839493141E-17,0.2,-0.4));
#315=CARTESIAN_POINT('',(-2.18547839493141E-17,0.,-0.4));
#316=CARTESIAN_POINT('Origin',(0.1,0.,-0.4));
#317=CARTESIAN_POINT('',(0.1,0.,-0.5));
#318=CARTESIAN_POINT('Origin',(0.1,0.,-0.4));
#319=CARTESIAN_POINT('',(0.1,0.2,-0.5));
#320=CARTESIAN_POINT('Origin',(0.1,0.2,-0.4));
#321=CARTESIAN_POINT('',(0.1,0.,-0.5));
#322=CARTESIAN_POINT('Origin',(0.4,0.,-0.5));
#323=CARTESIAN_POINT('',(0.4,0.,-0.5));
#324=CARTESIAN_POINT('',(0.4,0.,-0.5));
#325=CARTESIAN_POINT('',(0.4,0.2,-0.5));
#326=CARTESIAN_POINT('',(0.4,0.2,-0.5));
#327=CARTESIAN_POINT('',(0.4,0.,-0.5));
#328=CARTESIAN_POINT('Origin',(0.4,0.,-0.4));
#329=CARTESIAN_POINT('',(0.5,0.,-0.4));
#330=CARTESIAN_POINT('Origin',(0.4,0.,-0.4));
#331=CARTESIAN_POINT('',(0.5,0.2,-0.4));
#332=CARTESIAN_POINT('Origin',(0.4,0.2,-0.4));
#333=CARTESIAN_POINT('',(0.5,0.,-0.4));
#334=CARTESIAN_POINT('Origin',(0.5,0.,-0.1));
#335=CARTESIAN_POINT('',(0.5,0.,-0.1));
#336=CARTESIAN_POINT('',(0.5,0.,-0.1));
#337=CARTESIAN_POINT('',(0.5,0.2,-0.1));
#338=CARTESIAN_POINT('',(0.5,0.2,-0.1));
#339=CARTESIAN_POINT('',(0.5,0.,-0.1));
#340=CARTESIAN_POINT('Origin',(0.4,0.,-0.1));
#341=CARTESIAN_POINT('',(0.4,0.,0.));
#342=CARTESIAN_POINT('Origin',(0.4,0.,-0.1));
#343=CARTESIAN_POINT('',(0.4,0.2,0.));
#344=CARTESIAN_POINT('Origin',(0.4,0.2,-0.1));
#345=CARTESIAN_POINT('',(0.4,0.,0.));
#346=CARTESIAN_POINT('Origin',(-0.4,0.,0.));
#347=CARTESIAN_POINT('',(0.,0.,0.));
#348=CARTESIAN_POINT('',(0.,0.2,0.));
#349=CARTESIAN_POINT('Origin',(0.05,0.2,-0.25));
#350=CARTESIAN_POINT('Origin',(0.05,0.,-0.25));
#351=UNCERTAINTY_MEASURE_WITH_UNIT(LENGTH_MEASURE(0.000393700787401575),
#356,'DISTANCE_ACCURACY_VALUE',
'Maximum model space distance between geometric entities at asserted c
onnectivities');
#352=UNCERTAINTY_MEASURE_WITH_UNIT(LENGTH_MEASURE(0.000393700787401575),
#356,'DISTANCE_ACCURACY_VALUE',
'Maximum model space distance between geometric entities at asserted c
onnectivities');
#353=(
GEOMETRIC_REPRESENTATION_CONTEXT(3)
GLOBAL_UNCERTAINTY_ASSIGNED_CONTEXT((#351))
GLOBAL_UNIT_ASSIGNED_CONTEXT((#356,#360,#361))
REPRESENTATION_CONTEXT('','3D')
);
#354=(
GEOMETRIC_REPRESENTATION_CONTEXT(3)
GLOBAL_UNCERTAINTY_ASSIGNED_CONTEXT((#352))
GLOBAL_UNIT_ASSIGNED_CONTEXT((#356,#360,#361))
REPRESENTATION_CONTEXT('','3D')
);
#355=DIMENSIONAL_EXPONENTS(1.,0.,0.,0.,0.,0.,0.);
#356=(
CONVERSION_BASED_UNIT('inch',#359)
LENGTH_UNIT()
NAMED_UNIT(#355)
);
#357=(
LENGTH_UNIT()
NAMED_UNIT(*)
SI_UNIT(.MILLI.,.METRE.)
);
#358=(
LENGTH_UNIT()
NAMED_UNIT(*)
SI_UNIT($,.METRE.)
);
#359=LENGTH_MEASURE_WITH_UNIT(LENGTH_MEASURE(25.4),#357);
#360=(
NAMED_UNIT(*)
PLANE_ANGLE_UNIT()
SI_UNIT($,.RADIAN.)
);
#361=(
NAMED_UNIT(*)
SI_UNIT($,.STERADIAN.)
SOLID_ANGLE_UNIT()
);
#362=SHAPE_DEFINITION_REPRESENTATION(#363,#364);
#363=PRODUCT_DEFINITION_SHAPE('',$,#366);
#364=SHAPE_REPRESENTATION('',(#219),#353);
#365=PRODUCT_DEFINITION_CONTEXT('part definition',#370,'design');
#366=PRODUCT_DEFINITION('Handle','Handle v1',#367,#365);
#367=PRODUCT_DEFINITION_FORMATION('',$,#372);
#368=PRODUCT_RELATED_PRODUCT_CATEGORY('Handle v1','Handle v1',(#372));
#369=APPLICATION_PROTOCOL_DEFINITION('international standard',
'automotive_design',2009,#370);
#370=APPLICATION_CONTEXT(
'Core Data for Automotive Mechanical Design Process');
#371=PRODUCT_CONTEXT('part definition',#370,'mechanical');
#372=PRODUCT('Handle','Handle v1',$,(#371));
#373=PRESENTATION_STYLE_ASSIGNMENT((#374));
#374=SURFACE_STYLE_USAGE(.BOTH.,#375);
#375=SURFACE_SIDE_STYLE('',(#376));
#376=SURFACE_STYLE_FILL_AREA(#377);
#377=FILL_AREA_STYLE('Pine',(#378));
#378=FILL_AREA_STYLE_COLOUR('Pine',#379);
#379=COLOUR_RGB('Pine',0.,0.,0.);
ENDSEC;
END-ISO-10303-21;
