  0
SECTION
  2
HEADER
  9
$ACADVER
  1
AC1024
  9
$ACADMAINTVER
 70
     6
  9
$DWGCODEPAGE
  3
ANSI_1252
  9
$INSBASE
 10
0.0
 20
0.0
 30
0.0
  9
$EXTMIN
 10
1.000000000000000E+20
 20
1.000000000000000E+20
 30
1.000000000000000E+20
  9
$EXTMAX
 10
-1.000000000000000E+20
 20
-1.000000000000000E+20
 30
-1.000000000000000E+20
  9
$LIMMIN
 10
0.0
 20
0.0
  9
$LIMMAX
 10
12.0
 20
9.0
  9
$ORTHOMODE
 70
     0
  9
$REGENMODE
 70
     1
  9
$FILLMODE
 70
     1
  9
$QTEXTMODE
 70
     0
  9
$MIRRTEXT
 70
     1
  9
$LTSCALE
 40
1.0
  9
$ATTMODE
 70
     1
  9
$TEXTSIZE
 40
0.2
  9
$TRACEWID
 40
0.05
  9
$TEXTSTYLE
  7
Standard
  9
$CLAYER
  8
0
  9
$CELTYPE
  6
ByLayer
  9
$CECOLOR
 62
   256
  9
$CELTSCALE
 40
1.0
  9
$DISPSILH
 70
     0
  9
$DIMSCALE
 40
1.0
  9
$DIMASZ
 40
0.18
  9
$DIMEXO
 40
0.0625
  9
$DIMDLI
 40
0.38
  9
$DIMRND
 40
0.0
  9
$DIMDLE
 40
0.0
  9
$DIMEXE
 40
0.18
  9
$DIMTP
 40
0.0
  9
$DIMTM
 40
0.0
  9
$DIMTXT
 40
0.18
  9
$DIMCEN
 40
0.09
  9
$DIMTSZ
 40
0.0
  9
$DIMTOL
 70
     0
  9
$DIMLIM
 70
     0
  9
$DIMTIH
 70
     1
  9
$DIMTOH
 70
     1
  9
$DIMSE1
 70
     0
  9
$DIMSE2
 70
     0
  9
$DIMTAD
 70
     0
  9
$DIMZIN
 70
     0
  9
$DIMBLK
  1

  9
$DIMASO
 70
     1
  9
$DIMSHO
 70
     1
  9
$DIMPOST
  1

  9
$DIMAPOST
  1

  9
$DIMALT
 70
     0
  9
$DIMALTD
 70
     2
  9
$DIMALTF
 40
25.4
  9
$DIMLFAC
 40
1.0
  9
$DIMTOFL
 70
     0
  9
$DIMTVP
 40
0.0
  9
$DIMTIX
 70
     0
  9
$DIMSOXD
 70
     0
  9
$DIMSAH
 70
     0
  9
$DIMBLK1
  1

  9
$DIMBLK2
  1

  9
$DIMSTYLE
  2
Standard
  9
$DIMCLRD
 70
     0
  9
$DIMCLRE
 70
     0
  9
$DIMCLRT
 70
     0
  9
$DIMTFAC
 40
1.0
  9
$DIMGAP
 40
0.09
  9
$DIMJUST
 70
     0
  9
$DIMSD1
 70
     0
  9
$DIMSD2
 70
     0
  9
$DIMTOLJ
 70
     1
  9
$DIMTZIN
 70
     0
  9
$DIMALTZ
 70
     0
  9
$DIMALTTZ
 70
     0
  9
$DIMUPT
 70
     0
  9
$DIMDEC
 70
     4
  9
$DIMTDEC
 70
     4
  9
$DIMALTU
 70
     2
  9
$DIMALTTD
 70
     2
  9
$DIMTXSTY
  7
Standard
  9
$DIMAUNIT
 70
     0
  9
$DIMADEC
 70
     0
  9
$DIMALTRND
 40
0.0
  9
$DIMAZIN
 70
     0
  9
$DIMDSEP
 70
    46
  9
$DIMATFIT
 70
     3
  9
$DIMFRAC
 70
     0
  9
$DIMLDRBLK
  1

  9
$DIMLUNIT
 70
     2
  9
$DIMLWD
 70
    -2
  9
$DIMLWE
 70
    -2
  9
$DIMTMOVE
 70
     0
  9
$DIMFXL
 40
1.0
  9
$DIMFXLON
 70
     0
  9
$DIMJOGANG
 40
0.7853981633974483
  9
$DIMTFILL
 70
     0
  9
$DIMTFILLCLR
 70
     0
  9
$DIMARCSYM
 70
     0
  9
$DIMLTYPE
  6

  9
$DIMLTEX1
  6

  9
$DIMLTEX2
  6

  9
$DIMTXTDIRECTION
 70
     0
  9
$LUNITS
 70
     2
  9
$LUPREC
 70
     4
  9
$SKETCHINC
 40
0.1
  9
$FILLETRAD
 40
0.5
  9
$AUNITS
 70
     0
  9
$AUPREC
 70
     0
  9
$MENU
  1
.
  9
$ELEVATION
 40
0.0
  9
$PELEVATION
 40
0.0
  9
$THICKNESS
 40
0.0
  9
$LIMCHECK
 70
     0
  9
$CHAMFERA
 40
0.5
  9
$CHAMFERB
 40
0.5
  9
$CHAMFERC
 40
1.0
  9
$CHAMFERD
 40
0.0
  9
$SKPOLY
 70
     0
  9
$TDCREATE
 40
2458632.997668114
  9
$TDUCREATE
 40
2458633.122668114
  9
$TDUPDATE
 40
2458632.997668276
  9
$TDUUPDATE
 40
2458633.122668276
  9
$TDINDWG
 40
0.0000000116
  9
$TDUSRTIMER
 40
0.0000000116
  9
$USRTIMER
 70
     1
  9
$ANGBASE
 50
0.0
  9
$ANGDIR
 70
     0
  9
$PDMODE
 70
     0
  9
$PDSIZE
 40
0.0
  9
$PLINEWID
 40
0.0
  9
$SPLFRAME
 70
     0
  9
$SPLINETYPE
 70
     6
  9
$SPLINESEGS
 70
     8
  9
$HANDSEED
  5
3F4
  9
$SURFTAB1
 70
     6
  9
$SURFTAB2
 70
     6
  9
$SURFTYPE
 70
     6
  9
$SURFU
 70
     6
  9
$SURFV
 70
     6
  9
$UCSBASE
  2

  9
$UCSNAME
  2

  9
$UCSORG
 10
0.0
 20
0.0
 30
0.0
  9
$UCSXDIR
 10
1.0
 20
0.0
 30
0.0
  9
$UCSYDIR
 10
0.0
 20
1.0
 30
0.0
  9
$UCSORTHOREF
  2

  9
$UCSORTHOVIEW
 70
     0
  9
$UCSORGTOP
 10
0.0
 20
0.0
 30
0.0
  9
$UCSORGBOTTOM
 10
0.0
 20
0.0
 30
0.0
  9
$UCSORGLEFT
 10
0.0
 20
0.0
 30
0.0
  9
$UCSORGRIGHT
 10
0.0
 20
0.0
 30
0.0
  9
$UCSORGFRONT
 10
0.0
 20
0.0
 30
0.0
  9
$UCSORGBACK
 10
0.0
 20
0.0
 30
0.0
  9
$PUCSBASE
  2

  9
$PUCSNAME
  2

  9
$PUCSORG
 10
0.0
 20
0.0
 30
0.0
  9
$PUCSXDIR
 10
1.0
 20
0.0
 30
0.0
  9
$PUCSYDIR
 10
0.0
 20
1.0
 30
0.0
  9
$PUCSORTHOREF
  2

  9
$PUCSORTHOVIEW
 70
     0
  9
$PUCSORGTOP
 10
0.0
 20
0.0
 30
0.0
  9
$PUCSORGBOTTOM
 10
0.0
 20
0.0
 30
0.0
  9
$PUCSORGLEFT
 10
0.0
 20
0.0
 30
0.0
  9
$PUCSORGRIGHT
 10
0.0
 20
0.0
 30
0.0
  9
$PUCSORGFRONT
 10
0.0
 20
0.0
 30
0.0
  9
$PUCSORGBACK
 10
0.0
 20
0.0
 30
0.0
  9
$USERI1
 70
     0
  9
$USERI2
 70
     0
  9
$USERI3
 70
     0
  9
$USERI4
 70
     0
  9
$USERI5
 70
     0
  9
$USERR1
 40
0.0
  9
$USERR2
 40
0.0
  9
$USERR3
 40
0.0
  9
$USERR4
 40
0.0
  9
$USERR5
 40
0.0
  9
$WORLDVIEW
 70
     1
  9
$SHADEDGE
 70
     3
  9
$SHADEDIF
 70
    70
  9
$TILEMODE
 70
     1
  9
$MAXACTVP
 70
    64
  9
$PINSBASE
 10
0.0
 20
0.0
 30
0.0
  9
$PLIMCHECK
 70
     0
  9
$PEXTMIN
 10
1.000000000000000E+20
 20
1.000000000000000E+20
 30
1.000000000000000E+20
  9
$PEXTMAX
 10
-1.000000000000000E+20
 20
-1.000000000000000E+20
 30
-1.000000000000000E+20
  9
$PLIMMIN
 10
0.0
 20
0.0
  9
$PLIMMAX
 10
12.0
 20
9.0
  9
$UNITMODE
 70
     0
  9
$VISRETAIN
 70
     1
  9
$PLINEGEN
 70
     0
  9
$PSLTSCALE
 70
     1
  9
$TREEDEPTH
 70
  3020
  9
$CMLSTYLE
  2
Standard
  9
$CMLJUST
 70
     0
  9
$CMLSCALE
 40
1.0
  9
$PROXYGRAPHICS
 70
     1
  9
$MEASUREMENT
 70
     0
  9
$CELWEIGHT
370
    -1
  9
$ENDCAPS
280
     0
  9
$JOINSTYLE
280
     0
  9
$LWDISPLAY
290
     1
  9
$INSUNITS
 70
     1
  9
$HYPERLINKBASE
  1

  9
$STYLESHEET
  1

  9
$XEDIT
290
     1
  9
$CEPSNTYPE
380
     0
  9
$PSTYLEMODE
290
     1
  9
$FINGERPRINTGUID
  2
{37C0CD0E-C20C-47DA-9C8D-1ABD674A493A}
  9
$VERSIONGUID
  2
{FAEB1C32-E019-11D5-929B-00C0DF256EC4}
  9
$EXTNAMES
290
     1
  9
$PSVPSCALE
 40
0.0
  9
$OLESTARTUP
290
     0
  9
$SORTENTS
280
   127
  9
$INDEXCTL
280
     0
  9
$HIDETEXT
280
     1
  9
$XCLIPFRAME
280
     2
  9
$HALOGAP
280
     0
  9
$OBSCOLOR
 70
   257
  9
$OBSLTYPE
280
     0
  9
$INTERSECTIONDISPLAY
280
     0
  9
$INTERSECTIONCOLOR
 70
   257
  9
$DIMASSOC
280
     2
  9
$PROJECTNAME
  1

  9
$CAMERADISPLAY
290
     0
  9
$LENSLENGTH
 40
50.0
  9
$CAMERAHEIGHT
 40
0.0
  9
$STEPSPERSEC
 40
2.0
  9
$STEPSIZE
 40
6.0
  9
$3DDWFPREC
 40
2.0
  9
$PSOLWIDTH
 40
0.25
  9
$PSOLHEIGHT
 40
4.0
  9
$LOFTANG1
 40
1.570796326794897
  9
$LOFTANG2
 40
1.570796326794897
  9
$LOFTMAG1
 40
0.0
  9
$LOFTMAG2
 40
0.0
  9
$LOFTPARAM
 70
     7
  9
$LOFTNORMALS
280
     1
  9
$LATITUDE
 40
37.795
  9
$LONGITUDE
 40
-122.394
  9
$NORTHDIRECTION
 40
0.0
  9
$TIMEZONE
 70
 -8000
  9
$LIGHTGLYPHDISPLAY
280
     1
  9
$TILEMODELIGHTSYNCH
280
     1
  9
$CMATERIAL
347
3C
  9
$SOLIDHIST
280
     1
  9
$SHOWHIST
280
     1
  9
$DWFFRAME
280
     2
  9
$DGNFRAME
280
     2
  9
$REALWORLDSCALE
290
     1
  9
$INTERFERECOLOR
 62
   256
  9
$CSHADOW
280
     0
  9
$SHADOWPLANELOCATION
 40
0.0
  0
ENDSEC
  0
SECTION
  2
CLASSES
  0
CLASS
  1
ACDBDICTIONARYWDFLT
  2
AcDbDictionaryWithDefault
  3
ObjectDBX Classes
 90
        0
 91
        4
280
     0
281
     0
  0
CLASS
  1
VISUALSTYLE
  2
AcDbVisualStyle
  3
ObjectDBX Classes
 90
     4095
 91
        4
280
     0
281
     0
  0
CLASS
  1
MATERIAL
  2
AcDbMaterial
  3
ObjectDBX Classes
 90
     1153
 91
        4
280
     0
281
     0
  0
CLASS
  1
SUN
  2
AcDbSun
  3
SCENEOE
 90
     1024
 91
        4
280
     0
281
     0
  0
ENDSEC
  0
SECTION
  2
TABLES
  0
TABLE
  2
VPORT
  5
8
330
0
100
AcDbSymbolTable
 70
     1
  0
VPORT
  5
29
330
8
100
AcDbSymbolTableRecord
100
AcDbViewportTableRecord
  2
*Active
 70
     0
 10
0.0
 20
0.0
 11
1.0
 21
1.0
 12
0.0
 22
0.0
 13
0.0
 23
0.0
 14
0.5
 24
0.5
 15
0.5
 25
0.5
 16
0.0
 26
0.0
 36
1.0
 17
44.99999998874991
 27
29.99999999249995
 37
0.0
 40
59.9999999849999
 41
1.5
 42
50.0
 43
0.0
 44
0.0
 50
0.0
 51
0.0
 71
     0
 72
   100
 73
     1
 74
     3
 75
     0
 76
     0
 77
     0
 78
     0
281
     0
 65
     1
110
0.0
120
0.0
130
0.0
111
1.0
121
0.0
131
0.0
112
0.0
122
1.0
132
0.0
 79
     0
146
0.0
 60
     3
 61
     5
292
     1
282
     1
141
0.0
142
0.0
 63
   250
361
3F
  0
ENDTAB
  0
TABLE
  2
LTYPE
  5
5
330
0
100
AcDbSymbolTable
 70
     1
  0
LTYPE
  5
14
330
5
100
AcDbSymbolTableRecord
100
AcDbLinetypeTableRecord
  2
ByBlock
 70
     0
  3

 72
    65
 73
     0
 40
0.0
  0
LTYPE
  5
15
330
5
100
AcDbSymbolTableRecord
100
AcDbLinetypeTableRecord
  2
ByLayer
 70
     0
  3

 72
    65
 73
     0
 40
0.0
  0
LTYPE
  5
16
330
5
100
AcDbSymbolTableRecord
100
AcDbLinetypeTableRecord
  2
Continuous
 70
     0
  3
Solid line
 72
    65
 73
     0
 40
0.0
  0
ENDTAB
  0
TABLE
  2
LAYER
  5
2
330
0
100
AcDbSymbolTable
 70
     2
  0
LAYER
  5
10
330
2
100
AcDbSymbolTableRecord
100
AcDbLayerTableRecord
  2
0
 70
     0
 62
     7
  6
Continuous
370
    -3
390
F
347
3E
  0
LAYER
  5
3E2
330
2
100
AcDbSymbolTableRecord
100
AcDbLayerTableRecord
  2
Camada 2
 70
     1
 62
     7
  6
Continuous
370
    -3
390
F
347
3E
  0
ENDTAB
  0
TABLE
  2
STYLE
  5
3
330
0
100
AcDbSymbolTable
 70
     1
  0
STYLE
  5
11
330
3
100
AcDbSymbolTableRecord
100
AcDbTextStyleTableRecord
  2
Standard
 70
     0
 40
0.0
 41
1.0
 50
0.0
 71
     0
 42
0.2
  3
txt
  4

  0
ENDTAB
  0
TABLE
  2
VIEW
  5
6
330
0
100
AcDbSymbolTable
 70
     0
  0
ENDTAB
  0
TABLE
  2
UCS
  5
7
330
0
100
AcDbSymbolTable
 70
     0
  0
ENDTAB
  0
TABLE
  2
APPID
  5
9
330
0
100
AcDbSymbolTable
 70
     1
  0
APPID
  5
12
330
9
100
AcDbSymbolTableRecord
100
AcDbRegAppTableRecord
  2
ACAD
 70
     0
  0
ENDTAB
  0
TABLE
  2
DIMSTYLE
  5
A
330
0
100
AcDbSymbolTable
 70
     1
100
AcDbDimStyleTable
  0
DIMSTYLE
105
27
330
A
100
AcDbSymbolTableRecord
100
AcDbDimStyleTableRecord
  2
Standard
 70
     0
178
     0
340
11
  0
ENDTAB
  0
TABLE
  2
BLOCK_RECORD
  5
1
330
0
100
AcDbSymbolTable
 70
    84
  0
BLOCK_RECORD
  5
1F
330
1
100
AcDbSymbolTableRecord
100
AcDbBlockTableRecord
  2
*Model_Space
340
22
 70
     0
280
     1
281
     0
  0
BLOCK_RECORD
  5
1B
330
1
100
AcDbSymbolTableRecord
100
AcDbBlockTableRecord
  2
*Paper_Space
340
1E
 70
     0
280
     1
281
     0
  0
BLOCK_RECORD
  5
23
330
1
100
AcDbSymbolTableRecord
100
AcDbBlockTableRecord
  2
*Paper_Space0
340
26
 70
     0
280
     1
281
     0
  0
BLOCK_RECORD
  5
40
330
1
100
AcDbSymbolTableRecord
100
AcDbBlockTableRecord
  2
block 2
340
0
102
{BLKREFS
331
41
102
}
 70
     0
280
     1
281
     0
  0
BLOCK_RECORD
  5
44
330
1
100
AcDbSymbolTableRecord
100
AcDbBlockTableRecord
  2
block 3
340
0
102
{BLKREFS
331
45
102
}
 70
     0
280
     1
281
     0
  0
BLOCK_RECORD
  5
48
330
1
100
AcDbSymbolTableRecord
100
AcDbBlockTableRecord
  2
block 4
340
0
102
{BLKREFS
331
49
102
}
 70
     0
280
     1
281
     0
  0
BLOCK_RECORD
  5
53
330
1
100
AcDbSymbolTableRecord
100
AcDbBlockTableRecord
  2
block 5
340
0
102
{BLKREFS
331
54
102
}
 70
     0
280
     1
281
     0
  0
BLOCK_RECORD
  5
76
330
1
100
AcDbSymbolTableRecord
100
AcDbBlockTableRecord
  2
block 6
340
0
102
{BLKREFS
331
77
102
}
 70
     0
280
     1
281
     0
  0
BLOCK_RECORD
  5
81
330
1
100
AcDbSymbolTableRecord
100
AcDbBlockTableRecord
  2
block 7
340
0
102
{BLKREFS
331
82
102
}
 70
     0
280
     1
281
     0
  0
BLOCK_RECORD
  5
8C
330
1
100
AcDbSymbolTableRecord
100
AcDbBlockTableRecord
  2
block 8
340
0
102
{BLKREFS
331
8D
102
}
 70
     0
280
     1
281
     0
  0
BLOCK_RECORD
  5
97
330
1
100
AcDbSymbolTableRecord
100
AcDbBlockTableRecord
  2
block 9
340
0
102
{BLKREFS
331
98
102
}
 70
     0
280
     1
281
     0
  0
BLOCK_RECORD
  5
A2
330
1
100
AcDbSymbolTableRecord
100
AcDbBlockTableRecord
  2
block 10
340
0
102
{BLKREFS
331
A3
102
}
 70
     0
280
     1
281
     0
  0
BLOCK_RECORD
  5
A6
330
1
100
AcDbSymbolTableRecord
100
AcDbBlockTableRecord
  2
block 11
340
0
102
{BLKREFS
331
A7
102
}
 70
     0
280
     1
281
     0
  0
BLOCK_RECORD
  5
AE
330
1
100
AcDbSymbolTableRecord
100
AcDbBlockTableRecord
  2
block 12
340
0
102
{BLKREFS
331
AF
102
}
 70
     0
280
     1
281
     0
  0
BLOCK_RECORD
  5
B3
330
1
100
AcDbSymbolTableRecord
100
AcDbBlockTableRecord
  2
block 13
340
0
102
{BLKREFS
331
B4
102
}
 70
     0
280
     1
281
     0
  0
BLOCK_RECORD
  5
B8
330
1
100
AcDbSymbolTableRecord
100
AcDbBlockTableRecord
  2
block 14
340
0
102
{BLKREFS
331
B9
102
}
 70
     0
280
     1
281
     0
  0
BLOCK_RECORD
  5
C0
330
1
100
AcDbSymbolTableRecord
100
AcDbBlockTableRecord
  2
block 15
340
0
102
{BLKREFS
331
C1
102
}
 70
     0
280
     1
281
     0
  0
BLOCK_RECORD
  5
C8
330
1
100
AcDbSymbolTableRecord
100
AcDbBlockTableRecord
  2
block 16
340
0
102
{BLKREFS
331
C9
102
}
 70
     0
280
     1
281
     0
  0
BLOCK_RECORD
  5
D0
330
1
100
AcDbSymbolTableRecord
100
AcDbBlockTableRecord
  2
block 17
340
0
102
{BLKREFS
331
D1
102
}
 70
     0
280
     1
281
     0
  0
BLOCK_RECORD
  5
D8
330
1
100
AcDbSymbolTableRecord
100
AcDbBlockTableRecord
  2
block 18
340
0
102
{BLKREFS
331
D9
102
}
 70
     0
280
     1
281
     0
  0
BLOCK_RECORD
  5
E0
330
1
100
AcDbSymbolTableRecord
100
AcDbBlockTableRecord
  2
block 19
340
0
102
{BLKREFS
331
E1
102
}
 70
     0
280
     1
281
     0
  0
BLOCK_RECORD
  5
E8
330
1
100
AcDbSymbolTableRecord
100
AcDbBlockTableRecord
  2
block 20
340
0
102
{BLKREFS
331
E9
102
}
 70
     0
280
     1
281
     0
  0
BLOCK_RECORD
  5
F0
330
1
100
AcDbSymbolTableRecord
100
AcDbBlockTableRecord
  2
block 21
340
0
102
{BLKREFS
331
F1
102
}
 70
     0
280
     1
281
     0
  0
BLOCK_RECORD
  5
FB
330
1
100
AcDbSymbolTableRecord
100
AcDbBlockTableRecord
  2
block 22
340
0
102
{BLKREFS
331
FC
102
}
 70
     0
280
     1
281
     0
  0
BLOCK_RECORD
  5
FF
330
1
100
AcDbSymbolTableRecord
100
AcDbBlockTableRecord
  2
block 23
340
0
102
{BLKREFS
331
100
102
}
 70
     0
280
     1
281
     0
  0
BLOCK_RECORD
  5
104
330
1
100
AcDbSymbolTableRecord
100
AcDbBlockTableRecord
  2
block 24
340
0
102
{BLKREFS
331
105
102
}
 70
     0
280
     1
281
     0
  0
BLOCK_RECORD
  5
109
330
1
100
AcDbSymbolTableRecord
100
AcDbBlockTableRecord
  2
block 25
340
0
102
{BLKREFS
331
10A
102
}
 70
     0
280
     1
281
     0
  0
BLOCK_RECORD
  5
10E
330
1
100
AcDbSymbolTableRecord
100
AcDbBlockTableRecord
  2
block 26
340
0
102
{BLKREFS
331
10F
102
}
 70
     0
280
     1
281
     0
  0
BLOCK_RECORD
  5
112
330
1
100
AcDbSymbolTableRecord
100
AcDbBlockTableRecord
  2
block 27
340
0
102
{BLKREFS
331
113
102
}
 70
     0
280
     1
281
     0
  0
BLOCK_RECORD
  5
117
330
1
100
AcDbSymbolTableRecord
100
AcDbBlockTableRecord
  2
block 28
340
0
102
{BLKREFS
331
118
102
}
 70
     0
280
     1
281
     0
  0
BLOCK_RECORD
  5
11C
330
1
100
AcDbSymbolTableRecord
100
AcDbBlockTableRecord
  2
block 29
340
0
102
{BLKREFS
331
11D
102
}
 70
     0
280
     1
281
     0
  0
BLOCK_RECORD
  5
120
330
1
100
AcDbSymbolTableRecord
100
AcDbBlockTableRecord
  2
block 30
340
0
102
{BLKREFS
331
121
102
}
 70
     0
280
     1
281
     0
  0
BLOCK_RECORD
  5
125
330
1
100
AcDbSymbolTableRecord
100
AcDbBlockTableRecord
  2
block 31
340
0
102
{BLKREFS
331
126
102
}
 70
     0
280
     1
281
     0
  0
BLOCK_RECORD
  5
12A
330
1
100
AcDbSymbolTableRecord
100
AcDbBlockTableRecord
  2
block 32
340
0
102
{BLKREFS
331
12B
102
}
 70
     0
280
     1
281
     0
  0
BLOCK_RECORD
  5
12F
330
1
100
AcDbSymbolTableRecord
100
AcDbBlockTableRecord
  2
block 33
340
0
102
{BLKREFS
331
130
102
}
 70
     0
280
     1
281
     0
  0
BLOCK_RECORD
  5
217
330
1
100
AcDbSymbolTableRecord
100
AcDbBlockTableRecord
  2
block 34
340
0
102
{BLKREFS
331
218
102
}
 70
     0
280
     1
281
     0
  0
BLOCK_RECORD
  5
21B
330
1
100
AcDbSymbolTableRecord
100
AcDbBlockTableRecord
  2
block 35
340
0
102
{BLKREFS
331
21C
102
}
 70
     0
280
     1
281
     0
  0
BLOCK_RECORD
  5
226
330
1
100
AcDbSymbolTableRecord
100
AcDbBlockTableRecord
  2
block 36
340
0
102
{BLKREFS
331
227
102
}
 70
     0
280
     1
281
     0
  0
BLOCK_RECORD
  5
231
330
1
100
AcDbSymbolTableRecord
100
AcDbBlockTableRecord
  2
block 37
340
0
102
{BLKREFS
331
232
102
}
 70
     0
280
     1
281
     0
  0
BLOCK_RECORD
  5
23C
330
1
100
AcDbSymbolTableRecord
100
AcDbBlockTableRecord
  2
block 38
340
0
102
{BLKREFS
331
23D
102
}
 70
     0
280
     1
281
     0
  0
BLOCK_RECORD
  5
247
330
1
100
AcDbSymbolTableRecord
100
AcDbBlockTableRecord
  2
block 39
340
0
102
{BLKREFS
331
248
102
}
 70
     0
280
     1
281
     0
  0
BLOCK_RECORD
  5
266
330
1
100
AcDbSymbolTableRecord
100
AcDbBlockTableRecord
  2
block 40
340
0
102
{BLKREFS
331
267
102
}
 70
     0
280
     1
281
     0
  0
BLOCK_RECORD
  5
26A
330
1
100
AcDbSymbolTableRecord
100
AcDbBlockTableRecord
  2
block 41
340
0
102
{BLKREFS
331
26B
102
}
 70
     0
280
     1
281
     0
  0
BLOCK_RECORD
  5
275
330
1
100
AcDbSymbolTableRecord
100
AcDbBlockTableRecord
  2
block 42
340
0
102
{BLKREFS
331
276
102
}
 70
     0
280
     1
281
     0
  0
BLOCK_RECORD
  5
280
330
1
100
AcDbSymbolTableRecord
100
AcDbBlockTableRecord
  2
block 43
340
0
102
{BLKREFS
331
281
102
}
 70
     0
280
     1
281
     0
  0
BLOCK_RECORD
  5
28B
330
1
100
AcDbSymbolTableRecord
100
AcDbBlockTableRecord
  2
block 44
340
0
102
{BLKREFS
331
28C
102
}
 70
     0
280
     1
281
     0
  0
BLOCK_RECORD
  5
296
330
1
100
AcDbSymbolTableRecord
100
AcDbBlockTableRecord
  2
block 45
340
0
102
{BLKREFS
331
297
102
}
 70
     0
280
     1
281
     0
  0
BLOCK_RECORD
  5
2B5
330
1
100
AcDbSymbolTableRecord
100
AcDbBlockTableRecord
  2
block 46
340
0
102
{BLKREFS
331
2B6
102
}
 70
     0
280
     1
281
     0
  0
BLOCK_RECORD
  5
2B9
330
1
100
AcDbSymbolTableRecord
100
AcDbBlockTableRecord
  2
block 47
340
0
102
{BLKREFS
331
2BA
102
}
 70
     0
280
     1
281
     0
  0
BLOCK_RECORD
  5
2BE
330
1
100
AcDbSymbolTableRecord
100
AcDbBlockTableRecord
  2
block 48
340
0
102
{BLKREFS
331
2BF
102
}
 70
     0
280
     1
281
     0
  0
BLOCK_RECORD
  5
2C3
330
1
100
AcDbSymbolTableRecord
100
AcDbBlockTableRecord
  2
block 49
340
0
102
{BLKREFS
331
2C4
102
}
 70
     0
280
     1
281
     0
  0
BLOCK_RECORD
  5
2C7
330
1
100
AcDbSymbolTableRecord
100
AcDbBlockTableRecord
  2
block 50
340
0
102
{BLKREFS
331
2C8
102
}
 70
     0
280
     1
281
     0
  0
BLOCK_RECORD
  5
2CC
330
1
100
AcDbSymbolTableRecord
100
AcDbBlockTableRecord
  2
block 51
340
0
102
{BLKREFS
331
2CD
102
}
 70
     0
280
     1
281
     0
  0
BLOCK_RECORD
  5
2D1
330
1
100
AcDbSymbolTableRecord
100
AcDbBlockTableRecord
  2
block 52
340
0
102
{BLKREFS
331
2D2
102
}
 70
     0
280
     1
281
     0
  0
BLOCK_RECORD
  5
2D5
330
1
100
AcDbSymbolTableRecord
100
AcDbBlockTableRecord
  2
block 53
340
0
102
{BLKREFS
331
2D6
102
}
 70
     0
280
     1
281
     0
  0
BLOCK_RECORD
  5
2DA
330
1
100
AcDbSymbolTableRecord
100
AcDbBlockTableRecord
  2
block 54
340
0
102
{BLKREFS
331
2DB
102
}
 70
     0
280
     1
281
     0
  0
BLOCK_RECORD
  5
2DF
330
1
100
AcDbSymbolTableRecord
100
AcDbBlockTableRecord
  2
block 55
340
0
102
{BLKREFS
331
2E0
102
}
 70
     0
280
     1
281
     0
  0
BLOCK_RECORD
  5
2E3
330
1
100
AcDbSymbolTableRecord
100
AcDbBlockTableRecord
  2
block 56
340
0
102
{BLKREFS
331
2E4
102
}
 70
     0
280
     1
281
     0
  0
BLOCK_RECORD
  5
2EE
330
1
100
AcDbSymbolTableRecord
100
AcDbBlockTableRecord
  2
block 57
340
0
102
{BLKREFS
331
2EF
102
}
 70
     0
280
     1
281
     0
  0
BLOCK_RECORD
  5
311
330
1
100
AcDbSymbolTableRecord
100
AcDbBlockTableRecord
  2
block 58
340
0
102
{BLKREFS
331
312
102
}
 70
     0
280
     1
281
     0
  0
BLOCK_RECORD
  5
31C
330
1
100
AcDbSymbolTableRecord
100
AcDbBlockTableRecord
  2
block 59
340
0
102
{BLKREFS
331
31D
102
}
 70
     0
280
     1
281
     0
  0
BLOCK_RECORD
  5
327
330
1
100
AcDbSymbolTableRecord
100
AcDbBlockTableRecord
  2
block 60
340
0
102
{BLKREFS
331
328
102
}
 70
     0
280
     1
281
     0
  0
BLOCK_RECORD
  5
332
330
1
100
AcDbSymbolTableRecord
100
AcDbBlockTableRecord
  2
block 61
340
0
102
{BLKREFS
331
333
102
}
 70
     0
280
     1
281
     0
  0
BLOCK_RECORD
  5
33D
330
1
100
AcDbSymbolTableRecord
100
AcDbBlockTableRecord
  2
block 62
340
0
102
{BLKREFS
331
33E
102
}
 70
     0
280
     1
281
     0
  0
BLOCK_RECORD
  5
341
330
1
100
AcDbSymbolTableRecord
100
AcDbBlockTableRecord
  2
block 63
340
0
102
{BLKREFS
331
342
102
}
 70
     0
280
     1
281
     0
  0
BLOCK_RECORD
  5
349
330
1
100
AcDbSymbolTableRecord
100
AcDbBlockTableRecord
  2
block 64
340
0
102
{BLKREFS
331
34A
102
}
 70
     0
280
     1
281
     0
  0
BLOCK_RECORD
  5
34E
330
1
100
AcDbSymbolTableRecord
100
AcDbBlockTableRecord
  2
block 65
340
0
102
{BLKREFS
331
34F
102
}
 70
     0
280
     1
281
     0
  0
BLOCK_RECORD
  5
353
330
1
100
AcDbSymbolTableRecord
100
AcDbBlockTableRecord
  2
block 66
340
0
102
{BLKREFS
331
354
102
}
 70
     0
280
     1
281
     0
  0
BLOCK_RECORD
  5
35B
330
1
100
AcDbSymbolTableRecord
100
AcDbBlockTableRecord
  2
block 67
340
0
102
{BLKREFS
331
35C
102
}
 70
     0
280
     1
281
     0
  0
BLOCK_RECORD
  5
363
330
1
100
AcDbSymbolTableRecord
100
AcDbBlockTableRecord
  2
block 68
340
0
102
{BLKREFS
331
364
102
}
 70
     0
280
     1
281
     0
  0
BLOCK_RECORD
  5
36B
330
1
100
AcDbSymbolTableRecord
100
AcDbBlockTableRecord
  2
block 69
340
0
102
{BLKREFS
331
36C
102
}
 70
     0
280
     1
281
     0
  0
BLOCK_RECORD
  5
373
330
1
100
AcDbSymbolTableRecord
100
AcDbBlockTableRecord
  2
block 70
340
0
102
{BLKREFS
331
374
102
}
 70
     0
280
     1
281
     0
  0
BLOCK_RECORD
  5
37B
330
1
100
AcDbSymbolTableRecord
100
AcDbBlockTableRecord
  2
block 71
340
0
102
{BLKREFS
331
37C
102
}
 70
     0
280
     1
281
     0
  0
BLOCK_RECORD
  5
383
330
1
100
AcDbSymbolTableRecord
100
AcDbBlockTableRecord
  2
block 72
340
0
102
{BLKREFS
331
384
102
}
 70
     0
280
     1
281
     0
  0
BLOCK_RECORD
  5
38B
330
1
100
AcDbSymbolTableRecord
100
AcDbBlockTableRecord
  2
block 73
340
0
102
{BLKREFS
331
38C
102
}
 70
     0
280
     1
281
     0
  0
BLOCK_RECORD
  5
396
330
1
100
AcDbSymbolTableRecord
100
AcDbBlockTableRecord
  2
block 74
340
0
102
{BLKREFS
331
397
102
}
 70
     0
280
     1
281
     0
  0
BLOCK_RECORD
  5
39A
330
1
100
AcDbSymbolTableRecord
100
AcDbBlockTableRecord
  2
block 75
340
0
102
{BLKREFS
331
39B
102
}
 70
     0
280
     1
281
     0
  0
BLOCK_RECORD
  5
3A5
330
1
100
AcDbSymbolTableRecord
100
AcDbBlockTableRecord
  2
block 76
340
0
102
{BLKREFS
331
3A6
102
}
 70
     0
280
     1
281
     0
  0
BLOCK_RECORD
  5
3A9
330
1
100
AcDbSymbolTableRecord
100
AcDbBlockTableRecord
  2
block 77
340
0
102
{BLKREFS
331
3AA
102
}
 70
     0
280
     1
281
     0
  0
BLOCK_RECORD
  5
3B5
330
1
100
AcDbSymbolTableRecord
100
AcDbBlockTableRecord
  2
block 78
340
0
102
{BLKREFS
331
3B6
102
}
 70
     0
280
     1
281
     0
  0
BLOCK_RECORD
  5
3B9
330
1
100
AcDbSymbolTableRecord
100
AcDbBlockTableRecord
  2
block 79
340
0
102
{BLKREFS
331
3BA
102
}
 70
     0
280
     1
281
     0
  0
BLOCK_RECORD
  5
3C4
330
1
100
AcDbSymbolTableRecord
100
AcDbBlockTableRecord
  2
block 80
340
0
102
{BLKREFS
331
3C5
102
}
 70
     0
280
     1
281
     0
  0
BLOCK_RECORD
  5
3C8
330
1
100
AcDbSymbolTableRecord
100
AcDbBlockTableRecord
  2
block 81
340
0
102
{BLKREFS
331
3C9
102
}
 70
     0
280
     1
281
     0
  0
BLOCK_RECORD
  5
3D3
330
1
100
AcDbSymbolTableRecord
100
AcDbBlockTableRecord
  2
block 82
340
0
102
{BLKREFS
331
3D4
102
}
 70
     0
280
     1
281
     0
  0
BLOCK_RECORD
  5
3D7
330
1
100
AcDbSymbolTableRecord
100
AcDbBlockTableRecord
  2
block 83
340
0
102
{BLKREFS
331
3D8
102
}
 70
     0
280
     1
281
     0
  0
BLOCK_RECORD
  5
3E4
330
1
100
AcDbSymbolTableRecord
100
AcDbBlockTableRecord
  2
block 84
340
0
102
{BLKREFS
331
3E5
102
}
 70
     0
280
     1
281
     0
  0
ENDTAB
  0
ENDSEC
  0
SECTION
  2
BLOCKS
  0
BLOCK
  5
20
330
1F
100
AcDbEntity
  8
0
100
AcDbBlockBegin
  2
*Model_Space
 70
     0
 10
0.0
 20
0.0
 30
0.0
  3
*Model_Space
  1

  0
ENDBLK
  5
21
330
1F
100
AcDbEntity
  8
0
100
AcDbBlockEnd
  0
BLOCK
  5
1C
330
1B
100
AcDbEntity
 67
     1
  8
0
100
AcDbBlockBegin
  2
*Paper_Space
 70
     0
 10
0.0
 20
0.0
 30
0.0
  3
*Paper_Space
  1

  0
ENDBLK
  5
1D
330
1B
100
AcDbEntity
 67
     1
  8
0
100
AcDbBlockEnd
  0
BLOCK
  5
24
330
23
100
AcDbEntity
  8
0
100
AcDbBlockBegin
  2
*Paper_Space0
 70
     0
 10
0.0
 20
0.0
 30
0.0
  3
*Paper_Space0
  1

  0
ENDBLK
  5
25
330
23
100
AcDbEntity
  8
0
100
AcDbBlockEnd
  0
BLOCK
  5
42
330
40
100
AcDbEntity
  8
0
100
AcDbBlockBegin
  2
block 2
 70
     0
 10
0.0
 20
0.0
 30
0.0
  3
block 2
  1

  0
INSERT
  5
45
330
40
100
AcDbEntity
  8
0
100
AcDbBlockReference
  2
block 3
 10
0.0
 20
0.0
 30
0.0
  0
INSERT
  5
A3
330
40
100
AcDbEntity
  8
0
100
AcDbBlockReference
  2
block 10
 10
0.0
 20
0.0
 30
0.0
  0
INSERT
  5
FC
330
40
100
AcDbEntity
  8
0
100
AcDbBlockReference
  2
block 22
 10
0.0
 20
0.0
 30
0.0
  0
INSERT
  5
10F
330
40
100
AcDbEntity
  8
0
100
AcDbBlockReference
  2
block 26
 10
0.0
 20
0.0
 30
0.0
  0
INSERT
  5
11D
330
40
100
AcDbEntity
  8
0
100
AcDbBlockReference
  2
block 29
 10
0.0
 20
0.0
 30
0.0
  0
INSERT
  5
130
330
40
100
AcDbEntity
  8
0
100
AcDbBlockReference
  2
block 33
 10
0.0
 20
0.0
 30
0.0
  0
INSERT
  5
218
330
40
100
AcDbEntity
  8
0
100
AcDbBlockReference
  2
block 34
 10
0.0
 20
0.0
 30
0.0
  0
INSERT
  5
267
330
40
100
AcDbEntity
  8
0
100
AcDbBlockReference
  2
block 40
 10
0.0
 20
0.0
 30
0.0
  0
INSERT
  5
2B6
330
40
100
AcDbEntity
  8
0
100
AcDbBlockReference
  2
block 46
 10
0.0
 20
0.0
 30
0.0
  0
INSERT
  5
2C4
330
40
100
AcDbEntity
  8
0
100
AcDbBlockReference
  2
block 49
 10
0.0
 20
0.0
 30
0.0
  0
INSERT
  5
2D2
330
40
100
AcDbEntity
  8
0
100
AcDbBlockReference
  2
block 52
 10
0.0
 20
0.0
 30
0.0
  0
INSERT
  5
2E0
330
40
100
AcDbEntity
  8
0
100
AcDbBlockReference
  2
block 55
 10
0.0
 20
0.0
 30
0.0
  0
INSERT
  5
33E
330
40
100
AcDbEntity
  8
0
100
AcDbBlockReference
  2
block 62
 10
0.0
 20
0.0
 30
0.0
  0
INSERT
  5
397
330
40
100
AcDbEntity
  8
0
100
AcDbBlockReference
  2
block 74
 10
0.0
 20
0.0
 30
0.0
  0
INSERT
  5
3A6
330
40
100
AcDbEntity
  8
0
100
AcDbBlockReference
  2
block 76
 10
0.0
 20
0.0
 30
0.0
  0
POLYLINE
  5
3AE
330
40
100
AcDbEntity
  8
0
 62
     7
420
 16777215
370
    25
100
AcDb2dPolyline
 66
     1
 10
0.0
 20
0.0
 30
0.0
  0
VERTEX
  5
3AF
330
3AE
100
AcDbEntity
  8
0
 62
     7
420
 16777215
370
    25
100
AcDbVertex
100
AcDb2dVertex
 10
62.4999999843749
 20
13.99999999649996
 30
0.0
  0
VERTEX
  5
3B0
330
3AE
100
AcDbEntity
  8
0
 62
     7
420
 16777215
370
    25
100
AcDbVertex
100
AcDb2dVertex
 10
27.49999999312491
 20
13.99999999649996
 30
0.0
  0
VERTEX
  5
3B1
330
3AE
100
AcDbEntity
  8
0
 62
     7
420
 16777215
370
    25
100
AcDbVertex
100
AcDb2dVertex
 10
27.49999999312491
 20
45.99999998849993
 30
0.0
  0
VERTEX
  5
3B2
330
3AE
100
AcDbEntity
  8
0
 62
     7
420
 16777215
370
    25
100
AcDbVertex
100
AcDb2dVertex
 10
62.4999999843749
 20
45.99999998849993
 30
0.0
  0
VERTEX
  5
3B3
330
3AE
100
AcDbEntity
  8
0
 62
     7
420
 16777215
370
    25
100
AcDbVertex
100
AcDb2dVertex
 10
62.4999999843749
 20
13.99999999649996
 30
0.0
  0
SEQEND
  5
3B4
330
3AE
100
AcDbEntity
  8
0
 62
     7
420
 16777215
370
    25
  0
INSERT
  5
3B6
330
40
100
AcDbEntity
  8
0
100
AcDbBlockReference
  2
block 78
 10
0.0
 20
0.0
 30
0.0
  0
INSERT
  5
3C5
330
40
100
AcDbEntity
  8
0
100
AcDbBlockReference
  2
block 80
 10
0.0
 20
0.0
 30
0.0
  0
INSERT
  5
3D4
330
40
100
AcDbEntity
  8
0
100
AcDbBlockReference
  2
block 82
 10
0.0
 20
0.0
 30
0.0
  0
ENDBLK
  5
43
330
40
100
AcDbEntity
  8
0
100
AcDbBlockEnd
  0
BLOCK
  5
46
330
44
100
AcDbEntity
  8
0
100
AcDbBlockBegin
  2
block 3
 70
     0
 10
0.0
 20
0.0
 30
0.0
  3
block 3
  1

  0
INSERT
  5
49
330
44
100
AcDbEntity
  8
0
100
AcDbBlockReference
  2
block 4
 10
0.0
 20
0.0
 30
0.0
  0
INSERT
  5
54
330
44
100
AcDbEntity
  8
0
100
AcDbBlockReference
  2
block 5
 10
0.0
 20
0.0
 30
0.0
  0
INSERT
  5
77
330
44
100
AcDbEntity
  8
0
100
AcDbBlockReference
  2
block 6
 10
0.0
 20
0.0
 30
0.0
  0
INSERT
  5
82
330
44
100
AcDbEntity
  8
0
100
AcDbBlockReference
  2
block 7
 10
0.0
 20
0.0
 30
0.0
  0
INSERT
  5
8D
330
44
100
AcDbEntity
  8
0
100
AcDbBlockReference
  2
block 8
 10
0.0
 20
0.0
 30
0.0
  0
INSERT
  5
98
330
44
100
AcDbEntity
  8
0
100
AcDbBlockReference
  2
block 9
 10
0.0
 20
0.0
 30
0.0
  0
ENDBLK
  5
47
330
44
100
AcDbEntity
  8
0
100
AcDbBlockEnd
  0
BLOCK
  5
4A
330
48
100
AcDbEntity
  8
0
100
AcDbBlockBegin
  2
block 4
 70
     0
 10
0.0
 20
0.0
 30
0.0
  3
block 4
  1

  0
POLYLINE
  5
4C
330
48
100
AcDbEntity
  8
0
 62
     7
420
 16777215
370
    25
100
AcDb2dPolyline
 66
     1
 10
0.0
 20
0.0
 30
0.0
  0
VERTEX
  5
4D
330
4C
100
AcDbEntity
  8
0
 62
     7
420
 16777215
370
    25
100
AcDbVertex
100
AcDb2dVertex
 10
53.34436255938824
 20
19.73083332836136
 30
0.0
  0
VERTEX
  5
4E
330
4C
100
AcDbEntity
  8
0
 62
     7
420
 16777215
370
    25
100
AcDbVertex
100
AcDb2dVertex
 10
52.74436255938822
 20
19.73083332836136
 30
0.0
  0
VERTEX
  5
4F
330
4C
100
AcDbEntity
  8
0
 62
     7
420
 16777215
370
    25
100
AcDbVertex
100
AcDb2dVertex
 10
52.74436255938822
 20
19.28783332836134
 30
0.0
  0
VERTEX
  5
50
330
4C
100
AcDbEntity
  8
0
 62
     7
420
 16777215
370
    25
100
AcDbVertex
100
AcDb2dVertex
 10
53.34436255938824
 20
19.28783332836134
 30
0.0
  0
VERTEX
  5
51
330
4C
100
AcDbEntity
  8
0
 62
     7
420
 16777215
370
    25
100
AcDbVertex
100
AcDb2dVertex
 10
53.34436255938824
 20
19.73083332836136
 30
0.0
  0
SEQEND
  5
52
330
4C
100
AcDbEntity
  8
0
 62
     7
420
 16777215
370
    25
  0
ENDBLK
  5
4B
330
48
100
AcDbEntity
  8
0
100
AcDbBlockEnd
  0
BLOCK
  5
55
330
53
100
AcDbEntity
  8
0
100
AcDbBlockBegin
  2
block 5
 70
     0
 10
0.0
 20
0.0
 30
0.0
  3
block 5
  1

  0
POLYLINE
  5
57
330
53
100
AcDbEntity
  8
0
 62
     7
420
 16777215
370
    25
100
AcDb2dPolyline
 66
     1
 10
0.0
 20
0.0
 30
0.0
  0
VERTEX
  5
58
330
57
100
AcDbEntity
  8
0
 62
     7
420
 16777215
370
    25
100
AcDbVertex
100
AcDb2dVertex
 10
51.24436255938824
 20
20.18783332836131
 30
0.0
  0
VERTEX
  5
59
330
57
100
AcDbEntity
  8
0
 62
     7
420
 16777215
370
    25
100
AcDbVertex
100
AcDb2dVertex
 10
54.84436255938823
 20
20.18783332836131
 30
0.0
  0
VERTEX
  5
5A
330
57
100
AcDbEntity
  8
0
 62
     7
420
 16777215
370
    25
100
AcDbVertex
100
AcDb2dVertex
 10
54.84436255938823
 20
19.28783332836134
 30
0.0
  0
VERTEX
  5
5B
330
57
100
AcDbEntity
  8
0
 62
     7
420
 16777215
370
    25
100
AcDbVertex
100
AcDb2dVertex
 10
55.14436255938824
 20
19.28783332836134
 30
0.0
  0
VERTEX
  5
5C
330
57
100
AcDbEntity
  8
0
 62
     7
420
 16777215
370
    25
100
AcDbVertex
100
AcDb2dVertex
 10
55.14436255938824
 20
18.84483332836131
 30
0.0
  0
VERTEX
  5
5D
330
57
100
AcDbEntity
  8
0
 62
     7
420
 16777215
370
    25
100
AcDbVertex
100
AcDb2dVertex
 10
54.84436255938823
 20
18.84483332836131
 30
0.0
  0
VERTEX
  5
5E
330
57
100
AcDbEntity
  8
0
 62
     7
420
 16777215
370
    25
100
AcDbVertex
100
AcDb2dVertex
 10
54.84436255938823
 20
18.40183332836129
 30
0.0
  0
VERTEX
  5
5F
330
57
100
AcDbEntity
  8
0
 62
     7
420
 16777215
370
    25
100
AcDbVertex
100
AcDb2dVertex
 10
55.14436255938824
 20
18.40183332836129
 30
0.0
  0
VERTEX
  5
60
330
57
100
AcDbEntity
  8
0
 62
     7
420
 16777215
370
    25
100
AcDbVertex
100
AcDb2dVertex
 10
55.14436255938824
 20
17.95883332836127
 30
0.0
  0
VERTEX
  5
61
330
57
100
AcDbEntity
  8
0
 62
     7
420
 16777215
370
    25
100
AcDbVertex
100
AcDb2dVertex
 10
54.84436255938823
 20
17.95883332836133
 30
0.0
  0
VERTEX
  5
62
330
57
100
AcDbEntity
  8
0
 62
     7
420
 16777215
370
    25
100
AcDbVertex
100
AcDb2dVertex
 10
54.84436255938823
 20
17.51583332836137
 30
0.0
  0
VERTEX
  5
63
330
57
100
AcDbEntity
  8
0
 62
     7
420
 16777215
370
    25
100
AcDbVertex
100
AcDb2dVertex
 10
55.14436255938824
 20
17.51583332836137
 30
0.0
  0
VERTEX
  5
64
330
57
100
AcDbEntity
  8
0
 62
     7
420
 16777215
370
    25
100
AcDbVertex
100
AcDb2dVertex
 10
55.14436255938824
 20
17.07283332836134
 30
0.0
  0
VERTEX
  5
65
330
57
100
AcDbEntity
  8
0
 62
     7
420
 16777215
370
    25
100
AcDbVertex
100
AcDb2dVertex
 10
54.84436255938823
 20
17.07283332836134
 30
0.0
  0
VERTEX
  5
66
330
57
100
AcDbEntity
  8
0
 62
     7
420
 16777215
370
    25
100
AcDbVertex
100
AcDb2dVertex
 10
54.84436255938823
 20
16.62983332836132
 30
0.0
  0
VERTEX
  5
67
330
57
100
AcDbEntity
  8
0
 62
     7
420
 16777215
370
    25
100
AcDbVertex
100
AcDb2dVertex
 10
55.14436255938824
 20
16.62983332836132
 30
0.0
  0
VERTEX
  5
68
330
57
100
AcDbEntity
  8
0
 62
     7
420
 16777215
370
    25
100
AcDbVertex
100
AcDb2dVertex
 10
55.14436255938824
 20
16.18683332836129
 30
0.0
  0
VERTEX
  5
69
330
57
100
AcDbEntity
  8
0
 62
     7
420
 16777215
370
    25
100
AcDbVertex
100
AcDb2dVertex
 10
54.84436255938823
 20
16.18683332836129
 30
0.0
  0
VERTEX
  5
6A
330
57
100
AcDbEntity
  8
0
 62
     7
420
 16777215
370
    25
100
AcDbVertex
100
AcDb2dVertex
 10
54.84436255938823
 20
15.74383332836127
 30
0.0
  0
VERTEX
  5
6B
330
57
100
AcDbEntity
  8
0
 62
     7
420
 16777215
370
    25
100
AcDbVertex
100
AcDb2dVertex
 10
55.14436255938824
 20
15.74383332836127
 30
0.0
  0
VERTEX
  5
6C
330
57
100
AcDbEntity
  8
0
 62
     7
420
 16777215
370
    25
100
AcDbVertex
100
AcDb2dVertex
 10
55.14436255938824
 20
15.30083332836137
 30
0.0
  0
VERTEX
  5
6D
330
57
100
AcDbEntity
  8
0
 62
     7
420
 16777215
370
    25
100
AcDbVertex
100
AcDb2dVertex
 10
54.84436255938823
 20
15.30083332836137
 30
0.0
  0
VERTEX
  5
6E
330
57
100
AcDbEntity
  8
0
 62
     7
420
 16777215
370
    25
100
AcDbVertex
100
AcDb2dVertex
 10
54.84436255938823
 20
14.85783332836134
 30
0.0
  0
VERTEX
  5
6F
330
57
100
AcDbEntity
  8
0
 62
     7
420
 16777215
370
    25
100
AcDbVertex
100
AcDb2dVertex
 10
53.34436255938824
 20
14.85783332836134
 30
0.0
  0
VERTEX
  5
70
330
57
100
AcDbEntity
  8
0
 62
     7
420
 16777215
370
    25
100
AcDbVertex
100
AcDb2dVertex
 10
53.34436255938824
 20
15.30083332836137
 30
0.0
  0
VERTEX
  5
71
330
57
100
AcDbEntity
  8
0
 62
     7
420
 16777215
370
    25
100
AcDbVertex
100
AcDb2dVertex
 10
52.74436255938822
 20
15.30083332836137
 30
0.0
  0
VERTEX
  5
72
330
57
100
AcDbEntity
  8
0
 62
     7
420
 16777215
370
    25
100
AcDbVertex
100
AcDb2dVertex
 10
52.74436255938822
 20
14.55783332836127
 30
0.0
  0
VERTEX
  5
73
330
57
100
AcDbEntity
  8
0
 62
     7
420
 16777215
370
    25
100
AcDbVertex
100
AcDb2dVertex
 10
51.24436255938824
 20
14.55783332836127
 30
0.0
  0
VERTEX
  5
74
330
57
100
AcDbEntity
  8
0
 62
     7
420
 16777215
370
    25
100
AcDbVertex
100
AcDb2dVertex
 10
51.24436255938824
 20
20.18783332836131
 30
0.0
  0
SEQEND
  5
75
330
57
100
AcDbEntity
  8
0
 62
     7
420
 16777215
370
    25
  0
ENDBLK
  5
56
330
53
100
AcDbEntity
  8
0
100
AcDbBlockEnd
  0
BLOCK
  5
78
330
76
100
AcDbEntity
  8
0
100
AcDbBlockBegin
  2
block 6
 70
     0
 10
0.0
 20
0.0
 30
0.0
  3
block 6
  1

  0
POLYLINE
  5
7A
330
76
100
AcDbEntity
  8
0
 62
     7
420
 16777215
370
    25
100
AcDb2dPolyline
 66
     1
 10
0.0
 20
0.0
 30
0.0
  0
VERTEX
  5
7B
330
7A
100
AcDbEntity
  8
0
 62
     7
420
 16777215
370
    25
100
AcDbVertex
100
AcDb2dVertex
 10
52.74436255938822
 20
16.18683332836129
 30
0.0
  0
VERTEX
  5
7C
330
7A
100
AcDbEntity
  8
0
 62
     7
420
 16777215
370
    25
100
AcDbVertex
100
AcDb2dVertex
 10
52.74436255938822
 20
15.74383332836127
 30
0.0
  0
VERTEX
  5
7D
330
7A
100
AcDbEntity
  8
0
 62
     7
420
 16777215
370
    25
100
AcDbVertex
100
AcDb2dVertex
 10
53.34436255938824
 20
15.74383332836127
 30
0.0
  0
VERTEX
  5
7E
330
7A
100
AcDbEntity
  8
0
 62
     7
420
 16777215
370
    25
100
AcDbVertex
100
AcDb2dVertex
 10
53.34436255938824
 20
16.18683332836129
 30
0.0
  0
VERTEX
  5
7F
330
7A
100
AcDbEntity
  8
0
 62
     7
420
 16777215
370
    25
100
AcDbVertex
100
AcDb2dVertex
 10
52.74436255938822
 20
16.18683332836129
 30
0.0
  0
SEQEND
  5
80
330
7A
100
AcDbEntity
  8
0
 62
     7
420
 16777215
370
    25
  0
ENDBLK
  5
79
330
76
100
AcDbEntity
  8
0
100
AcDbBlockEnd
  0
BLOCK
  5
83
330
81
100
AcDbEntity
  8
0
100
AcDbBlockBegin
  2
block 7
 70
     0
 10
0.0
 20
0.0
 30
0.0
  3
block 7
  1

  0
POLYLINE
  5
85
330
81
100
AcDbEntity
  8
0
 62
     7
420
 16777215
370
    25
100
AcDb2dPolyline
 66
     1
 10
0.0
 20
0.0
 30
0.0
  0
VERTEX
  5
86
330
85
100
AcDbEntity
  8
0
 62
     7
420
 16777215
370
    25
100
AcDbVertex
100
AcDb2dVertex
 10
52.74436255938822
 20
17.07283332836134
 30
0.0
  0
VERTEX
  5
87
330
85
100
AcDbEntity
  8
0
 62
     7
420
 16777215
370
    25
100
AcDbVertex
100
AcDb2dVertex
 10
52.74436255938822
 20
16.62983332836132
 30
0.0
  0
VERTEX
  5
88
330
85
100
AcDbEntity
  8
0
 62
     7
420
 16777215
370
    25
100
AcDbVertex
100
AcDb2dVertex
 10
53.34436255938824
 20
16.62983332836132
 30
0.0
  0
VERTEX
  5
89
330
85
100
AcDbEntity
  8
0
 62
     7
420
 16777215
370
    25
100
AcDbVertex
100
AcDb2dVertex
 10
53.34436255938824
 20
17.07283332836134
 30
0.0
  0
VERTEX
  5
8A
330
85
100
AcDbEntity
  8
0
 62
     7
420
 16777215
370
    25
100
AcDbVertex
100
AcDb2dVertex
 10
52.74436255938822
 20
17.07283332836134
 30
0.0
  0
SEQEND
  5
8B
330
85
100
AcDbEntity
  8
0
 62
     7
420
 16777215
370
    25
  0
ENDBLK
  5
84
330
81
100
AcDbEntity
  8
0
100
AcDbBlockEnd
  0
BLOCK
  5
8E
330
8C
100
AcDbEntity
  8
0
100
AcDbBlockBegin
  2
block 8
 70
     0
 10
0.0
 20
0.0
 30
0.0
  3
block 8
  1

  0
POLYLINE
  5
90
330
8C
100
AcDbEntity
  8
0
 62
     7
420
 16777215
370
    25
100
AcDb2dPolyline
 66
     1
 10
0.0
 20
0.0
 30
0.0
  0
VERTEX
  5
91
330
90
100
AcDbEntity
  8
0
 62
     7
420
 16777215
370
    25
100
AcDbVertex
100
AcDb2dVertex
 10
52.74436255938822
 20
17.95883332836133
 30
0.0
  0
VERTEX
  5
92
330
90
100
AcDbEntity
  8
0
 62
     7
420
 16777215
370
    25
100
AcDbVertex
100
AcDb2dVertex
 10
52.74436255938822
 20
17.51583332836137
 30
0.0
  0
VERTEX
  5
93
330
90
100
AcDbEntity
  8
0
 62
     7
420
 16777215
370
    25
100
AcDbVertex
100
AcDb2dVertex
 10
53.34436255938824
 20
17.51583332836137
 30
0.0
  0
VERTEX
  5
94
330
90
100
AcDbEntity
  8
0
 62
     7
420
 16777215
370
    25
100
AcDbVertex
100
AcDb2dVertex
 10
53.34436255938824
 20
17.95883332836133
 30
0.0
  0
VERTEX
  5
95
330
90
100
AcDbEntity
  8
0
 62
     7
420
 16777215
370
    25
100
AcDbVertex
100
AcDb2dVertex
 10
52.74436255938822
 20
17.95883332836133
 30
0.0
  0
SEQEND
  5
96
330
90
100
AcDbEntity
  8
0
 62
     7
420
 16777215
370
    25
  0
ENDBLK
  5
8F
330
8C
100
AcDbEntity
  8
0
100
AcDbBlockEnd
  0
BLOCK
  5
99
330
97
100
AcDbEntity
  8
0
100
AcDbBlockBegin
  2
block 9
 70
     0
 10
0.0
 20
0.0
 30
0.0
  3
block 9
  1

  0
POLYLINE
  5
9B
330
97
100
AcDbEntity
  8
0
 62
     7
420
 16777215
370
    25
100
AcDb2dPolyline
 66
     1
 10
0.0
 20
0.0
 30
0.0
  0
VERTEX
  5
9C
330
9B
100
AcDbEntity
  8
0
 62
     7
420
 16777215
370
    25
100
AcDbVertex
100
AcDb2dVertex
 10
52.74436255938822
 20
18.84483332836131
 30
0.0
  0
VERTEX
  5
9D
330
9B
100
AcDbEntity
  8
0
 62
     7
420
 16777215
370
    25
100
AcDbVertex
100
AcDb2dVertex
 10
52.74436255938822
 20
18.40183332836129
 30
0.0
  0
VERTEX
  5
9E
330
9B
100
AcDbEntity
  8
0
 62
     7
420
 16777215
370
    25
100
AcDbVertex
100
AcDb2dVertex
 10
53.34436255938824
 20
18.40183332836129
 30
0.0
  0
VERTEX
  5
9F
330
9B
100
AcDbEntity
  8
0
 62
     7
420
 16777215
370
    25
100
AcDbVertex
100
AcDb2dVertex
 10
53.34436255938824
 20
18.84483332836131
 30
0.0
  0
VERTEX
  5
A0
330
9B
100
AcDbEntity
  8
0
 62
     7
420
 16777215
370
    25
100
AcDbVertex
100
AcDb2dVertex
 10
52.74436255938822
 20
18.84483332836131
 30
0.0
  0
SEQEND
  5
A1
330
9B
100
AcDbEntity
  8
0
 62
     7
420
 16777215
370
    25
  0
ENDBLK
  5
9A
330
97
100
AcDbEntity
  8
0
100
AcDbBlockEnd
  0
BLOCK
  5
A4
330
A2
100
AcDbEntity
  8
0
100
AcDbBlockBegin
  2
block 10
 70
     0
 10
0.0
 20
0.0
 30
0.0
  3
block 10
  1

  0
INSERT
  5
A7
330
A2
100
AcDbEntity
  8
0
100
AcDbBlockReference
  2
block 11
 10
0.0
 20
0.0
 30
0.0
  0
INSERT
  5
AF
330
A2
100
AcDbEntity
  8
0
100
AcDbBlockReference
  2
block 12
 10
0.0
 20
0.0
 30
0.0
  0
INSERT
  5
B4
330
A2
100
AcDbEntity
  8
0
100
AcDbBlockReference
  2
block 13
 10
0.0
 20
0.0
 30
0.0
  0
INSERT
  5
B9
330
A2
100
AcDbEntity
  8
0
100
AcDbBlockReference
  2
block 14
 10
0.0
 20
0.0
 30
0.0
  0
INSERT
  5
C1
330
A2
100
AcDbEntity
  8
0
100
AcDbBlockReference
  2
block 15
 10
0.0
 20
0.0
 30
0.0
  0
INSERT
  5
C9
330
A2
100
AcDbEntity
  8
0
100
AcDbBlockReference
  2
block 16
 10
0.0
 20
0.0
 30
0.0
  0
INSERT
  5
D1
330
A2
100
AcDbEntity
  8
0
100
AcDbBlockReference
  2
block 17
 10
0.0
 20
0.0
 30
0.0
  0
INSERT
  5
D9
330
A2
100
AcDbEntity
  8
0
100
AcDbBlockReference
  2
block 18
 10
0.0
 20
0.0
 30
0.0
  0
INSERT
  5
E1
330
A2
100
AcDbEntity
  8
0
100
AcDbBlockReference
  2
block 19
 10
0.0
 20
0.0
 30
0.0
  0
INSERT
  5
E9
330
A2
100
AcDbEntity
  8
0
100
AcDbBlockReference
  2
block 20
 10
0.0
 20
0.0
 30
0.0
  0
INSERT
  5
F1
330
A2
100
AcDbEntity
  8
0
100
AcDbBlockReference
  2
block 21
 10
0.0
 20
0.0
 30
0.0
  0
ENDBLK
  5
A5
330
A2
100
AcDbEntity
  8
0
100
AcDbBlockEnd
  0
BLOCK
  5
A8
330
A6
100
AcDbEntity
  8
0
100
AcDbBlockBegin
  2
block 11
 70
     0
 10
0.0
 20
0.0
 30
0.0
  3
block 11
  1

  0
POLYLINE
  5
AA
330
A6
100
AcDbEntity
  8
0
 62
     7
420
 16777215
370
    25
100
AcDb2dPolyline
 66
     1
 10
0.0
 20
0.0
 30
0.0
  0
VERTEX
  5
AB
330
AA
100
AcDbEntity
  8
0
 62
     7
420
 16777215
370
    25
100
AcDbVertex
100
AcDb2dVertex
 10
58.86844969401681
 20
14.38683332836129
 30
0.0
  0
VERTEX
  5
AC
330
AA
100
AcDbEntity
  8
0
 62
     7
420
 16777215
370
    25
100
AcDbVertex
100
AcDb2dVertex
 10
58.86844969401681
 20
16.48536795634808
 30
0.0
  0
SEQEND
  5
AD
330
AA
100
AcDbEntity
  8
0
 62
     7
420
 16777215
370
    25
  0
ENDBLK
  5
A9
330
A6
100
AcDbEntity
  8
0
100
AcDbBlockEnd
  0
BLOCK
  5
B0
330
AE
100
AcDbEntity
  8
0
100
AcDbBlockBegin
  2
block 12
 70
     0
 10
0.0
 20
0.0
 30
0.0
  3
block 12
  1

  0
SPLINE
  5
B2
330
AE
100
AcDbEntity
  8
0
 62
     7
420
 16777215
370
    25
100
AcDbSpline
210
0.0
220
0.0
230
1.0
 70
     8
 71
     3
 72
     8
 73
     4
 74
     0
 42
0.0000000001
 43
0.0000000001
 12
1.0
 22
0.0
 32
0.0
 13
1.0
 23
0.0
 33
0.0
 40
0.0
 40
0.0
 40
0.0
 40
0.0
 40
1.0
 40
1.0
 40
1.0
 40
1.0
 10
58.86844969401681
 20
16.48536795634808
 30
0.0
 10
58.86844969401681
 20
16.58363300371226
 30
0.0
 10
58.79706465717593
 20
16.66734106091315
 30
0.0
 10
58.70003255936284
 20
16.68285851970874
 30
0.0
  0
ENDBLK
  5
B1
330
AE
100
AcDbEntity
  8
0
100
AcDbBlockEnd
  0
BLOCK
  5
B5
330
B3
100
AcDbEntity
  8
0
100
AcDbBlockBegin
  2
block 13
 70
     0
 10
0.0
 20
0.0
 30
0.0
  3
block 13
  1

  0
SPLINE
  5
B7
330
B3
100
AcDbEntity
  8
0
 62
     7
420
 16777215
370
    25
100
AcDbSpline
210
0.0
220
0.0
230
1.0
 70
     8
 71
     3
 72
     8
 73
     4
 74
     0
 42
0.0000000001
 43
0.0000000001
 12
1.0
 22
0.0
 32
0.0
 13
1.0
 23
0.0
 33
0.0
 40
0.0
 40
0.0
 40
0.0
 40
0.0
 40
1.0
 40
1.0
 40
1.0
 40
1.0
 10
55.8817830273501
 20
17.98683332836129
 30
0.0
 10
55.8817830273501
 20
17.45618764196094
 30
0.0
 10
56.94738897561736
 20
16.96314282931851
 30
0.0
 10
58.70003255936284
 20
16.68285851970881
 30
0.0
  0
ENDBLK
  5
B6
330
B3
100
AcDbEntity
  8
0
100
AcDbBlockEnd
  0
BLOCK
  5
BA
330
B8
100
AcDbEntity
  8
0
100
AcDbBlockBegin
  2
block 14
 70
     0
 10
0.0
 20
0.0
 30
0.0
  3
block 14
  1

  0
POLYLINE
  5
BC
330
B8
100
AcDbEntity
  8
0
 62
     7
420
 16777215
370
    25
100
AcDb2dPolyline
 66
     1
 10
0.0
 20
0.0
 30
0.0
  0
VERTEX
  5
BD
330
BC
100
AcDbEntity
  8
0
 62
     7
420
 16777215
370
    25
100
AcDbVertex
100
AcDb2dVertex
 10
55.8817830273501
 20
17.98683332836129
 30
0.0
  0
VERTEX
  5
BE
330
BC
100
AcDbEntity
  8
0
 62
     7
420
 16777215
370
    25
100
AcDbVertex
100
AcDb2dVertex
 10
55.45511636068342
 20
17.98683332836129
 30
0.0
  0
SEQEND
  5
BF
330
BC
100
AcDbEntity
  8
0
 62
     7
420
 16777215
370
    25
  0
ENDBLK
  5
BB
330
B8
100
AcDbEntity
  8
0
100
AcDbBlockEnd
  0
BLOCK
  5
C2
330
C0
100
AcDbEntity
  8
0
100
AcDbBlockBegin
  2
block 15
 70
     0
 10
0.0
 20
0.0
 30
0.0
  3
block 15
  1

  0
POLYLINE
  5
C4
330
C0
100
AcDbEntity
  8
0
 62
     7
420
 16777215
370
    25
100
AcDb2dPolyline
 66
     1
 10
0.0
 20
0.0
 30
0.0
  0
VERTEX
  5
C5
330
C4
100
AcDbEntity
  8
0
 62
     7
420
 16777215
370
    25
100
AcDbVertex
100
AcDb2dVertex
 10
55.45511636068342
 20
17.98683332836129
 30
0.0
  0
VERTEX
  5
C6
330
C4
100
AcDbEntity
  8
0
 62
     7
420
 16777215
370
    25
100
AcDbVertex
100
AcDb2dVertex
 10
55.45511636068342
 20
16.4868333283613
 30
0.0
  0
SEQEND
  5
C7
330
C4
100
AcDbEntity
  8
0
 62
     7
420
 16777215
370
    25
  0
ENDBLK
  5
C3
330
C0
100
AcDbEntity
  8
0
100
AcDbBlockEnd
  0
BLOCK
  5
CA
330
C8
100
AcDbEntity
  8
0
100
AcDbBlockBegin
  2
block 16
 70
     0
 10
0.0
 20
0.0
 30
0.0
  3
block 16
  1

  0
POLYLINE
  5
CC
330
C8
100
AcDbEntity
  8
0
 62
     7
420
 16777215
370
    25
100
AcDb2dPolyline
 66
     1
 10
0.0
 20
0.0
 30
0.0
  0
VERTEX
  5
CD
330
CC
100
AcDbEntity
  8
0
 62
     7
420
 16777215
370
    25
100
AcDbVertex
100
AcDb2dVertex
 10
55.45511636068342
 20
16.4868333283613
 30
0.0
  0
VERTEX
  5
CE
330
CC
100
AcDbEntity
  8
0
 62
     7
420
 16777215
370
    25
100
AcDbVertex
100
AcDb2dVertex
 10
56.30844969401672
 20
16.4868333283613
 30
0.0
  0
SEQEND
  5
CF
330
CC
100
AcDbEntity
  8
0
 62
     7
420
 16777215
370
    25
  0
ENDBLK
  5
CB
330
C8
100
AcDbEntity
  8
0
100
AcDbBlockEnd
  0
BLOCK
  5
D2
330
D0
100
AcDbEntity
  8
0
100
AcDbBlockBegin
  2
block 17
 70
     0
 10
0.0
 20
0.0
 30
0.0
  3
block 17
  1

  0
POLYLINE
  5
D4
330
D0
100
AcDbEntity
  8
0
 62
     7
420
 16777215
370
    25
100
AcDb2dPolyline
 66
     1
 10
0.0
 20
0.0
 30
0.0
  0
VERTEX
  5
D5
330
D4
100
AcDbEntity
  8
0
 62
     7
420
 16777215
370
    25
100
AcDbVertex
100
AcDb2dVertex
 10
56.30844969401672
 20
16.4868333283613
 30
0.0
  0
VERTEX
  5
D6
330
D4
100
AcDbEntity
  8
0
 62
     7
420
 16777215
370
    25
100
AcDbVertex
100
AcDb2dVertex
 10
56.30844969401672
 20
15.88683332836128
 30
0.0
  0
SEQEND
  5
D7
330
D4
100
AcDbEntity
  8
0
 62
     7
420
 16777215
370
    25
  0
ENDBLK
  5
D3
330
D0
100
AcDbEntity
  8
0
100
AcDbBlockEnd
  0
BLOCK
  5
DA
330
D8
100
AcDbEntity
  8
0
100
AcDbBlockBegin
  2
block 18
 70
     0
 10
0.0
 20
0.0
 30
0.0
  3
block 18
  1

  0
POLYLINE
  5
DC
330
D8
100
AcDbEntity
  8
0
 62
     7
420
 16777215
370
    25
100
AcDb2dPolyline
 66
     1
 10
0.0
 20
0.0
 30
0.0
  0
VERTEX
  5
DD
330
DC
100
AcDbEntity
  8
0
 62
     7
420
 16777215
370
    25
100
AcDbVertex
100
AcDb2dVertex
 10
56.30844969401672
 20
15.88683332836128
 30
0.0
  0
VERTEX
  5
DE
330
DC
100
AcDbEntity
  8
0
 62
     7
420
 16777215
370
    25
100
AcDbVertex
100
AcDb2dVertex
 10
55.75514969401667
 20
15.88683332836128
 30
0.0
  0
SEQEND
  5
DF
330
DC
100
AcDbEntity
  8
0
 62
     7
420
 16777215
370
    25
  0
ENDBLK
  5
DB
330
D8
100
AcDbEntity
  8
0
100
AcDbBlockEnd
  0
BLOCK
  5
E2
330
E0
100
AcDbEntity
  8
0
100
AcDbBlockBegin
  2
block 19
 70
     0
 10
0.0
 20
0.0
 30
0.0
  3
block 19
  1

  0
POLYLINE
  5
E4
330
E0
100
AcDbEntity
  8
0
 62
     7
420
 16777215
370
    25
100
AcDb2dPolyline
 66
     1
 10
0.0
 20
0.0
 30
0.0
  0
VERTEX
  5
E5
330
E4
100
AcDbEntity
  8
0
 62
     7
420
 16777215
370
    25
100
AcDbVertex
100
AcDb2dVertex
 10
55.75514969401667
 20
15.88683332836128
 30
0.0
  0
VERTEX
  5
E6
330
E4
100
AcDbEntity
  8
0
 62
     7
420
 16777215
370
    25
100
AcDbVertex
100
AcDb2dVertex
 10
55.75514969401667
 20
14.38683332836129
 30
0.0
  0
SEQEND
  5
E7
330
E4
100
AcDbEntity
  8
0
 62
     7
420
 16777215
370
    25
  0
ENDBLK
  5
E3
330
E0
100
AcDbEntity
  8
0
100
AcDbBlockEnd
  0
BLOCK
  5
EA
330
E8
100
AcDbEntity
  8
0
100
AcDbBlockBegin
  2
block 20
 70
     0
 10
0.0
 20
0.0
 30
0.0
  3
block 20
  1

  0
POLYLINE
  5
EC
330
E8
100
AcDbEntity
  8
0
 62
     7
420
 16777215
370
    25
100
AcDb2dPolyline
 66
     1
 10
0.0
 20
0.0
 30
0.0
  0
VERTEX
  5
ED
330
EC
100
AcDbEntity
  8
0
 62
     7
420
 16777215
370
    25
100
AcDbVertex
100
AcDb2dVertex
 10
55.75514969401667
 20
14.38683332836129
 30
0.0
  0
VERTEX
  5
EE
330
EC
100
AcDbEntity
  8
0
 62
     7
420
 16777215
370
    25
100
AcDbVertex
100
AcDb2dVertex
 10
58.86844969401681
 20
14.38683332836129
 30
0.0
  0
SEQEND
  5
EF
330
EC
100
AcDbEntity
  8
0
 62
     7
420
 16777215
370
    25
  0
ENDBLK
  5
EB
330
E8
100
AcDbEntity
  8
0
100
AcDbBlockEnd
  0
BLOCK
  5
F2
330
F0
100
AcDbEntity
  8
0
100
AcDbBlockBegin
  2
block 21
 70
     0
 10
0.0
 20
0.0
 30
0.0
  3
block 21
  1

  0
POLYLINE
  5
F4
330
F0
100
AcDbEntity
  8
0
 62
     7
420
 16777215
370
    25
100
AcDb2dPolyline
 66
     1
 10
0.0
 20
0.0
 30
0.0
  0
VERTEX
  5
F5
330
F4
100
AcDbEntity
  8
0
 62
     7
420
 16777215
370
    25
100
AcDbVertex
100
AcDb2dVertex
 10
57.16178302735008
 20
15.88683332836128
 30
0.0
  0
VERTEX
  5
F6
330
F4
100
AcDbEntity
  8
0
 62
     7
420
 16777215
370
    25
100
AcDbVertex
100
AcDb2dVertex
 10
58.01511636068345
 20
15.88683332836128
 30
0.0
  0
VERTEX
  5
F7
330
F4
100
AcDbEntity
  8
0
 62
     7
420
 16777215
370
    25
100
AcDbVertex
100
AcDb2dVertex
 10
58.01511636068345
 20
16.4868333283613
 30
0.0
  0
VERTEX
  5
F8
330
F4
100
AcDbEntity
  8
0
 62
     7
420
 16777215
370
    25
100
AcDbVertex
100
AcDb2dVertex
 10
57.16178302735008
 20
16.4868333283613
 30
0.0
  0
VERTEX
  5
F9
330
F4
100
AcDbEntity
  8
0
 62
     7
420
 16777215
370
    25
100
AcDbVertex
100
AcDb2dVertex
 10
57.16178302735008
 20
15.88683332836128
 30
0.0
  0
SEQEND
  5
FA
330
F4
100
AcDbEntity
  8
0
 62
     7
420
 16777215
370
    25
  0
ENDBLK
  5
F3
330
F0
100
AcDbEntity
  8
0
100
AcDbBlockEnd
  0
BLOCK
  5
FD
330
FB
100
AcDbEntity
  8
0
100
AcDbBlockBegin
  2
block 22
 70
     0
 10
0.0
 20
0.0
 30
0.0
  3
block 22
  1

  0
INSERT
  5
100
330
FB
100
AcDbEntity
  8
0
100
AcDbBlockReference
  2
block 23
 10
0.0
 20
0.0
 30
0.0
  0
INSERT
  5
105
330
FB
100
AcDbEntity
  8
0
100
AcDbBlockReference
  2
block 24
 10
0.0
 20
0.0
 30
0.0
  0
INSERT
  5
10A
330
FB
100
AcDbEntity
  8
0
100
AcDbBlockReference
  2
block 25
 10
0.0
 20
0.0
 30
0.0
  0
ENDBLK
  5
FE
330
FB
100
AcDbEntity
  8
0
100
AcDbBlockEnd
  0
BLOCK
  5
101
330
FF
100
AcDbEntity
  8
0
100
AcDbBlockBegin
  2
block 23
 70
     0
 10
0.0
 20
0.0
 30
0.0
  3
block 23
  1

  0
SPLINE
  5
103
330
FF
100
AcDbEntity
  8
0
 62
     7
420
 16777215
370
    25
100
AcDbSpline
210
0.0
220
0.0
230
1.0
 70
    11
 71
     3
 72
   311
 73
   307
 74
     0
 42
0.0000000001
 43
0.0000000001
 12
1.0
 22
0.0
 32
0.0
 13
1.0
 23
0.0
 33
0.0
 40
0.0
 40
0.0
 40
0.0
 40
0.0
 40
1.0
 40
1.0
 40
1.0
 40
2.0
 40
2.0
 40
2.0
 40
3.0
 40
3.0
 40
3.0
 40
4.0
 40
4.0
 40
4.0
 40
5.0
 40
5.0
 40
5.0
 40
6.0
 40
6.0
 40
6.0
 40
7.0
 40
7.0
 40
7.0
 40
8.0
 40
8.0
 40
8.0
 40
9.0
 40
9.0
 40
9.0
 40
10.0
 40
10.0
 40
10.0
 40
11.0
 40
11.0
 40
11.0
 40
12.0
 40
12.0
 40
12.0
 40
13.0
 40
13.0
 40
13.0
 40
14.0
 40
14.0
 40
14.0
 40
15.0
 40
15.0
 40
15.0
 40
16.0
 40
16.0
 40
16.0
 40
17.0
 40
17.0
 40
17.0
 40
18.0
 40
18.0
 40
18.0
 40
19.0
 40
19.0
 40
19.0
 40
20.0
 40
20.0
 40
20.0
 40
21.0
 40
21.0
 40
21.0
 40
22.0
 40
22.0
 40
22.0
 40
23.0
 40
23.0
 40
23.0
 40
24.0
 40
24.0
 40
24.0
 40
25.0
 40
25.0
 40
25.0
 40
26.0
 40
26.0
 40
26.0
 40
27.0
 40
27.0
 40
27.0
 40
28.0
 40
28.0
 40
28.0
 40
29.0
 40
29.0
 40
29.0
 40
30.0
 40
30.0
 40
30.0
 40
31.0
 40
31.0
 40
31.0
 40
32.0
 40
32.0
 40
32.0
 40
33.0
 40
33.0
 40
33.0
 40
34.0
 40
34.0
 40
34.0
 40
35.0
 40
35.0
 40
35.0
 40
36.0
 40
36.0
 40
36.0
 40
37.0
 40
37.0
 40
37.0
 40
38.0
 40
38.0
 40
38.0
 40
39.0
 40
39.0
 40
39.0
 40
40.0
 40
40.0
 40
40.0
 40
41.0
 40
41.0
 40
41.0
 40
42.0
 40
42.0
 40
42.0
 40
43.0
 40
43.0
 40
43.0
 40
44.0
 40
44.0
 40
44.0
 40
45.0
 40
45.0
 40
45.0
 40
46.0
 40
46.0
 40
46.0
 40
47.0
 40
47.0
 40
47.0
 40
48.0
 40
48.0
 40
48.0
 40
49.0
 40
49.0
 40
49.0
 40
50.0
 40
50.0
 40
50.0
 40
51.0
 40
51.0
 40
51.0
 40
52.0
 40
52.0
 40
52.0
 40
53.0
 40
53.0
 40
53.0
 40
54.0
 40
54.0
 40
54.0
 40
55.0
 40
55.0
 40
55.0
 40
56.0
 40
56.0
 40
56.0
 40
57.0
 40
57.0
 40
57.0
 40
58.0
 40
58.0
 40
58.0
 40
59.0
 40
59.0
 40
59.0
 40
60.0
 40
60.0
 40
60.0
 40
61.0
 40
61.0
 40
61.0
 40
62.0
 40
62.0
 40
62.0
 40
63.0
 40
63.0
 40
63.0
 40
64.0
 40
64.0
 40
64.0
 40
65.0
 40
65.0
 40
65.0
 40
66.0
 40
66.0
 40
66.0
 40
67.0
 40
67.0
 40
67.0
 40
68.0
 40
68.0
 40
68.0
 40
69.0
 40
69.0
 40
69.0
 40
70.0
 40
70.0
 40
70.0
 40
71.0
 40
71.0
 40
71.0
 40
72.0
 40
72.0
 40
72.0
 40
73.0
 40
73.0
 40
73.0
 40
74.0
 40
74.0
 40
74.0
 40
75.0
 40
75.0
 40
75.0
 40
76.0
 40
76.0
 40
76.0
 40
77.0
 40
77.0
 40
77.0
 40
78.0
 40
78.0
 40
78.0
 40
79.0
 40
79.0
 40
79.0
 40
80.0
 40
80.0
 40
80.0
 40
81.0
 40
81.0
 40
81.0
 40
82.0
 40
82.0
 40
82.0
 40
83.0
 40
83.0
 40
83.0
 40
84.0
 40
84.0
 40
84.0
 40
85.0
 40
85.0
 40
85.0
 40
86.0
 40
86.0
 40
86.0
 40
87.0
 40
87.0
 40
87.0
 40
88.0
 40
88.0
 40
88.0
 40
89.0
 40
89.0
 40
89.0
 40
90.0
 40
90.0
 40
90.0
 40
91.0
 40
91.0
 40
91.0
 40
92.0
 40
92.0
 40
92.0
 40
93.0
 40
93.0
 40
93.0
 40
94.0
 40
94.0
 40
94.0
 40
95.0
 40
95.0
 40
95.0
 40
96.0
 40
96.0
 40
96.0
 40
97.0
 40
97.0
 40
97.0
 40
98.0
 40
98.0
 40
98.0
 40
99.0
 40
99.0
 40
99.0
 40
100.0
 40
100.0
 40
100.0
 40
101.0
 40
101.0
 40
101.0
 40
102.0
 40
102.0
 40
102.0
 40
102.0
 10
36.89890645295885
 20
31.70074560452591
 30
0.0
 10
36.89890645295885
 20
31.70074560452591
 30
0.0
 10
37.19890645295892
 20
31.70074560452591
 30
0.0
 10
37.19890645295892
 20
31.70074560452591
 30
0.0
 10
37.19890645295892
 20
31.70074560452591
 30
0.0
 10
37.19890645295892
 20
27.11741227119265
 30
0.0
 10
37.19890645295892
 20
27.11741227119265
 30
0.0
 10
37.19890645295892
 20
27.11741227119265
 30
0.0
 10
36.89890645295885
 20
27.11741227119265
 30
0.0
 10
36.89890645295885
 20
27.11741227119265
 30
0.0
 10
36.89890645295885
 20
27.11741227119265
 30
0.0
 10
36.89890645295885
 20
26.36741227119265
 30
0.0
 10
36.89890645295885
 20
26.36741227119265
 30
0.0
 10
36.89890645295885
 20
26.36741227119265
 30
0.0
 10
37.19890645295892
 20
26.36741227119265
 30
0.0
 10
37.19890645295892
 20
26.36741227119265
 30
0.0
 10
37.19890645295892
 20
26.36741227119265
 30
0.0
 10
37.19890645295892
 20
21.78407893785925
 30
0.0
 10
37.19890645295892
 20
21.78407893785925
 30
0.0
 10
37.19890645295892
 20
21.78407893785925
 30
0.0
 10
36.89890645295885
 20
21.78407893785925
 30
0.0
 10
36.89890645295885
 20
21.78407893785925
 30
0.0
 10
36.89890645295885
 20
21.78407893785925
 30
0.0
 10
36.89890645295885
 20
21.03407893785926
 30
0.0
 10
36.89890645295885
 20
21.03407893785926
 30
0.0
 10
36.89890645295885
 20
21.03407893785926
 30
0.0
 10
37.19890645295892
 20
21.03407893785926
 30
0.0
 10
37.19890645295892
 20
21.03407893785926
 30
0.0
 10
37.19890645295892
 20
21.03407893785926
 30
0.0
 10
37.19890645295892
 20
20.65907893785932
 30
0.0
 10
37.19890645295892
 20
20.65907893785932
 30
0.0
 10
37.19890645295892
 20
20.65907893785932
 30
0.0
 10
31.89890645295893
 20
20.65907893785932
 30
0.0
 10
31.89890645295893
 20
20.65907893785932
 30
0.0
 10
31.89890645295893
 20
20.65907893785932
 30
0.0
 10
31.89890645295893
 20
21.03407893785926
 30
0.0
 10
31.89890645295893
 20
21.03407893785926
 30
0.0
 10
31.89890645295893
 20
21.03407893785926
 30
0.0
 10
32.19890645295887
 20
21.03407893785926
 30
0.0
 10
32.19890645295887
 20
21.03407893785926
 30
0.0
 10
32.19890645295887
 20
21.03407893785926
 30
0.0
 10
32.19890645295887
 20
21.78407893785925
 30
0.0
 10
32.19890645295887
 20
21.78407893785925
 30
0.0
 10
32.19890645295887
 20
21.78407893785925
 30
0.0
 10
31.89890645295893
 20
21.78407893785925
 30
0.0
 10
31.89890645295893
 20
21.78407893785925
 30
0.0
 10
31.89890645295893
 20
21.78407893785925
 30
0.0
 10
31.89890645295893
 20
26.36741227119265
 30
0.0
 10
31.89890645295893
 20
26.36741227119265
 30
0.0
 10
31.89890645295893
 20
26.36741227119265
 30
0.0
 10
32.19890645295887
 20
26.36741227119265
 30
0.0
 10
32.19890645295887
 20
26.36741227119265
 30
0.0
 10
32.19890645295887
 20
26.36741227119265
 30
0.0
 10
32.19890645295887
 20
27.11741227119265
 30
0.0
 10
32.19890645295887
 20
27.11741227119265
 30
0.0
 10
32.19890645295887
 20
27.11741227119265
 30
0.0
 10
31.89890645295893
 20
27.11741227119265
 30
0.0
 10
31.89890645295893
 20
27.11741227119265
 30
0.0
 10
31.89890645295893
 20
27.11741227119265
 30
0.0
 10
31.89890645295893
 20
31.70074560452591
 30
0.0
 10
31.89890645295893
 20
31.70074560452591
 30
0.0
 10
31.89890645295893
 20
31.70074560452591
 30
0.0
 10
32.19890645295887
 20
31.70074560452591
 30
0.0
 10
32.19890645295887
 20
31.70074560452591
 30
0.0
 10
32.19890645295887
 20
31.70074560452591
 30
0.0
 10
32.19890645295887
 20
32.45074560452591
 30
0.0
 10
32.19890645295887
 20
32.45074560452591
 30
0.0
 10
32.19890645295887
 20
32.45074560452591
 30
0.0
 10
31.89890645295893
 20
32.45074560452591
 30
0.0
 10
31.89890645295893
 20
32.45074560452591
 30
0.0
 10
31.89890645295893
 20
32.45074560452591
 30
0.0
 10
31.89890645295893
 20
37.03407893785931
 30
0.0
 10
31.89890645295893
 20
37.03407893785931
 30
0.0
 10
31.89890645295893
 20
37.03407893785931
 30
0.0
 10
32.19890645295887
 20
37.03407893785931
 30
0.0
 10
32.19890645295887
 20
37.03407893785931
 30
0.0
 10
32.19890645295887
 20
37.03407893785931
 30
0.0
 10
32.19890645295887
 20
37.7840789378593
 30
0.0
 10
32.19890645295887
 20
37.7840789378593
 30
0.0
 10
32.19890645295887
 20
37.7840789378593
 30
0.0
 10
31.89890645295893
 20
37.7840789378593
 30
0.0
 10
31.89890645295893
 20
37.7840789378593
 30
0.0
 10
31.89890645295893
 20
37.7840789378593
 30
0.0
 10
31.89890645295893
 20
40.45907893785932
 30
0.0
 10
31.89890645295893
 20
40.45907893785932
 30
0.0
 10
31.89890645295893
 20
40.45907893785932
 30
0.0
 10
28.44890642762694
 20
40.45907893785932
 30
0.0
 10
28.44890642762694
 20
40.45907893785932
 30
0.0
 10
28.44890642762694
 20
40.45907893785932
 30
0.0
 10
28.44890642762694
 20
40.61607893785934
 30
0.0
 10
28.44890642762694
 20
40.61607893785934
 30
0.0
 10
28.44890642762694
 20
40.61607893785934
 30
0.0
 10
28.14890642762693
 20
40.61607893785934
 30
0.0
 10
28.14890642762693
 20
40.61607893785934
 30
0.0
 10
28.14890642762693
 20
40.61607893785934
 30
0.0
 10
28.14890642762693
 20
41.05907893785933
 30
0.0
 10
28.14890642762693
 20
41.05907893785933
 30
0.0
 10
28.14890642762693
 20
41.05907893785933
 30
0.0
 10
28.44890642762694
 20
41.05907893785933
 30
0.0
 10
28.44890642762694
 20
41.05907893785933
 30
0.0
 10
28.44890642762694
 20
41.05907893785933
 30
0.0
 10
28.44890642762694
 20
41.50207893785933
 30
0.0
 10
28.44890642762694
 20
41.50207893785933
 30
0.0
 10
28.44890642762694
 20
41.50207893785933
 30
0.0
 10
28.14890642762693
 20
41.50207893785933
 30
0.0
 10
28.14890642762693
 20
41.50207893785933
 30
0.0
 10
28.14890642762693
 20
41.50207893785933
 30
0.0
 10
28.14890642762693
 20
41.94507893785932
 30
0.0
 10
28.14890642762693
 20
41.94507893785932
 30
0.0
 10
28.14890642762693
 20
41.94507893785932
 30
0.0
 10
28.44890642762694
 20
41.94507893785932
 30
0.0
 10
28.44890642762694
 20
41.94507893785932
 30
0.0
 10
28.44890642762694
 20
41.94507893785932
 30
0.0
 10
28.44890633672988
 20
42.38807893785935
 30
0.0
 10
28.44890633672988
 20
42.38807893785935
 30
0.0
 10
28.44890633672988
 20
42.38807893785935
 30
0.0
 10
28.14890642762693
 20
42.38807893785935
 30
0.0
 10
28.14890642762693
 20
42.38807893785935
 30
0.0
 10
28.14890642762693
 20
42.38807893785935
 30
0.0
 10
28.14890642762693
 20
42.83107893785934
 30
0.0
 10
28.14890642762693
 20
42.83107893785934
 30
0.0
 10
28.14890642762693
 20
42.83107893785934
 30
0.0
 10
28.44890642762694
 20
42.83107893785934
 30
0.0
 10
28.44890642762694
 20
42.83107893785934
 30
0.0
 10
28.44890642762694
 20
42.83107893785934
 30
0.0
 10
28.44890642762694
 20
43.27407893785934
 30
0.0
 10
28.44890642762694
 20
43.27407893785934
 30
0.0
 10
28.44890642762694
 20
43.27407893785934
 30
0.0
 10
28.14890642762693
 20
43.27407893785934
 30
0.0
 10
28.14890642762693
 20
43.27407893785934
 30
0.0
 10
28.14890642762693
 20
43.27407893785934
 30
0.0
 10
28.14890642762693
 20
43.71707893785933
 30
0.0
 10
28.14890642762693
 20
43.71707893785933
 30
0.0
 10
28.14890642762693
 20
43.71707893785933
 30
0.0
 10
28.44890642762694
 20
43.71707893785933
 30
0.0
 10
28.44890642762694
 20
43.71707893785933
 30
0.0
 10
28.44890642762694
 20
43.71707893785933
 30
0.0
 10
28.44890642762694
 20
44.16007893785932
 30
0.0
 10
28.44890642762694
 20
44.16007893785932
 30
0.0
 10
28.44890642762694
 20
44.16007893785932
 30
0.0
 10
28.14890642762693
 20
44.16007893785932
 30
0.0
 10
28.14890642762693
 20
44.16007893785932
 30
0.0
 10
28.14890642762693
 20
44.16007893785932
 30
0.0
 10
28.14890642762693
 20
44.60307893785934
 30
0.0
 10
28.14890642762693
 20
44.60307893785934
 30
0.0
 10
28.14890642762693
 20
44.60307893785934
 30
0.0
 10
28.44890633672988
 20
44.60307893785934
 30
0.0
 10
28.44890633672988
 20
44.60307893785934
 30
0.0
 10
28.44890633672988
 20
44.60307893785934
 30
0.0
 10
28.44890633672988
 20
45.04607893785933
 30
0.0
 10
28.44890633672988
 20
45.04607893785933
 30
0.0
 10
28.44890633672988
 20
45.04607893785933
 30
0.0
 10
28.14890642762693
 20
45.04607893785933
 30
0.0
 10
28.14890642762693
 20
45.04607893785933
 30
0.0
 10
28.14890642762693
 20
45.04607893785933
 30
0.0
 10
28.14890642762693
 20
45.78907893785934
 30
0.0
 10
28.14890642762693
 20
45.78907893785934
 30
0.0
 10
28.14890642762693
 20
45.78907893785934
 30
0.0
 10
29.00223976096023
 20
45.78907893785934
 30
0.0
 10
29.00223976096023
 20
45.78907893785934
 30
0.0
 10
29.00223976096023
 20
45.78907893785934
 30
0.0
 10
29.00223976096023
 20
45.48907893785933
 30
0.0
 10
29.00223976096023
 20
45.48907893785933
 30
0.0
 10
29.00223976096023
 20
45.48907893785933
 30
0.0
 10
29.85557309429359
 20
45.48907893785933
 30
0.0
 10
29.85557309429359
 20
45.48907893785933
 30
0.0
 10
29.85557309429359
 20
45.48907893785933
 30
0.0
 10
29.85557309429359
 20
45.78907893785934
 30
0.0
 10
29.85557309429359
 20
45.78907893785934
 30
0.0
 10
29.85557309429359
 20
45.78907893785934
 30
0.0
 10
30.70890642762695
 20
45.78907893785934
 30
0.0
 10
30.70890642762695
 20
45.78907893785934
 30
0.0
 10
30.70890642762695
 20
45.78907893785934
 30
0.0
 10
30.70890642762695
 20
45.48907893785933
 30
0.0
 10
30.70890642762695
 20
45.48907893785933
 30
0.0
 10
30.70890642762695
 20
45.48907893785933
 30
0.0
 10
31.56223976096025
 20
45.48907893785933
 30
0.0
 10
31.56223976096025
 20
45.48907893785933
 30
0.0
 10
31.56223976096025
 20
45.48907893785933
 30
0.0
 10
31.56223976096025
 20
45.78907893785934
 30
0.0
 10
31.56223976096025
 20
45.78907893785934
 30
0.0
 10
31.87139625292423
 20
45.78262711895122
 30
0.0
 10
32.17039394160027
 20
45.67751074402605
 30
0.0
 10
32.41557309429355
 20
45.48907893785933
 30
0.0
 10
32.41557309429355
 20
45.48907893785933
 30
0.0
 10
36.68223976096024
 20
45.48907893785933
 30
0.0
 10
36.68223976096024
 20
45.48907893785933
 30
0.0
 10
36.92741891365358
 20
45.67751074402605
 30
0.0
 10
37.22641660232969
 20
45.78262711895125
 30
0.0
 10
37.5355730942936
 20
45.78907893785934
 30
0.0
 10
37.5355730942936
 20
45.78907893785934
 30
0.0
 10
37.5355730942936
 20
45.48907893785933
 30
0.0
 10
37.5355730942936
 20
45.48907893785933
 30
0.0
 10
37.5355730942936
 20
45.48907893785933
 30
0.0
 10
38.38890642762696
 20
45.48907893785933
 30
0.0
 10
38.38890642762696
 20
45.48907893785933
 30
0.0
 10
38.38890642762696
 20
45.48907893785933
 30
0.0
 10
38.38890642762696
 20
45.78907893785934
 30
0.0
 10
38.38890642762696
 20
45.78907893785934
 30
0.0
 10
38.38890642762696
 20
45.78907893785934
 30
0.0
 10
39.2422397609602
 20
45.78907893785934
 30
0.0
 10
39.2422397609602
 20
45.78907893785934
 30
0.0
 10
39.2422397609602
 20
45.78907893785934
 30
0.0
 10
39.2422397609602
 20
45.48907893785933
 30
0.0
 10
39.2422397609602
 20
45.48907893785933
 30
0.0
 10
39.2422397609602
 20
45.48907893785933
 30
0.0
 10
40.09557309429356
 20
45.48907893785933
 30
0.0
 10
40.09557309429356
 20
45.48907893785933
 30
0.0
 10
40.09557309429356
 20
45.48907893785933
 30
0.0
 10
40.09557309429356
 20
45.78907893785934
 30
0.0
 10
40.09557309429356
 20
45.78907893785934
 30
0.0
 10
40.09557309429356
 20
45.78907893785934
 30
0.0
 10
40.94890642762693
 20
45.78907893785934
 30
0.0
 10
40.94890642762693
 20
45.78907893785934
 30
0.0
 10
40.94890642762693
 20
45.78907893785934
 30
0.0
 10
40.94890642762693
 20
45.04607893785933
 30
0.0
 10
40.94890642762693
 20
45.04607893785933
 30
0.0
 10
40.94890642762693
 20
45.04607893785933
 30
0.0
 10
40.64890651852404
 20
45.04607893785933
 30
0.0
 10
40.64890651852404
 20
45.04607893785933
 30
0.0
 10
40.64890651852404
 20
45.04607893785933
 30
0.0
 10
40.64890642762698
 20
44.60307893785934
 30
0.0
 10
40.64890642762698
 20
44.60307893785934
 30
0.0
 10
40.64890642762698
 20
44.60307893785934
 30
0.0
 10
40.94890642762693
 20
44.60307893785934
 30
0.0
 10
40.94890642762693
 20
44.60307893785934
 30
0.0
 10
40.94890642762693
 20
44.60307893785934
 30
0.0
 10
40.94890642762693
 20
44.16007893785932
 30
0.0
 10
40.94890642762693
 20
44.16007893785932
 30
0.0
 10
40.94890642762693
 20
44.16007893785932
 30
0.0
 10
40.64890642762698
 20
44.16007893785932
 30
0.0
 10
40.64890642762698
 20
44.16007893785932
 30
0.0
 10
40.64890642762698
 20
44.16007893785932
 30
0.0
 10
40.64890642762698
 20
43.71707893785933
 30
0.0
 10
40.64890642762698
 20
43.71707893785933
 30
0.0
 10
40.64890642762698
 20
43.71707893785933
 30
0.0
 10
40.94890642762693
 20
43.71707893785933
 30
0.0
 10
40.94890642762693
 20
43.71707893785933
 30
0.0
 10
40.94890642762693
 20
43.71707893785933
 30
0.0
 10
40.94890642762693
 20
43.27407893785934
 30
0.0
 10
40.94890642762693
 20
43.27407893785934
 30
0.0
 10
40.94890642762693
 20
43.27407893785934
 30
0.0
 10
40.64890651852404
 20
43.27407893785934
 30
0.0
 10
40.64890651852404
 20
43.27407893785934
 30
0.0
 10
40.64890651852404
 20
43.27407893785934
 30
0.0
 10
40.64890642762698
 20
42.83107893785934
 30
0.0
 10
40.64890642762698
 20
42.83107893785934
 30
0.0
 10
40.64890642762698
 20
42.83107893785934
 30
0.0
 10
40.94890642762693
 20
42.83107893785934
 30
0.0
 10
40.94890642762693
 20
42.83107893785934
 30
0.0
 10
40.94890642762693
 20
42.83107893785934
 30
0.0
 10
40.94890642762693
 20
42.38807893785935
 30
0.0
 10
40.94890642762693
 20
42.38807893785935
 30
0.0
 10
40.94890642762693
 20
42.38807893785935
 30
0.0
 10
40.64890642762698
 20
42.38807893785935
 30
0.0
 10
40.64890642762698
 20
42.38807893785935
 30
0.0
 10
40.64890642762698
 20
42.38807893785935
 30
0.0
 10
40.64890642762698
 20
41.94507893785932
 30
0.0
 10
40.64890642762698
 20
41.94507893785932
 30
0.0
 10
40.64890642762698
 20
41.94507893785932
 30
0.0
 10
40.94890642762693
 20
41.94507893785932
 30
0.0
 10
40.94890642762693
 20
41.94507893785932
 30
0.0
 10
40.94890642762693
 20
41.94507893785932
 30
0.0
 10
40.94890642762693
 20
41.50207893785933
 30
0.0
 10
40.94890642762693
 20
41.50207893785933
 30
0.0
 10
40.94890642762693
 20
41.50207893785933
 30
0.0
 10
40.64890642762698
 20
41.50207893785933
 30
0.0
 10
40.64890642762698
 20
41.50207893785933
 30
0.0
 10
40.64890642762698
 20
41.50207893785933
 30
0.0
 10
40.64890642762698
 20
41.05907893785933
 30
0.0
 10
40.64890642762698
 20
41.05907893785933
 30
0.0
 10
40.64890642762698
 20
41.05907893785933
 30
0.0
 10
40.94890642762693
 20
41.05907893785933
 30
0.0
 10
40.94890642762693
 20
41.05907893785933
 30
0.0
 10
40.94890642762693
 20
41.05907893785933
 30
0.0
 10
40.94890642762693
 20
40.61607893785934
 30
0.0
 10
40.94890642762693
 20
40.61607893785934
 30
0.0
 10
40.94890642762693
 20
40.61607893785934
 30
0.0
 10
40.64890642762698
 20
40.61607893785934
 30
0.0
 10
40.64890642762698
 20
40.61607893785934
 30
0.0
 10
40.64890642762698
 20
40.61607893785934
 30
0.0
 10
40.64890642762698
 20
40.45907893785932
 30
0.0
 10
40.64890642762698
 20
40.45907893785932
 30
0.0
 10
40.64890642762698
 20
40.45907893785932
 30
0.0
 10
37.19890644401826
 20
40.45907893785932
 30
0.0
 10
37.19890644401826
 20
40.45907893785932
 30
0.0
 10
37.19890644401826
 20
40.45907893785932
 30
0.0
 10
37.19890645295892
 20
37.7840789378593
 30
0.0
 10
37.19890645295892
 20
37.7840789378593
 30
0.0
 10
37.19890645295892
 20
37.7840789378593
 30
0.0
 10
36.89890645295885
 20
37.7840789378593
 30
0.0
 10
36.89890645295885
 20
37.7840789378593
 30
0.0
 10
36.89890645295885
 20
37.7840789378593
 30
0.0
 10
36.89890645295885
 20
37.03407893785931
 30
0.0
 10
36.89890645295885
 20
37.03407893785931
 30
0.0
 10
36.89890645295885
 20
37.03407893785931
 30
0.0
 10
37.19890645295892
 20
37.03407893785931
 30
0.0
 10
37.19890645295892
 20
37.03407893785931
 30
0.0
 10
37.19890645295892
 20
37.03407893785931
 30
0.0
 10
37.19890645295892
 20
32.45074560452591
 30
0.0
 10
37.19890645295892
 20
32.45074560452591
 30
0.0
 10
37.19890645295892
 20
32.45074560452591
 30
0.0
 10
36.89890645295885
 20
32.45074560452591
 30
0.0
 10
36.89890645295885
 20
32.45074560452591
 30
0.0
 10
36.89890645295885
 20
32.45074560452591
 30
0.0
 10
36.89890645295885
 20
31.70074560452591
 30
0.0
 10
36.89890645295885
 20
31.70074560452591
 30
0.0
  0
ENDBLK
  5
102
330
FF
100
AcDbEntity
  8
0
100
AcDbBlockEnd
  0
BLOCK
  5
106
330
104
100
AcDbEntity
  8
0
100
AcDbBlockBegin
  2
block 24
 70
     0
 10
0.0
 20
0.0
 30
0.0
  3
block 24
  1

  0
SPLINE
  5
108
330
104
100
AcDbEntity
  8
0
 62
     7
420
 16777215
370
    25
100
AcDbSpline
210
0.0
220
0.0
230
1.0
 70
    11
 71
     3
 72
    20
 73
    16
 74
     0
 42
0.0000000001
 43
0.0000000001
 12
1.0
 22
0.0
 32
0.0
 13
1.0
 23
0.0
 33
0.0
 40
0.0
 40
0.0
 40
0.0
 40
0.0
 40
1.0
 40
1.0
 40
1.0
 40
2.0
 40
2.0
 40
2.0
 40
3.0
 40
3.0
 40
3.0
 40
4.0
 40
4.0
 40
4.0
 40
5.0
 40
5.0
 40
5.0
 40
5.0
 10
30.5339064276269
 20
43.27407893785934
 30
0.0
 10
30.5339064276269
 20
43.94510490890374
 30
0.0
 10
31.07788045658249
 20
44.48907893785933
 30
0.0
 10
31.74890642762692
 20
44.48907893785933
 30
0.0
 10
32.41993239867136
 20
44.48907893785933
 30
0.0
 10
32.96390642762695
 20
43.94510490890374
 30
0.0
 10
32.96390642762695
 20
43.27407893785934
 30
0.0
 10
32.96390642762695
 20
42.6030529668149
 30
0.0
 10
32.41993239867136
 20
42.05907893785934
 30
0.0
 10
31.74890642762692
 20
42.05907893785934
 30
0.0
 10
31.07788045658249
 20
42.05907893785934
 30
0.0
 10
30.5339064276269
 20
42.60305296681493
 30
0.0
 10
30.5339064276269
 20
43.27407893785934
 30
0.0
 10
30.5339064276269
 20
43.27407893785934
 30
0.0
 10
30.5339064276269
 20
43.27407893785934
 30
0.0
 10
30.5339064276269
 20
43.27407893785934
 30
0.0
  0
ENDBLK
  5
107
330
104
100
AcDbEntity
  8
0
100
AcDbBlockEnd
  0
BLOCK
  5
10B
330
109
100
AcDbEntity
  8
0
100
AcDbBlockBegin
  2
block 25
 70
     0
 10
0.0
 20
0.0
 30
0.0
  3
block 25
  1

  0
SPLINE
  5
10D
330
109
100
AcDbEntity
  8
0
 62
     7
420
 16777215
370
    25
100
AcDbSpline
210
0.0
220
0.0
230
1.0
 70
    11
 71
     3
 72
    20
 73
    16
 74
     0
 42
0.0000000001
 43
0.0000000001
 12
1.0
 22
0.0
 32
0.0
 13
1.0
 23
0.0
 33
0.0
 40
0.0
 40
0.0
 40
0.0
 40
0.0
 40
1.0
 40
1.0
 40
1.0
 40
2.0
 40
2.0
 40
2.0
 40
3.0
 40
3.0
 40
3.0
 40
4.0
 40
4.0
 40
4.0
 40
5.0
 40
5.0
 40
5.0
 40
5.0
 10
36.13390642762697
 20
43.27407893785934
 30
0.0
 10
36.13390642762697
 20
43.94510490890374
 30
0.0
 10
36.67788045658256
 20
44.48907893785933
 30
0.0
 10
37.34890642762693
 20
44.48907893785933
 30
0.0
 10
38.0199323986713
 20
44.48907893785933
 30
0.0
 10
38.56390642762689
 20
43.94510490890374
 30
0.0
 10
38.56390642762689
 20
43.27407893785934
 30
0.0
 10
38.56390642762689
 20
42.6030529668149
 30
0.0
 10
38.0199323986713
 20
42.05907893785934
 30
0.0
 10
37.34890642762693
 20
42.05907893785934
 30
0.0
 10
36.67788045658256
 20
42.05907893785934
 30
0.0
 10
36.13390642762697
 20
42.60305296681493
 30
0.0
 10
36.13390642762697
 20
43.27407893785934
 30
0.0
 10
36.13390642762697
 20
43.27407893785934
 30
0.0
 10
36.13390642762697
 20
43.27407893785934
 30
0.0
 10
36.13390642762697
 20
43.27407893785934
 30
0.0
  0
ENDBLK
  5
10C
330
109
100
AcDbEntity
  8
0
100
AcDbBlockEnd
  0
BLOCK
  5
110
330
10E
100
AcDbEntity
  8
0
100
AcDbBlockBegin
  2
block 26
 70
     0
 10
0.0
 20
0.0
 30
0.0
  3
block 26
  1

  0
INSERT
  5
113
330
10E
100
AcDbEntity
  8
0
100
AcDbBlockReference
  2
block 27
 10
0.0
 20
0.0
 30
0.0
  0
INSERT
  5
118
330
10E
100
AcDbEntity
  8
0
100
AcDbBlockReference
  2
block 28
 10
0.0
 20
0.0
 30
0.0
  0
ENDBLK
  5
111
330
10E
100
AcDbEntity
  8
0
100
AcDbBlockEnd
  0
BLOCK
  5
114
330
112
100
AcDbEntity
  8
0
100
AcDbBlockBegin
  2
block 27
 70
     0
 10
0.0
 20
0.0
 30
0.0
  3
block 27
  1

  0
SPLINE
  5
116
330
112
100
AcDbEntity
  8
0
 62
     7
420
 16777215
370
    25
100
AcDbSpline
210
0.0
220
0.0
230
1.0
 70
    11
 71
     3
 72
    20
 73
    16
 74
     0
 42
0.0000000001
 43
0.0000000001
 12
1.0
 22
0.0
 32
0.0
 13
1.0
 23
0.0
 33
0.0
 40
0.0
 40
0.0
 40
0.0
 40
0.0
 40
1.0
 40
1.0
 40
1.0
 40
2.0
 40
2.0
 40
2.0
 40
3.0
 40
3.0
 40
3.0
 40
4.0
 40
4.0
 40
4.0
 40
5.0
 40
5.0
 40
5.0
 40
5.0
 10
30.5339064276269
 20
17.72283332836133
 30
0.0
 10
30.7272060900677
 20
17.72283332836133
 30
0.0
 10
30.88390642762694
 20
17.56613299080209
 30
0.0
 10
30.88390642762694
 20
17.37283332836135
 30
0.0
 10
30.88390642762694
 20
17.17953366592049
 30
0.0
 10
30.7272060900677
 20
17.02283332836137
 30
0.0
 10
30.5339064276269
 20
17.02283332836137
 30
0.0
 10
30.34060676518616
 20
17.02283332836137
 30
0.0
 10
30.18390642762692
 20
17.17953366592049
 30
0.0
 10
30.18390642762692
 20
17.37283332836135
 30
0.0
 10
30.18390642762692
 20
17.56613299080209
 30
0.0
 10
30.34060676518616
 20
17.72283332836133
 30
0.0
 10
30.5339064276269
 20
17.72283332836133
 30
0.0
 10
30.5339064276269
 20
17.72283332836133
 30
0.0
 10
30.5339064276269
 20
17.72283332836133
 30
0.0
 10
30.5339064276269
 20
17.72283332836133
 30
0.0
  0
ENDBLK
  5
115
330
112
100
AcDbEntity
  8
0
100
AcDbBlockEnd
  0
BLOCK
  5
119
330
117
100
AcDbEntity
  8
0
100
AcDbBlockBegin
  2
block 28
 70
     0
 10
0.0
 20
0.0
 30
0.0
  3
block 28
  1

  0
SPLINE
  5
11B
330
117
100
AcDbEntity
  8
0
 62
     7
420
 16777215
370
    25
100
AcDbSpline
210
0.0
220
0.0
230
1.0
 70
    11
 71
     3
 72
    20
 73
    16
 74
     0
 42
0.0000000001
 43
0.0000000001
 12
1.0
 22
0.0
 32
0.0
 13
1.0
 23
0.0
 33
0.0
 40
0.0
 40
0.0
 40
0.0
 40
0.0
 40
1.0
 40
1.0
 40
1.0
 40
2.0
 40
2.0
 40
2.0
 40
3.0
 40
3.0
 40
3.0
 40
4.0
 40
4.0
 40
4.0
 40
5.0
 40
5.0
 40
5.0
 40
5.0
 10
30.5339064276269
 20
19.87283332836125
 30
0.0
 10
31.9146183022039
 20
19.87283332836125
 30
0.0
 10
33.03390642762692
 20
18.75354520293829
 30
0.0
 10
33.03390642762692
 20
17.37283332836135
 30
0.0
 10
33.03390642762692
 20
15.99212145378429
 30
0.0
 10
31.9146183022039
 20
14.87283332836133
 30
0.0
 10
30.5339064276269
 20
14.87283332836133
 30
0.0
 10
29.15319455304996
 20
14.87283332836133
 30
0.0
 10
28.03390642762687
 20
15.99212145378429
 30
0.0
 10
28.03390642762687
 20
17.37283332836135
 30
0.0
 10
28.03390642762687
 20
18.75354520293829
 30
0.0
 10
29.15319455304996
 20
19.87283332836125
 30
0.0
 10
30.5339064276269
 20
19.87283332836125
 30
0.0
 10
30.5339064276269
 20
19.87283332836125
 30
0.0
 10
30.5339064276269
 20
19.87283332836125
 30
0.0
 10
30.5339064276269
 20
19.87283332836125
 30
0.0
  0
ENDBLK
  5
11A
330
117
100
AcDbEntity
  8
0
100
AcDbBlockEnd
  0
BLOCK
  5
11E
330
11C
100
AcDbEntity
  8
0
100
AcDbBlockBegin
  2
block 29
 70
     0
 10
0.0
 20
0.0
 30
0.0
  3
block 29
  1

  0
INSERT
  5
121
330
11C
100
AcDbEntity
  8
0
100
AcDbBlockReference
  2
block 30
 10
0.0
 20
0.0
 30
0.0
  0
INSERT
  5
126
330
11C
100
AcDbEntity
  8
0
100
AcDbBlockReference
  2
block 31
 10
0.0
 20
0.0
 30
0.0
  0
INSERT
  5
12B
330
11C
100
AcDbEntity
  8
0
100
AcDbBlockReference
  2
block 32
 10
0.0
 20
0.0
 30
0.0
  0
ENDBLK
  5
11F
330
11C
100
AcDbEntity
  8
0
100
AcDbBlockEnd
  0
BLOCK
  5
122
330
120
100
AcDbEntity
  8
0
100
AcDbBlockBegin
  2
block 30
 70
     0
 10
0.0
 20
0.0
 30
0.0
  3
block 30
  1

  0
SPLINE
  5
124
330
120
100
AcDbEntity
  8
0
 62
     7
420
 16777215
370
    25
100
AcDbSpline
210
0.0
220
0.0
230
1.0
 70
    11
 71
     3
 72
   311
 73
   307
 74
     0
 42
0.0000000001
 43
0.0000000001
 12
1.0
 22
0.0
 32
0.0
 13
1.0
 23
0.0
 33
0.0
 40
0.0
 40
0.0
 40
0.0
 40
0.0
 40
1.0
 40
1.0
 40
1.0
 40
2.0
 40
2.0
 40
2.0
 40
3.0
 40
3.0
 40
3.0
 40
4.0
 40
4.0
 40
4.0
 40
5.0
 40
5.0
 40
5.0
 40
6.0
 40
6.0
 40
6.0
 40
7.0
 40
7.0
 40
7.0
 40
8.0
 40
8.0
 40
8.0
 40
9.0
 40
9.0
 40
9.0
 40
10.0
 40
10.0
 40
10.0
 40
11.0
 40
11.0
 40
11.0
 40
12.0
 40
12.0
 40
12.0
 40
13.0
 40
13.0
 40
13.0
 40
14.0
 40
14.0
 40
14.0
 40
15.0
 40
15.0
 40
15.0
 40
16.0
 40
16.0
 40
16.0
 40
17.0
 40
17.0
 40
17.0
 40
18.0
 40
18.0
 40
18.0
 40
19.0
 40
19.0
 40
19.0
 40
20.0
 40
20.0
 40
20.0
 40
21.0
 40
21.0
 40
21.0
 40
22.0
 40
22.0
 40
22.0
 40
23.0
 40
23.0
 40
23.0
 40
24.0
 40
24.0
 40
24.0
 40
25.0
 40
25.0
 40
25.0
 40
26.0
 40
26.0
 40
26.0
 40
27.0
 40
27.0
 40
27.0
 40
28.0
 40
28.0
 40
28.0
 40
29.0
 40
29.0
 40
29.0
 40
30.0
 40
30.0
 40
30.0
 40
31.0
 40
31.0
 40
31.0
 40
32.0
 40
32.0
 40
32.0
 40
33.0
 40
33.0
 40
33.0
 40
34.0
 40
34.0
 40
34.0
 40
35.0
 40
35.0
 40
35.0
 40
36.0
 40
36.0
 40
36.0
 40
37.0
 40
37.0
 40
37.0
 40
38.0
 40
38.0
 40
38.0
 40
39.0
 40
39.0
 40
39.0
 40
40.0
 40
40.0
 40
40.0
 40
41.0
 40
41.0
 40
41.0
 40
42.0
 40
42.0
 40
42.0
 40
43.0
 40
43.0
 40
43.0
 40
44.0
 40
44.0
 40
44.0
 40
45.0
 40
45.0
 40
45.0
 40
46.0
 40
46.0
 40
46.0
 40
47.0
 40
47.0
 40
47.0
 40
48.0
 40
48.0
 40
48.0
 40
49.0
 40
49.0
 40
49.0
 40
50.0
 40
50.0
 40
50.0
 40
51.0
 40
51.0
 40
51.0
 40
52.0
 40
52.0
 40
52.0
 40
53.0
 40
53.0
 40
53.0
 40
54.0
 40
54.0
 40
54.0
 40
55.0
 40
55.0
 40
55.0
 40
56.0
 40
56.0
 40
56.0
 40
57.0
 40
57.0
 40
57.0
 40
58.0
 40
58.0
 40
58.0
 40
59.0
 40
59.0
 40
59.0
 40
60.0
 40
60.0
 40
60.0
 40
61.0
 40
61.0
 40
61.0
 40
62.0
 40
62.0
 40
62.0
 40
63.0
 40
63.0
 40
63.0
 40
64.0
 40
64.0
 40
64.0
 40
65.0
 40
65.0
 40
65.0
 40
66.0
 40
66.0
 40
66.0
 40
67.0
 40
67.0
 40
67.0
 40
68.0
 40
68.0
 40
68.0
 40
69.0
 40
69.0
 40
69.0
 40
70.0
 40
70.0
 40
70.0
 40
71.0
 40
71.0
 40
71.0
 40
72.0
 40
72.0
 40
72.0
 40
73.0
 40
73.0
 40
73.0
 40
74.0
 40
74.0
 40
74.0
 40
75.0
 40
75.0
 40
75.0
 40
76.0
 40
76.0
 40
76.0
 40
77.0
 40
77.0
 40
77.0
 40
78.0
 40
78.0
 40
78.0
 40
79.0
 40
79.0
 40
79.0
 40
80.0
 40
80.0
 40
80.0
 40
81.0
 40
81.0
 40
81.0
 40
82.0
 40
82.0
 40
82.0
 40
83.0
 40
83.0
 40
83.0
 40
84.0
 40
84.0
 40
84.0
 40
85.0
 40
85.0
 40
85.0
 40
86.0
 40
86.0
 40
86.0
 40
87.0
 40
87.0
 40
87.0
 40
88.0
 40
88.0
 40
88.0
 40
89.0
 40
89.0
 40
89.0
 40
90.0
 40
90.0
 40
90.0
 40
91.0
 40
91.0
 40
91.0
 40
92.0
 40
92.0
 40
92.0
 40
93.0
 40
93.0
 40
93.0
 40
94.0
 40
94.0
 40
94.0
 40
95.0
 40
95.0
 40
95.0
 40
96.0
 40
96.0
 40
96.0
 40
97.0
 40
97.0
 40
97.0
 40
98.0
 40
98.0
 40
98.0
 40
99.0
 40
99.0
 40
99.0
 40
100.0
 40
100.0
 40
100.0
 40
101.0
 40
101.0
 40
101.0
 40
102.0
 40
102.0
 40
102.0
 40
102.0
 10
37.80213154709302
 20
28.64616666169476
 30
0.0
 10
37.80213154709302
 20
28.64616666169476
 30
0.0
 10
37.50213154709294
 20
28.64616666169476
 30
0.0
 10
37.50213154709294
 20
28.64616666169476
 30
0.0
 10
37.50213154709294
 20
28.64616666169476
 30
0.0
 10
37.50213154709294
 20
33.229499995028
 30
0.0
 10
37.50213154709294
 20
33.229499995028
 30
0.0
 10
37.50213154709294
 20
33.229499995028
 30
0.0
 10
37.80213154709302
 20
33.229499995028
 30
0.0
 10
37.80213154709302
 20
33.229499995028
 30
0.0
 10
37.80213154709302
 20
33.229499995028
 30
0.0
 10
37.80213154709302
 20
33.97949999502799
 30
0.0
 10
37.80213154709302
 20
33.97949999502799
 30
0.0
 10
37.80213154709302
 20
33.97949999502799
 30
0.0
 10
37.50213154709294
 20
33.97949999502799
 30
0.0
 10
37.50213154709294
 20
33.97949999502799
 30
0.0
 10
37.50213154709294
 20
33.97949999502799
 30
0.0
 10
37.50213154709294
 20
38.56283332836139
 30
0.0
 10
37.50213154709294
 20
38.56283332836139
 30
0.0
 10
37.50213154709294
 20
38.56283332836139
 30
0.0
 10
37.80213154709302
 20
38.56283332836139
 30
0.0
 10
37.80213154709302
 20
38.56283332836139
 30
0.0
 10
37.80213154709302
 20
38.56283332836139
 30
0.0
 10
37.80213154709302
 20
39.31283332836139
 30
0.0
 10
37.80213154709302
 20
39.31283332836139
 30
0.0
 10
37.80213154709302
 20
39.31283332836139
 30
0.0
 10
37.50213154709294
 20
39.31283332836139
 30
0.0
 10
37.50213154709294
 20
39.31283332836139
 30
0.0
 10
37.50213154709294
 20
39.31283332836139
 30
0.0
 10
37.50213154709294
 20
39.68783332836132
 30
0.0
 10
37.50213154709294
 20
39.68783332836132
 30
0.0
 10
37.50213154709294
 20
39.68783332836132
 30
0.0
 10
42.80213154709294
 20
39.68783332836132
 30
0.0
 10
42.80213154709294
 20
39.68783332836132
 30
0.0
 10
42.80213154709294
 20
39.68783332836132
 30
0.0
 10
42.80213154709294
 20
39.31283332836139
 30
0.0
 10
42.80213154709294
 20
39.31283332836139
 30
0.0
 10
42.80213154709294
 20
39.31283332836139
 30
0.0
 10
42.50213154709299
 20
39.31283332836139
 30
0.0
 10
42.50213154709299
 20
39.31283332836139
 30
0.0
 10
42.50213154709299
 20
39.31283332836139
 30
0.0
 10
42.50213154709299
 20
38.56283332836139
 30
0.0
 10
42.50213154709299
 20
38.56283332836139
 30
0.0
 10
42.50213154709299
 20
38.56283332836139
 30
0.0
 10
42.80213154709294
 20
38.56283332836139
 30
0.0
 10
42.80213154709294
 20
38.56283332836139
 30
0.0
 10
42.80213154709294
 20
38.56283332836139
 30
0.0
 10
42.80213154709294
 20
33.97949999502799
 30
0.0
 10
42.80213154709294
 20
33.97949999502799
 30
0.0
 10
42.80213154709294
 20
33.97949999502799
 30
0.0
 10
42.50213154709299
 20
33.97949999502799
 30
0.0
 10
42.50213154709299
 20
33.97949999502799
 30
0.0
 10
42.50213154709299
 20
33.97949999502799
 30
0.0
 10
42.50213154709299
 20
33.229499995028
 30
0.0
 10
42.50213154709299
 20
33.229499995028
 30
0.0
 10
42.50213154709299
 20
33.229499995028
 30
0.0
 10
42.80213154709294
 20
33.229499995028
 30
0.0
 10
42.80213154709294
 20
33.229499995028
 30
0.0
 10
42.80213154709294
 20
33.229499995028
 30
0.0
 10
42.80213154709294
 20
28.64616666169476
 30
0.0
 10
42.80213154709294
 20
28.64616666169476
 30
0.0
 10
42.80213154709294
 20
28.64616666169476
 30
0.0
 10
42.50213154709299
 20
28.64616666169476
 30
0.0
 10
42.50213154709299
 20
28.64616666169476
 30
0.0
 10
42.50213154709299
 20
28.64616666169476
 30
0.0
 10
42.50213154709299
 20
27.89616666169477
 30
0.0
 10
42.50213154709299
 20
27.89616666169477
 30
0.0
 10
42.50213154709299
 20
27.89616666169477
 30
0.0
 10
42.80213154709294
 20
27.89616666169477
 30
0.0
 10
42.80213154709294
 20
27.89616666169477
 30
0.0
 10
42.80213154709294
 20
27.89616666169477
 30
0.0
 10
42.80213154709294
 20
23.31283332836137
 30
0.0
 10
42.80213154709294
 20
23.31283332836137
 30
0.0
 10
42.80213154709294
 20
23.31283332836137
 30
0.0
 10
42.50213154709299
 20
23.31283332836137
 30
0.0
 10
42.50213154709299
 20
23.31283332836137
 30
0.0
 10
42.50213154709299
 20
23.31283332836137
 30
0.0
 10
42.50213154709299
 20
22.56283332836137
 30
0.0
 10
42.50213154709299
 20
22.56283332836137
 30
0.0
 10
42.50213154709299
 20
22.56283332836137
 30
0.0
 10
42.80213154709294
 20
22.56283332836137
 30
0.0
 10
42.80213154709294
 20
22.56283332836137
 30
0.0
 10
42.80213154709294
 20
22.56283332836137
 30
0.0
 10
42.80213154709294
 20
19.8878333283613
 30
0.0
 10
42.80213154709294
 20
19.8878333283613
 30
0.0
 10
42.80213154709294
 20
19.8878333283613
 30
0.0
 10
46.25213157242493
 20
19.8878333283613
 30
0.0
 10
46.25213157242493
 20
19.8878333283613
 30
0.0
 10
46.25213157242493
 20
19.8878333283613
 30
0.0
 10
46.25213157242493
 20
19.7308333283613
 30
0.0
 10
46.25213157242493
 20
19.7308333283613
 30
0.0
 10
46.25213157242493
 20
19.7308333283613
 30
0.0
 10
46.55213157242494
 20
19.7308333283613
 30
0.0
 10
46.55213157242494
 20
19.7308333283613
 30
0.0
 10
46.55213157242494
 20
19.7308333283613
 30
0.0
 10
46.55213157242494
 20
19.28783332836128
 30
0.0
 10
46.55213157242494
 20
19.28783332836128
 30
0.0
 10
46.55213157242494
 20
19.28783332836128
 30
0.0
 10
46.25213157242493
 20
19.28783332836128
 30
0.0
 10
46.25213157242493
 20
19.28783332836128
 30
0.0
 10
46.25213157242493
 20
19.28783332836128
 30
0.0
 10
46.25213157242493
 20
18.84483332836131
 30
0.0
 10
46.25213157242493
 20
18.84483332836131
 30
0.0
 10
46.25213157242493
 20
18.84483332836131
 30
0.0
 10
46.55213157242494
 20
18.84483332836131
 30
0.0
 10
46.55213157242494
 20
18.84483332836131
 30
0.0
 10
46.55213157242494
 20
18.84483332836131
 30
0.0
 10
46.55213157242494
 20
18.40183332836135
 30
0.0
 10
46.55213157242494
 20
18.40183332836135
 30
0.0
 10
46.55213157242494
 20
18.40183332836135
 30
0.0
 10
46.25213157242493
 20
18.40183332836135
 30
0.0
 10
46.25213157242493
 20
18.40183332836135
 30
0.0
 10
46.25213157242493
 20
18.40183332836135
 30
0.0
 10
46.25213166332198
 20
17.95883332836133
 30
0.0
 10
46.25213166332198
 20
17.95883332836133
 30
0.0
 10
46.25213166332198
 20
17.95883332836133
 30
0.0
 10
46.55213157242494
 20
17.95883332836133
 30
0.0
 10
46.55213157242494
 20
17.95883332836133
 30
0.0
 10
46.55213157242494
 20
17.95883332836133
 30
0.0
 10
46.55213157242494
 20
17.5158333283613
 30
0.0
 10
46.55213157242494
 20
17.5158333283613
 30
0.0
 10
46.55213157242494
 20
17.5158333283613
 30
0.0
 10
46.25213157242493
 20
17.5158333283613
 30
0.0
 10
46.25213157242493
 20
17.5158333283613
 30
0.0
 10
46.25213157242493
 20
17.5158333283613
 30
0.0
 10
46.25213157242493
 20
17.07283332836128
 30
0.0
 10
46.25213157242493
 20
17.07283332836128
 30
0.0
 10
46.25213157242493
 20
17.07283332836128
 30
0.0
 10
46.55213157242494
 20
17.07283332836128
 30
0.0
 10
46.55213157242494
 20
17.07283332836128
 30
0.0
 10
46.55213157242494
 20
17.07283332836128
 30
0.0
 10
46.55213157242494
 20
16.62983332836132
 30
0.0
 10
46.55213157242494
 20
16.62983332836132
 30
0.0
 10
46.55213157242494
 20
16.62983332836132
 30
0.0
 10
46.25213157242493
 20
16.62983332836132
 30
0.0
 10
46.25213157242493
 20
16.62983332836132
 30
0.0
 10
46.25213157242493
 20
16.62983332836132
 30
0.0
 10
46.25213157242493
 20
16.18683332836136
 30
0.0
 10
46.25213157242493
 20
16.18683332836136
 30
0.0
 10
46.25213157242493
 20
16.18683332836136
 30
0.0
 10
46.55213157242494
 20
16.18683332836136
 30
0.0
 10
46.55213157242494
 20
16.18683332836136
 30
0.0
 10
46.55213157242494
 20
16.18683332836136
 30
0.0
 10
46.55213157242494
 20
15.74383332836127
 30
0.0
 10
46.55213157242494
 20
15.74383332836127
 30
0.0
 10
46.55213157242494
 20
15.74383332836127
 30
0.0
 10
46.25213166332198
 20
15.74383332836127
 30
0.0
 10
46.25213166332198
 20
15.74383332836127
 30
0.0
 10
46.25213166332198
 20
15.74383332836127
 30
0.0
 10
46.25213166332198
 20
15.30083332836131
 30
0.0
 10
46.25213166332198
 20
15.30083332836131
 30
0.0
 10
46.25213166332198
 20
15.30083332836131
 30
0.0
 10
46.55213157242494
 20
15.30083332836131
 30
0.0
 10
46.55213157242494
 20
15.30083332836131
 30
0.0
 10
46.55213157242494
 20
15.30083332836131
 30
0.0
 10
46.55213157242494
 20
14.55783332836127
 30
0.0
 10
46.55213157242494
 20
14.55783332836127
 30
0.0
 10
46.55213157242494
 20
14.55783332836127
 30
0.0
 10
45.69879823909164
 20
14.55783332836127
 30
0.0
 10
45.69879823909164
 20
14.55783332836127
 30
0.0
 10
45.69879823909164
 20
14.55783332836127
 30
0.0
 10
45.69879823909164
 20
14.85783332836134
 30
0.0
 10
45.69879823909164
 20
14.85783332836134
 30
0.0
 10
45.69879823909164
 20
14.85783332836134
 30
0.0
 10
44.84546490575828
 20
14.85783332836134
 30
0.0
 10
44.84546490575828
 20
14.85783332836134
 30
0.0
 10
44.84546490575828
 20
14.85783332836134
 30
0.0
 10
44.84546490575828
 20
14.55783332836127
 30
0.0
 10
44.84546490575828
 20
14.55783332836127
 30
0.0
 10
44.84546490575828
 20
14.55783332836127
 30
0.0
 10
43.99213157242492
 20
14.55783332836127
 30
0.0
 10
43.99213157242492
 20
14.55783332836127
 30
0.0
 10
43.99213157242492
 20
14.55783332836127
 30
0.0
 10
43.99213157242492
 20
14.85783332836134
 30
0.0
 10
43.99213157242492
 20
14.85783332836134
 30
0.0
 10
43.99213157242492
 20
14.85783332836134
 30
0.0
 10
43.13879823909161
 20
14.85783332836134
 30
0.0
 10
43.13879823909161
 20
14.85783332836134
 30
0.0
 10
43.13879823909161
 20
14.85783332836134
 30
0.0
 10
43.13879823909161
 20
14.55783332836127
 30
0.0
 10
43.13879823909161
 20
14.55783332836127
 30
0.0
 10
42.82964174712764
 20
14.56428514726939
 30
0.0
 10
42.53064405845159
 20
14.66940152219463
 30
0.0
 10
42.28546490575832
 20
14.85783332836134
 30
0.0
 10
42.28546490575832
 20
14.85783332836134
 30
0.0
 10
38.01879823909163
 20
14.85783332836134
 30
0.0
 10
38.01879823909163
 20
14.85783332836134
 30
0.0
 10
37.77361908639828
 20
14.66940152219463
 30
0.0
 10
37.47462139772218
 20
14.56428514726939
 30
0.0
 10
37.16546490575826
 20
14.55783332836127
 30
0.0
 10
37.16546490575826
 20
14.55783332836127
 30
0.0
 10
37.16546490575826
 20
14.85783332836134
 30
0.0
 10
37.16546490575826
 20
14.85783332836134
 30
0.0
 10
37.16546490575826
 20
14.85783332836134
 30
0.0
 10
36.3121315724249
 20
14.85783332836134
 30
0.0
 10
36.3121315724249
 20
14.85783332836134
 30
0.0
 10
36.3121315724249
 20
14.85783332836134
 30
0.0
 10
36.3121315724249
 20
14.55783332836127
 30
0.0
 10
36.3121315724249
 20
14.55783332836127
 30
0.0
 10
36.3121315724249
 20
14.55783332836127
 30
0.0
 10
35.45879823909166
 20
14.55783332836127
 30
0.0
 10
35.45879823909166
 20
14.55783332836127
 30
0.0
 10
35.45879823909166
 20
14.55783332836127
 30
0.0
 10
35.45879823909166
 20
14.85783332836134
 30
0.0
 10
35.45879823909166
 20
14.85783332836134
 30
0.0
 10
35.45879823909166
 20
14.85783332836134
 30
0.0
 10
34.6054649057583
 20
14.85783332836134
 30
0.0
 10
34.6054649057583
 20
14.85783332836134
 30
0.0
 10
34.6054649057583
 20
14.85783332836134
 30
0.0
 10
34.6054649057583
 20
14.55783332836127
 30
0.0
 10
34.6054649057583
 20
14.55783332836127
 30
0.0
 10
34.6054649057583
 20
14.55783332836127
 30
0.0
 10
33.75213157242494
 20
14.55783332836127
 30
0.0
 10
33.75213157242494
 20
14.55783332836127
 30
0.0
 10
33.75213157242494
 20
14.55783332836127
 30
0.0
 10
33.75213157242494
 20
15.30083332836131
 30
0.0
 10
33.75213157242494
 20
15.30083332836131
 30
0.0
 10
33.75213157242494
 20
15.30083332836131
 30
0.0
 10
34.05213148152783
 20
15.30083332836131
 30
0.0
 10
34.05213148152783
 20
15.30083332836131
 30
0.0
 10
34.05213148152783
 20
15.30083332836131
 30
0.0
 10
34.05213157242488
 20
15.74383332836127
 30
0.0
 10
34.05213157242488
 20
15.74383332836127
 30
0.0
 10
34.05213157242488
 20
15.74383332836127
 30
0.0
 10
33.75213157242494
 20
15.74383332836127
 30
0.0
 10
33.75213157242494
 20
15.74383332836127
 30
0.0
 10
33.75213157242494
 20
15.74383332836127
 30
0.0
 10
33.75213157242494
 20
16.18683332836136
 30
0.0
 10
33.75213157242494
 20
16.18683332836136
 30
0.0
 10
33.75213157242494
 20
16.18683332836136
 30
0.0
 10
34.05213157242488
 20
16.18683332836136
 30
0.0
 10
34.05213157242488
 20
16.18683332836136
 30
0.0
 10
34.05213157242488
 20
16.18683332836136
 30
0.0
 10
34.05213157242488
 20
16.62983332836132
 30
0.0
 10
34.05213157242488
 20
16.62983332836132
 30
0.0
 10
34.05213157242488
 20
16.62983332836132
 30
0.0
 10
33.75213157242494
 20
16.62983332836132
 30
0.0
 10
33.75213157242494
 20
16.62983332836132
 30
0.0
 10
33.75213157242494
 20
16.62983332836132
 30
0.0
 10
33.75213157242494
 20
17.07283332836128
 30
0.0
 10
33.75213157242494
 20
17.07283332836128
 30
0.0
 10
33.75213157242494
 20
17.07283332836128
 30
0.0
 10
34.05213148152783
 20
17.07283332836128
 30
0.0
 10
34.05213148152783
 20
17.07283332836128
 30
0.0
 10
34.05213148152783
 20
17.07283332836128
 30
0.0
 10
34.05213157242488
 20
17.5158333283613
 30
0.0
 10
34.05213157242488
 20
17.5158333283613
 30
0.0
 10
34.05213157242488
 20
17.5158333283613
 30
0.0
 10
33.75213157242494
 20
17.5158333283613
 30
0.0
 10
33.75213157242494
 20
17.5158333283613
 30
0.0
 10
33.75213157242494
 20
17.5158333283613
 30
0.0
 10
33.75213157242494
 20
17.95883332836133
 30
0.0
 10
33.75213157242494
 20
17.95883332836133
 30
0.0
 10
33.75213157242494
 20
17.95883332836133
 30
0.0
 10
34.05213157242488
 20
17.95883332836133
 30
0.0
 10
34.05213157242488
 20
17.95883332836133
 30
0.0
 10
34.05213157242488
 20
17.95883332836133
 30
0.0
 10
34.05213157242488
 20
18.40183332836135
 30
0.0
 10
34.05213157242488
 20
18.40183332836135
 30
0.0
 10
34.05213157242488
 20
18.40183332836135
 30
0.0
 10
33.75213157242494
 20
18.40183332836135
 30
0.0
 10
33.75213157242494
 20
18.40183332836135
 30
0.0
 10
33.75213157242494
 20
18.40183332836135
 30
0.0
 10
33.75213157242494
 20
18.84483332836131
 30
0.0
 10
33.75213157242494
 20
18.84483332836131
 30
0.0
 10
33.75213157242494
 20
18.84483332836131
 30
0.0
 10
34.05213157242488
 20
18.84483332836131
 30
0.0
 10
34.05213157242488
 20
18.84483332836131
 30
0.0
 10
34.05213157242488
 20
18.84483332836131
 30
0.0
 10
34.05213157242488
 20
19.28783332836128
 30
0.0
 10
34.05213157242488
 20
19.28783332836128
 30
0.0
 10
34.05213157242488
 20
19.28783332836128
 30
0.0
 10
33.75213157242494
 20
19.28783332836128
 30
0.0
 10
33.75213157242494
 20
19.28783332836128
 30
0.0
 10
33.75213157242494
 20
19.28783332836128
 30
0.0
 10
33.75213157242494
 20
19.7308333283613
 30
0.0
 10
33.75213157242494
 20
19.7308333283613
 30
0.0
 10
33.75213157242494
 20
19.7308333283613
 30
0.0
 10
34.05213157242488
 20
19.7308333283613
 30
0.0
 10
34.05213157242488
 20
19.7308333283613
 30
0.0
 10
34.05213157242488
 20
19.7308333283613
 30
0.0
 10
34.05213157242488
 20
19.8878333283613
 30
0.0
 10
34.05213157242488
 20
19.8878333283613
 30
0.0
 10
34.05213157242488
 20
19.8878333283613
 30
0.0
 10
37.50213155603361
 20
19.8878333283613
 30
0.0
 10
37.50213155603361
 20
19.8878333283613
 30
0.0
 10
37.50213155603361
 20
19.8878333283613
 30
0.0
 10
37.50213154709294
 20
22.56283332836137
 30
0.0
 10
37.50213154709294
 20
22.56283332836137
 30
0.0
 10
37.50213154709294
 20
22.56283332836137
 30
0.0
 10
37.80213154709302
 20
22.56283332836137
 30
0.0
 10
37.80213154709302
 20
22.56283332836137
 30
0.0
 10
37.80213154709302
 20
22.56283332836137
 30
0.0
 10
37.80213154709302
 20
23.31283332836137
 30
0.0
 10
37.80213154709302
 20
23.31283332836137
 30
0.0
 10
37.80213154709302
 20
23.31283332836137
 30
0.0
 10
37.50213154709294
 20
23.31283332836137
 30
0.0
 10
37.50213154709294
 20
23.31283332836137
 30
0.0
 10
37.50213154709294
 20
23.31283332836137
 30
0.0
 10
37.50213154709294
 20
27.89616666169477
 30
0.0
 10
37.50213154709294
 20
27.89616666169477
 30
0.0
 10
37.50213154709294
 20
27.89616666169477
 30
0.0
 10
37.80213154709302
 20
27.89616666169477
 30
0.0
 10
37.80213154709302
 20
27.89616666169477
 30
0.0
 10
37.80213154709302
 20
27.89616666169477
 30
0.0
 10
37.80213154709302
 20
28.64616666169476
 30
0.0
 10
37.80213154709302
 20
28.64616666169476
 30
0.0
  0
ENDBLK
  5
123
330
120
100
AcDbEntity
  8
0
100
AcDbBlockEnd
  0
BLOCK
  5
127
330
125
100
AcDbEntity
  8
0
100
AcDbBlockBegin
  2
block 31
 70
     0
 10
0.0
 20
0.0
 30
0.0
  3
block 31
  1

  0
SPLINE
  5
129
330
125
100
AcDbEntity
  8
0
 62
     7
420
 16777215
370
    25
100
AcDbSpline
210
0.0
220
0.0
230
1.0
 70
    11
 71
     3
 72
    20
 73
    16
 74
     0
 42
0.0000000001
 43
0.0000000001
 12
1.0
 22
0.0
 32
0.0
 13
1.0
 23
0.0
 33
0.0
 40
0.0
 40
0.0
 40
0.0
 40
0.0
 40
1.0
 40
1.0
 40
1.0
 40
2.0
 40
2.0
 40
2.0
 40
3.0
 40
3.0
 40
3.0
 40
4.0
 40
4.0
 40
4.0
 40
5.0
 40
5.0
 40
5.0
 40
5.0
 10
44.16713157242497
 20
17.07283332836128
 30
0.0
 10
44.16713157242497
 20
16.40180735731691
 30
0.0
 10
43.62315754346938
 20
15.85783332836132
 30
0.0
 10
42.95213157242495
 20
15.85783332836132
 30
0.0
 10
42.28110560138051
 20
15.85783332836132
 30
0.0
 10
41.73713157242491
 20
16.40180735731691
 30
0.0
 10
41.73713157242491
 20
17.07283332836128
 30
0.0
 10
41.73713157242491
 20
17.74385929940578
 30
0.0
 10
42.28110560138051
 20
18.28783332836131
 30
0.0
 10
42.95213157242495
 20
18.28783332836131
 30
0.0
 10
43.62315754346938
 20
18.28783332836131
 30
0.0
 10
44.16713157242497
 20
17.74385929940571
 30
0.0
 10
44.16713157242497
 20
17.07283332836128
 30
0.0
 10
44.16713157242497
 20
17.07283332836128
 30
0.0
 10
44.16713157242497
 20
17.07283332836128
 30
0.0
 10
44.16713157242497
 20
17.07283332836128
 30
0.0
  0
ENDBLK
  5
128
330
125
100
AcDbEntity
  8
0
100
AcDbBlockEnd
  0
BLOCK
  5
12C
330
12A
100
AcDbEntity
  8
0
100
AcDbBlockBegin
  2
block 32
 70
     0
 10
0.0
 20
0.0
 30
0.0
  3
block 32
  1

  0
SPLINE
  5
12E
330
12A
100
AcDbEntity
  8
0
 62
     7
420
 16777215
370
    25
100
AcDbSpline
210
0.0
220
0.0
230
1.0
 70
    11
 71
     3
 72
    20
 73
    16
 74
     0
 42
0.0000000001
 43
0.0000000001
 12
1.0
 22
0.0
 32
0.0
 13
1.0
 23
0.0
 33
0.0
 40
0.0
 40
0.0
 40
0.0
 40
0.0
 40
1.0
 40
1.0
 40
1.0
 40
2.0
 40
2.0
 40
2.0
 40
3.0
 40
3.0
 40
3.0
 40
4.0
 40
4.0
 40
4.0
 40
5.0
 40
5.0
 40
5.0
 40
5.0
 10
38.5671315724249
 20
17.07283332836128
 30
0.0
 10
38.5671315724249
 20
16.40180735731691
 30
0.0
 10
38.02315754346931
 20
15.85783332836132
 30
0.0
 10
37.35213157242494
 20
15.85783332836132
 30
0.0
 10
36.68110560138057
 20
15.85783332836132
 30
0.0
 10
36.13713157242498
 20
16.40180735731691
 30
0.0
 10
36.13713157242498
 20
17.07283332836128
 30
0.0
 10
36.13713157242498
 20
17.74385929940578
 30
0.0
 10
36.68110560138057
 20
18.28783332836131
 30
0.0
 10
37.35213157242494
 20
18.28783332836131
 30
0.0
 10
38.02315754346931
 20
18.28783332836131
 30
0.0
 10
38.5671315724249
 20
17.74385929940571
 30
0.0
 10
38.5671315724249
 20
17.07283332836128
 30
0.0
 10
38.5671315724249
 20
17.07283332836128
 30
0.0
 10
38.5671315724249
 20
17.07283332836128
 30
0.0
 10
38.5671315724249
 20
17.07283332836128
 30
0.0
  0
ENDBLK
  5
12D
330
12A
100
AcDbEntity
  8
0
100
AcDbBlockEnd
  0
BLOCK
  5
131
330
12F
100
AcDbEntity
  8
0
100
AcDbBlockBegin
  2
block 33
 70
     0
 10
0.0
 20
0.0
 30
0.0
  3
block 33
  1

  0
POLYLINE
  5
133
330
12F
100
AcDbEntity
  8
0
 62
     7
420
 16777215
370
    25
100
AcDb2dPolyline
 66
     1
 10
0.0
 20
0.0
 30
0.0
  0
VERTEX
  5
134
330
133
100
AcDbEntity
  8
0
 62
     7
420
 16777215
370
    25
100
AcDbVertex
100
AcDb2dVertex
 10
29.47221344292427
 20
38.27588888381986
 30
0.0
  0
VERTEX
  5
135
330
133
100
AcDbEntity
  8
0
 62
     7
420
 16777215
370
    25
100
AcDbVertex
100
AcDb2dVertex
 10
29.47221344292427
 20
37.67588888381987
 30
0.0
  0
VERTEX
  5
136
330
133
100
AcDbEntity
  8
0
 62
     7
420
 16777215
370
    25
100
AcDbVertex
100
AcDb2dVertex
 10
29.84721344292426
 20
37.67588888381987
 30
0.0
  0
VERTEX
  5
137
330
133
100
AcDbEntity
  8
0
 62
     7
420
 16777215
370
    25
100
AcDbVertex
100
AcDb2dVertex
 10
29.84721344292426
 20
36.17588888381989
 30
0.0
  0
VERTEX
  5
138
330
133
100
AcDbEntity
  8
0
 62
     7
420
 16777215
370
    25
100
AcDbVertex
100
AcDb2dVertex
 10
28.34721344292428
 20
36.17588888381989
 30
0.0
  0
VERTEX
  5
139
330
133
100
AcDbEntity
  8
0
 62
     7
420
 16777215
370
    25
100
AcDbVertex
100
AcDb2dVertex
 10
28.34721344292428
 20
37.67588888381987
 30
0.0
  0
VERTEX
  5
13A
330
133
100
AcDbEntity
  8
0
 62
     7
420
 16777215
370
    25
100
AcDbVertex
100
AcDb2dVertex
 10
28.72221344292427
 20
37.67588888381987
 30
0.0
  0
VERTEX
  5
13B
330
133
100
AcDbEntity
  8
0
 62
     7
420
 16777215
370
    25
100
AcDbVertex
100
AcDb2dVertex
 10
28.72221344292427
 20
38.27588888381986
 30
0.0
  0
VERTEX
  5
13C
330
133
100
AcDbEntity
  8
0
 62
     7
420
 16777215
370
    25
100
AcDbVertex
100
AcDb2dVertex
 10
28.34721344292428
 20
38.27588888381986
 30
0.0
  0
VERTEX
  5
13D
330
133
100
AcDbEntity
  8
0
 62
     7
420
 16777215
370
    25
100
AcDbVertex
100
AcDb2dVertex
 10
28.34721344292428
 20
39.77588888381985
 30
0.0
  0
VERTEX
  5
13E
330
133
100
AcDbEntity
  8
0
 62
     7
420
 16777215
370
    25
100
AcDbVertex
100
AcDb2dVertex
 10
28.72221344292427
 20
39.77588888381985
 30
0.0
  0
VERTEX
  5
13F
330
133
100
AcDbEntity
  8
0
 62
     7
420
 16777215
370
    25
100
AcDbVertex
100
AcDb2dVertex
 10
28.72221344292427
 20
40.07588888381986
 30
0.0
  0
VERTEX
  5
140
330
133
100
AcDbEntity
  8
0
 62
     7
420
 16777215
370
    25
100
AcDbVertex
100
AcDb2dVertex
 10
29.47221344292427
 20
40.07588888381986
 30
0.0
  0
VERTEX
  5
141
330
133
100
AcDbEntity
  8
0
 62
     7
420
 16777215
370
    25
100
AcDbVertex
100
AcDb2dVertex
 10
29.47221344292427
 20
39.77588888381985
 30
0.0
  0
VERTEX
  5
142
330
133
100
AcDbEntity
  8
0
 62
     7
420
 16777215
370
    25
100
AcDbVertex
100
AcDb2dVertex
 10
29.84721344292426
 20
39.77588888381985
 30
0.0
  0
VERTEX
  5
143
330
133
100
AcDbEntity
  8
0
 62
     7
420
 16777215
370
    25
100
AcDbVertex
100
AcDb2dVertex
 10
29.84721344292426
 20
38.27588888381986
 30
0.0
  0
VERTEX
  5
144
330
133
100
AcDbEntity
  8
0
 62
     7
420
 16777215
370
    25
100
AcDbVertex
100
AcDb2dVertex
 10
29.47221344292427
 20
38.27588888381986
 30
0.0
  0
SEQEND
  5
145
330
133
100
AcDbEntity
  8
0
 62
     7
420
 16777215
370
    25
  0
POLYLINE
  5
146
330
12F
100
AcDbEntity
  8
0
 62
     7
420
 16777215
370
    25
100
AcDb2dPolyline
 66
     1
 10
0.0
 20
0.0
 30
0.0
  0
VERTEX
  5
147
330
146
100
AcDbEntity
  8
0
 62
     7
420
 16777215
370
    25
100
AcDbVertex
100
AcDb2dVertex
 10
31.20899414424447
 20
38.27588888381986
 30
0.0
  0
VERTEX
  5
148
330
146
100
AcDbEntity
  8
0
 62
     7
420
 16777215
370
    25
100
AcDbVertex
100
AcDb2dVertex
 10
31.20899414424447
 20
37.67588888381987
 30
0.0
  0
VERTEX
  5
149
330
146
100
AcDbEntity
  8
0
 62
     7
420
 16777215
370
    25
100
AcDbVertex
100
AcDb2dVertex
 10
31.58399414424446
 20
37.67588888381987
 30
0.0
  0
VERTEX
  5
14A
330
146
100
AcDbEntity
  8
0
 62
     7
420
 16777215
370
    25
100
AcDbVertex
100
AcDb2dVertex
 10
31.58399414424446
 20
36.17588888381989
 30
0.0
  0
VERTEX
  5
14B
330
146
100
AcDbEntity
  8
0
 62
     7
420
 16777215
370
    25
100
AcDbVertex
100
AcDb2dVertex
 10
30.08399414424447
 20
36.17588888381989
 30
0.0
  0
VERTEX
  5
14C
330
146
100
AcDbEntity
  8
0
 62
     7
420
 16777215
370
    25
100
AcDbVertex
100
AcDb2dVertex
 10
30.08399414424447
 20
37.67588888381987
 30
0.0
  0
VERTEX
  5
14D
330
146
100
AcDbEntity
  8
0
 62
     7
420
 16777215
370
    25
100
AcDbVertex
100
AcDb2dVertex
 10
30.45899414424447
 20
37.67588888381987
 30
0.0
  0
VERTEX
  5
14E
330
146
100
AcDbEntity
  8
0
 62
     7
420
 16777215
370
    25
100
AcDbVertex
100
AcDb2dVertex
 10
30.45899414424447
 20
38.27588888381986
 30
0.0
  0
VERTEX
  5
14F
330
146
100
AcDbEntity
  8
0
 62
     7
420
 16777215
370
    25
100
AcDbVertex
100
AcDb2dVertex
 10
30.08399414424447
 20
38.27588888381986
 30
0.0
  0
VERTEX
  5
150
330
146
100
AcDbEntity
  8
0
 62
     7
420
 16777215
370
    25
100
AcDbVertex
100
AcDb2dVertex
 10
30.08399414424447
 20
39.77588888381985
 30
0.0
  0
VERTEX
  5
151
330
146
100
AcDbEntity
  8
0
 62
     7
420
 16777215
370
    25
100
AcDbVertex
100
AcDb2dVertex
 10
30.45899414424447
 20
39.77588888381985
 30
0.0
  0
VERTEX
  5
152
330
146
100
AcDbEntity
  8
0
 62
     7
420
 16777215
370
    25
100
AcDbVertex
100
AcDb2dVertex
 10
30.45899414424447
 20
40.07588888381986
 30
0.0
  0
VERTEX
  5
153
330
146
100
AcDbEntity
  8
0
 62
     7
420
 16777215
370
    25
100
AcDbVertex
100
AcDb2dVertex
 10
31.20899414424447
 20
40.07588888381986
 30
0.0
  0
VERTEX
  5
154
330
146
100
AcDbEntity
  8
0
 62
     7
420
 16777215
370
    25
100
AcDbVertex
100
AcDb2dVertex
 10
31.20899414424447
 20
39.77588888381985
 30
0.0
  0
VERTEX
  5
155
330
146
100
AcDbEntity
  8
0
 62
     7
420
 16777215
370
    25
100
AcDbVertex
100
AcDb2dVertex
 10
31.58399414424446
 20
39.77588888381985
 30
0.0
  0
VERTEX
  5
156
330
146
100
AcDbEntity
  8
0
 62
     7
420
 16777215
370
    25
100
AcDbVertex
100
AcDb2dVertex
 10
31.58399414424446
 20
38.27588888381986
 30
0.0
  0
VERTEX
  5
157
330
146
100
AcDbEntity
  8
0
 62
     7
420
 16777215
370
    25
100
AcDbVertex
100
AcDb2dVertex
 10
31.20899414424447
 20
38.27588888381986
 30
0.0
  0
SEQEND
  5
158
330
146
100
AcDbEntity
  8
0
 62
     7
420
 16777215
370
    25
  0
POLYLINE
  5
159
330
12F
100
AcDbEntity
  8
0
 62
     7
420
 16777215
370
    25
100
AcDb2dPolyline
 66
     1
 10
0.0
 20
0.0
 30
0.0
  0
VERTEX
  5
15A
330
159
100
AcDbEntity
  8
0
 62
     7
420
 16777215
370
    25
100
AcDbVertex
100
AcDb2dVertex
 10
29.46782601621228
 20
34.04738303692377
 30
0.0
  0
VERTEX
  5
15B
330
159
100
AcDbEntity
  8
0
 62
     7
420
 16777215
370
    25
100
AcDbVertex
100
AcDb2dVertex
 10
29.46782601621228
 20
33.44738303692377
 30
0.0
  0
VERTEX
  5
15C
330
159
100
AcDbEntity
  8
0
 62
     7
420
 16777215
370
    25
100
AcDbVertex
100
AcDb2dVertex
 10
29.84282601621227
 20
33.44738303692377
 30
0.0
  0
VERTEX
  5
15D
330
159
100
AcDbEntity
  8
0
 62
     7
420
 16777215
370
    25
100
AcDbVertex
100
AcDb2dVertex
 10
29.84282601621227
 20
31.94738303692379
 30
0.0
  0
VERTEX
  5
15E
330
159
100
AcDbEntity
  8
0
 62
     7
420
 16777215
370
    25
100
AcDbVertex
100
AcDb2dVertex
 10
28.34282601621229
 20
31.94738303692379
 30
0.0
  0
VERTEX
  5
15F
330
159
100
AcDbEntity
  8
0
 62
     7
420
 16777215
370
    25
100
AcDbVertex
100
AcDb2dVertex
 10
28.34282601621229
 20
33.44738303692377
 30
0.0
  0
VERTEX
  5
160
330
159
100
AcDbEntity
  8
0
 62
     7
420
 16777215
370
    25
100
AcDbVertex
100
AcDb2dVertex
 10
28.71782601621228
 20
33.44738303692377
 30
0.0
  0
VERTEX
  5
161
330
159
100
AcDbEntity
  8
0
 62
     7
420
 16777215
370
    25
100
AcDbVertex
100
AcDb2dVertex
 10
28.71782601621228
 20
34.04738303692377
 30
0.0
  0
VERTEX
  5
162
330
159
100
AcDbEntity
  8
0
 62
     7
420
 16777215
370
    25
100
AcDbVertex
100
AcDb2dVertex
 10
28.34282601621229
 20
34.04738303692377
 30
0.0
  0
VERTEX
  5
163
330
159
100
AcDbEntity
  8
0
 62
     7
420
 16777215
370
    25
100
AcDbVertex
100
AcDb2dVertex
 10
28.34282601621229
 20
35.54738303692375
 30
0.0
  0
VERTEX
  5
164
330
159
100
AcDbEntity
  8
0
 62
     7
420
 16777215
370
    25
100
AcDbVertex
100
AcDb2dVertex
 10
28.71782601621228
 20
35.54738303692375
 30
0.0
  0
VERTEX
  5
165
330
159
100
AcDbEntity
  8
0
 62
     7
420
 16777215
370
    25
100
AcDbVertex
100
AcDb2dVertex
 10
28.71782601621228
 20
35.84738303692377
 30
0.0
  0
VERTEX
  5
166
330
159
100
AcDbEntity
  8
0
 62
     7
420
 16777215
370
    25
100
AcDbVertex
100
AcDb2dVertex
 10
29.46782601621228
 20
35.84738303692377
 30
0.0
  0
VERTEX
  5
167
330
159
100
AcDbEntity
  8
0
 62
     7
420
 16777215
370
    25
100
AcDbVertex
100
AcDb2dVertex
 10
29.46782601621228
 20
35.54738303692375
 30
0.0
  0
VERTEX
  5
168
330
159
100
AcDbEntity
  8
0
 62
     7
420
 16777215
370
    25
100
AcDbVertex
100
AcDb2dVertex
 10
29.84282601621227
 20
35.54738303692375
 30
0.0
  0
VERTEX
  5
169
330
159
100
AcDbEntity
  8
0
 62
     7
420
 16777215
370
    25
100
AcDbVertex
100
AcDb2dVertex
 10
29.84282601621227
 20
34.04738303692377
 30
0.0
  0
VERTEX
  5
16A
330
159
100
AcDbEntity
  8
0
 62
     7
420
 16777215
370
    25
100
AcDbVertex
100
AcDb2dVertex
 10
29.46782601621228
 20
34.04738303692377
 30
0.0
  0
SEQEND
  5
16B
330
159
100
AcDbEntity
  8
0
 62
     7
420
 16777215
370
    25
  0
POLYLINE
  5
16C
330
12F
100
AcDbEntity
  8
0
 62
     7
420
 16777215
370
    25
100
AcDb2dPolyline
 66
     1
 10
0.0
 20
0.0
 30
0.0
  0
VERTEX
  5
16D
330
16C
100
AcDbEntity
  8
0
 62
     7
420
 16777215
370
    25
100
AcDbVertex
100
AcDb2dVertex
 10
31.20460671753248
 20
34.04738303692377
 30
0.0
  0
VERTEX
  5
16E
330
16C
100
AcDbEntity
  8
0
 62
     7
420
 16777215
370
    25
100
AcDbVertex
100
AcDb2dVertex
 10
31.20460671753248
 20
33.44738303692377
 30
0.0
  0
VERTEX
  5
16F
330
16C
100
AcDbEntity
  8
0
 62
     7
420
 16777215
370
    25
100
AcDbVertex
100
AcDb2dVertex
 10
31.57960671753247
 20
33.44738303692377
 30
0.0
  0
VERTEX
  5
170
330
16C
100
AcDbEntity
  8
0
 62
     7
420
 16777215
370
    25
100
AcDbVertex
100
AcDb2dVertex
 10
31.57960671753247
 20
31.94738303692379
 30
0.0
  0
VERTEX
  5
171
330
16C
100
AcDbEntity
  8
0
 62
     7
420
 16777215
370
    25
100
AcDbVertex
100
AcDb2dVertex
 10
30.07960671753249
 20
31.94738303692379
 30
0.0
  0
VERTEX
  5
172
330
16C
100
AcDbEntity
  8
0
 62
     7
420
 16777215
370
    25
100
AcDbVertex
100
AcDb2dVertex
 10
30.07960671753249
 20
33.44738303692377
 30
0.0
  0
VERTEX
  5
173
330
16C
100
AcDbEntity
  8
0
 62
     7
420
 16777215
370
    25
100
AcDbVertex
100
AcDb2dVertex
 10
30.45460671753248
 20
33.44738303692377
 30
0.0
  0
VERTEX
  5
174
330
16C
100
AcDbEntity
  8
0
 62
     7
420
 16777215
370
    25
100
AcDbVertex
100
AcDb2dVertex
 10
30.45460671753248
 20
34.04738303692377
 30
0.0
  0
VERTEX
  5
175
330
16C
100
AcDbEntity
  8
0
 62
     7
420
 16777215
370
    25
100
AcDbVertex
100
AcDb2dVertex
 10
30.07960671753249
 20
34.04738303692377
 30
0.0
  0
VERTEX
  5
176
330
16C
100
AcDbEntity
  8
0
 62
     7
420
 16777215
370
    25
100
AcDbVertex
100
AcDb2dVertex
 10
30.07960671753249
 20
35.54738303692375
 30
0.0
  0
VERTEX
  5
177
330
16C
100
AcDbEntity
  8
0
 62
     7
420
 16777215
370
    25
100
AcDbVertex
100
AcDb2dVertex
 10
30.45460671753248
 20
35.54738303692375
 30
0.0
  0
VERTEX
  5
178
330
16C
100
AcDbEntity
  8
0
 62
     7
420
 16777215
370
    25
100
AcDbVertex
100
AcDb2dVertex
 10
30.45460671753248
 20
35.84738303692377
 30
0.0
  0
VERTEX
  5
179
330
16C
100
AcDbEntity
  8
0
 62
     7
420
 16777215
370
    25
100
AcDbVertex
100
AcDb2dVertex
 10
31.20460671753248
 20
35.84738303692377
 30
0.0
  0
VERTEX
  5
17A
330
16C
100
AcDbEntity
  8
0
 62
     7
420
 16777215
370
    25
100
AcDbVertex
100
AcDb2dVertex
 10
31.20460671753248
 20
35.54738303692375
 30
0.0
  0
VERTEX
  5
17B
330
16C
100
AcDbEntity
  8
0
 62
     7
420
 16777215
370
    25
100
AcDbVertex
100
AcDb2dVertex
 10
31.57960671753247
 20
35.54738303692375
 30
0.0
  0
VERTEX
  5
17C
330
16C
100
AcDbEntity
  8
0
 62
     7
420
 16777215
370
    25
100
AcDbVertex
100
AcDb2dVertex
 10
31.57960671753247
 20
34.04738303692377
 30
0.0
  0
VERTEX
  5
17D
330
16C
100
AcDbEntity
  8
0
 62
     7
420
 16777215
370
    25
100
AcDbVertex
100
AcDb2dVertex
 10
31.20460671753248
 20
34.04738303692377
 30
0.0
  0
SEQEND
  5
17E
330
16C
100
AcDbEntity
  8
0
 62
     7
420
 16777215
370
    25
  0
POLYLINE
  5
17F
330
12F
100
AcDbEntity
  8
0
 62
     7
420
 16777215
370
    25
100
AcDb2dPolyline
 66
     1
 10
0.0
 20
0.0
 30
0.0
  0
VERTEX
  5
180
330
17F
100
AcDbEntity
  8
0
 62
     7
420
 16777215
370
    25
100
AcDbVertex
100
AcDb2dVertex
 10
29.47001972956827
 20
34.04738303692377
 30
0.0
  0
VERTEX
  5
181
330
17F
100
AcDbEntity
  8
0
 62
     7
420
 16777215
370
    25
100
AcDbVertex
100
AcDb2dVertex
 10
29.47001972956827
 20
33.44738303692377
 30
0.0
  0
VERTEX
  5
182
330
17F
100
AcDbEntity
  8
0
 62
     7
420
 16777215
370
    25
100
AcDbVertex
100
AcDb2dVertex
 10
29.84501972956827
 20
33.44738303692377
 30
0.0
  0
VERTEX
  5
183
330
17F
100
AcDbEntity
  8
0
 62
     7
420
 16777215
370
    25
100
AcDbVertex
100
AcDb2dVertex
 10
29.84501972956827
 20
31.94738303692379
 30
0.0
  0
VERTEX
  5
184
330
17F
100
AcDbEntity
  8
0
 62
     7
420
 16777215
370
    25
100
AcDbVertex
100
AcDb2dVertex
 10
28.34501972956828
 20
31.94738303692379
 30
0.0
  0
VERTEX
  5
185
330
17F
100
AcDbEntity
  8
0
 62
     7
420
 16777215
370
    25
100
AcDbVertex
100
AcDb2dVertex
 10
28.34501972956828
 20
33.44738303692377
 30
0.0
  0
VERTEX
  5
186
330
17F
100
AcDbEntity
  8
0
 62
     7
420
 16777215
370
    25
100
AcDbVertex
100
AcDb2dVertex
 10
28.72001972956828
 20
33.44738303692377
 30
0.0
  0
VERTEX
  5
187
330
17F
100
AcDbEntity
  8
0
 62
     7
420
 16777215
370
    25
100
AcDbVertex
100
AcDb2dVertex
 10
28.72001972956828
 20
34.04738303692377
 30
0.0
  0
VERTEX
  5
188
330
17F
100
AcDbEntity
  8
0
 62
     7
420
 16777215
370
    25
100
AcDbVertex
100
AcDb2dVertex
 10
28.34501972956828
 20
34.04738303692377
 30
0.0
  0
VERTEX
  5
189
330
17F
100
AcDbEntity
  8
0
 62
     7
420
 16777215
370
    25
100
AcDbVertex
100
AcDb2dVertex
 10
28.34501972956828
 20
35.54738303692375
 30
0.0
  0
VERTEX
  5
18A
330
17F
100
AcDbEntity
  8
0
 62
     7
420
 16777215
370
    25
100
AcDbVertex
100
AcDb2dVertex
 10
28.72001972956828
 20
35.54738303692375
 30
0.0
  0
VERTEX
  5
18B
330
17F
100
AcDbEntity
  8
0
 62
     7
420
 16777215
370
    25
100
AcDbVertex
100
AcDb2dVertex
 10
28.72001972956828
 20
35.84738303692377
 30
0.0
  0
VERTEX
  5
18C
330
17F
100
AcDbEntity
  8
0
 62
     7
420
 16777215
370
    25
100
AcDbVertex
100
AcDb2dVertex
 10
29.47001972956827
 20
35.84738303692377
 30
0.0
  0
VERTEX
  5
18D
330
17F
100
AcDbEntity
  8
0
 62
     7
420
 16777215
370
    25
100
AcDbVertex
100
AcDb2dVertex
 10
29.47001972956827
 20
35.54738303692375
 30
0.0
  0
VERTEX
  5
18E
330
17F
100
AcDbEntity
  8
0
 62
     7
420
 16777215
370
    25
100
AcDbVertex
100
AcDb2dVertex
 10
29.84501972956827
 20
35.54738303692375
 30
0.0
  0
VERTEX
  5
18F
330
17F
100
AcDbEntity
  8
0
 62
     7
420
 16777215
370
    25
100
AcDbVertex
100
AcDb2dVertex
 10
29.84501972956827
 20
34.04738303692377
 30
0.0
  0
VERTEX
  5
190
330
17F
100
AcDbEntity
  8
0
 62
     7
420
 16777215
370
    25
100
AcDbVertex
100
AcDb2dVertex
 10
29.47001972956827
 20
34.04738303692377
 30
0.0
  0
SEQEND
  5
191
330
17F
100
AcDbEntity
  8
0
 62
     7
420
 16777215
370
    25
  0
POLYLINE
  5
192
330
12F
100
AcDbEntity
  8
0
 62
     7
420
 16777215
370
    25
100
AcDb2dPolyline
 66
     1
 10
0.0
 20
0.0
 30
0.0
  0
VERTEX
  5
193
330
192
100
AcDbEntity
  8
0
 62
     7
420
 16777215
370
    25
100
AcDbVertex
100
AcDb2dVertex
 10
31.20680043088847
 20
34.04738303692377
 30
0.0
  0
VERTEX
  5
194
330
192
100
AcDbEntity
  8
0
 62
     7
420
 16777215
370
    25
100
AcDbVertex
100
AcDb2dVertex
 10
31.20680043088847
 20
33.44738303692377
 30
0.0
  0
VERTEX
  5
195
330
192
100
AcDbEntity
  8
0
 62
     7
420
 16777215
370
    25
100
AcDbVertex
100
AcDb2dVertex
 10
31.58180043088847
 20
33.44738303692377
 30
0.0
  0
VERTEX
  5
196
330
192
100
AcDbEntity
  8
0
 62
     7
420
 16777215
370
    25
100
AcDbVertex
100
AcDb2dVertex
 10
31.58180043088847
 20
31.94738303692379
 30
0.0
  0
VERTEX
  5
197
330
192
100
AcDbEntity
  8
0
 62
     7
420
 16777215
370
    25
100
AcDbVertex
100
AcDb2dVertex
 10
30.08180043088848
 20
31.94738303692379
 30
0.0
  0
VERTEX
  5
198
330
192
100
AcDbEntity
  8
0
 62
     7
420
 16777215
370
    25
100
AcDbVertex
100
AcDb2dVertex
 10
30.08180043088848
 20
33.44738303692377
 30
0.0
  0
VERTEX
  5
199
330
192
100
AcDbEntity
  8
0
 62
     7
420
 16777215
370
    25
100
AcDbVertex
100
AcDb2dVertex
 10
30.45680043088848
 20
33.44738303692377
 30
0.0
  0
VERTEX
  5
19A
330
192
100
AcDbEntity
  8
0
 62
     7
420
 16777215
370
    25
100
AcDbVertex
100
AcDb2dVertex
 10
30.45680043088848
 20
34.04738303692377
 30
0.0
  0
VERTEX
  5
19B
330
192
100
AcDbEntity
  8
0
 62
     7
420
 16777215
370
    25
100
AcDbVertex
100
AcDb2dVertex
 10
30.08180043088848
 20
34.04738303692377
 30
0.0
  0
VERTEX
  5
19C
330
192
100
AcDbEntity
  8
0
 62
     7
420
 16777215
370
    25
100
AcDbVertex
100
AcDb2dVertex
 10
30.08180043088848
 20
35.54738303692375
 30
0.0
  0
VERTEX
  5
19D
330
192
100
AcDbEntity
  8
0
 62
     7
420
 16777215
370
    25
100
AcDbVertex
100
AcDb2dVertex
 10
30.45680043088848
 20
35.54738303692375
 30
0.0
  0
VERTEX
  5
19E
330
192
100
AcDbEntity
  8
0
 62
     7
420
 16777215
370
    25
100
AcDbVertex
100
AcDb2dVertex
 10
30.45680043088848
 20
35.84738303692377
 30
0.0
  0
VERTEX
  5
19F
330
192
100
AcDbEntity
  8
0
 62
     7
420
 16777215
370
    25
100
AcDbVertex
100
AcDb2dVertex
 10
31.20680043088847
 20
35.84738303692377
 30
0.0
  0
VERTEX
  5
1A0
330
192
100
AcDbEntity
  8
0
 62
     7
420
 16777215
370
    25
100
AcDbVertex
100
AcDb2dVertex
 10
31.20680043088847
 20
35.54738303692375
 30
0.0
  0
VERTEX
  5
1A1
330
192
100
AcDbEntity
  8
0
 62
     7
420
 16777215
370
    25
100
AcDbVertex
100
AcDb2dVertex
 10
31.58180043088847
 20
35.54738303692375
 30
0.0
  0
VERTEX
  5
1A2
330
192
100
AcDbEntity
  8
0
 62
     7
420
 16777215
370
    25
100
AcDbVertex
100
AcDb2dVertex
 10
31.58180043088847
 20
34.04738303692377
 30
0.0
  0
VERTEX
  5
1A3
330
192
100
AcDbEntity
  8
0
 62
     7
420
 16777215
370
    25
100
AcDbVertex
100
AcDb2dVertex
 10
31.20680043088847
 20
34.04738303692377
 30
0.0
  0
SEQEND
  5
1A4
330
192
100
AcDbEntity
  8
0
 62
     7
420
 16777215
370
    25
  0
POLYLINE
  5
1A5
330
12F
100
AcDbEntity
  8
0
 62
     7
420
 16777215
370
    25
100
AcDb2dPolyline
 66
     1
 10
0.0
 20
0.0
 30
0.0
  0
VERTEX
  5
1A6
330
1A5
100
AcDbEntity
  8
0
 62
     7
420
 16777215
370
    25
100
AcDbVertex
100
AcDb2dVertex
 10
29.46563230285628
 20
29.81887719002764
 30
0.0
  0
VERTEX
  5
1A7
330
1A5
100
AcDbEntity
  8
0
 62
     7
420
 16777215
370
    25
100
AcDbVertex
100
AcDb2dVertex
 10
29.46563230285628
 20
29.21887719002768
 30
0.0
  0
VERTEX
  5
1A8
330
1A5
100
AcDbEntity
  8
0
 62
     7
420
 16777215
370
    25
100
AcDbVertex
100
AcDb2dVertex
 10
29.84063230285628
 20
29.21887719002768
 30
0.0
  0
VERTEX
  5
1A9
330
1A5
100
AcDbEntity
  8
0
 62
     7
420
 16777215
370
    25
100
AcDbVertex
100
AcDb2dVertex
 10
29.84063230285628
 20
27.71887719002769
 30
0.0
  0
VERTEX
  5
1AA
330
1A5
100
AcDbEntity
  8
0
 62
     7
420
 16777215
370
    25
100
AcDbVertex
100
AcDb2dVertex
 10
28.34063230285629
 20
27.71887719002769
 30
0.0
  0
VERTEX
  5
1AB
330
1A5
100
AcDbEntity
  8
0
 62
     7
420
 16777215
370
    25
100
AcDbVertex
100
AcDb2dVertex
 10
28.34063230285629
 20
29.21887719002768
 30
0.0
  0
VERTEX
  5
1AC
330
1A5
100
AcDbEntity
  8
0
 62
     7
420
 16777215
370
    25
100
AcDbVertex
100
AcDb2dVertex
 10
28.71563230285629
 20
29.21887719002768
 30
0.0
  0
VERTEX
  5
1AD
330
1A5
100
AcDbEntity
  8
0
 62
     7
420
 16777215
370
    25
100
AcDbVertex
100
AcDb2dVertex
 10
28.71563230285629
 20
29.81887719002764
 30
0.0
  0
VERTEX
  5
1AE
330
1A5
100
AcDbEntity
  8
0
 62
     7
420
 16777215
370
    25
100
AcDbVertex
100
AcDb2dVertex
 10
28.34063230285629
 20
29.81887719002764
 30
0.0
  0
VERTEX
  5
1AF
330
1A5
100
AcDbEntity
  8
0
 62
     7
420
 16777215
370
    25
100
AcDbVertex
100
AcDb2dVertex
 10
28.34063230285629
 20
31.31887719002766
 30
0.0
  0
VERTEX
  5
1B0
330
1A5
100
AcDbEntity
  8
0
 62
     7
420
 16777215
370
    25
100
AcDbVertex
100
AcDb2dVertex
 10
28.71563230285629
 20
31.31887719002766
 30
0.0
  0
VERTEX
  5
1B1
330
1A5
100
AcDbEntity
  8
0
 62
     7
420
 16777215
370
    25
100
AcDbVertex
100
AcDb2dVertex
 10
28.71563230285629
 20
31.61887719002767
 30
0.0
  0
VERTEX
  5
1B2
330
1A5
100
AcDbEntity
  8
0
 62
     7
420
 16777215
370
    25
100
AcDbVertex
100
AcDb2dVertex
 10
29.46563230285628
 20
31.61887719002767
 30
0.0
  0
VERTEX
  5
1B3
330
1A5
100
AcDbEntity
  8
0
 62
     7
420
 16777215
370
    25
100
AcDbVertex
100
AcDb2dVertex
 10
29.46563230285628
 20
31.31887719002766
 30
0.0
  0
VERTEX
  5
1B4
330
1A5
100
AcDbEntity
  8
0
 62
     7
420
 16777215
370
    25
100
AcDbVertex
100
AcDb2dVertex
 10
29.84063230285628
 20
31.31887719002766
 30
0.0
  0
VERTEX
  5
1B5
330
1A5
100
AcDbEntity
  8
0
 62
     7
420
 16777215
370
    25
100
AcDbVertex
100
AcDb2dVertex
 10
29.84063230285628
 20
29.81887719002764
 30
0.0
  0
VERTEX
  5
1B6
330
1A5
100
AcDbEntity
  8
0
 62
     7
420
 16777215
370
    25
100
AcDbVertex
100
AcDb2dVertex
 10
29.46563230285628
 20
29.81887719002764
 30
0.0
  0
SEQEND
  5
1B7
330
1A5
100
AcDbEntity
  8
0
 62
     7
420
 16777215
370
    25
  0
POLYLINE
  5
1B8
330
12F
100
AcDbEntity
  8
0
 62
     7
420
 16777215
370
    25
100
AcDb2dPolyline
 66
     1
 10
0.0
 20
0.0
 30
0.0
  0
VERTEX
  5
1B9
330
1B8
100
AcDbEntity
  8
0
 62
     7
420
 16777215
370
    25
100
AcDbVertex
100
AcDb2dVertex
 10
31.20241300417648
 20
29.81887719002764
 30
0.0
  0
VERTEX
  5
1BA
330
1B8
100
AcDbEntity
  8
0
 62
     7
420
 16777215
370
    25
100
AcDbVertex
100
AcDb2dVertex
 10
31.20241300417648
 20
29.21887719002768
 30
0.0
  0
VERTEX
  5
1BB
330
1B8
100
AcDbEntity
  8
0
 62
     7
420
 16777215
370
    25
100
AcDbVertex
100
AcDb2dVertex
 10
31.57741300417648
 20
29.21887719002768
 30
0.0
  0
VERTEX
  5
1BC
330
1B8
100
AcDbEntity
  8
0
 62
     7
420
 16777215
370
    25
100
AcDbVertex
100
AcDb2dVertex
 10
31.57741300417648
 20
27.71887719002769
 30
0.0
  0
VERTEX
  5
1BD
330
1B8
100
AcDbEntity
  8
0
 62
     7
420
 16777215
370
    25
100
AcDbVertex
100
AcDb2dVertex
 10
30.07741300417649
 20
27.71887719002769
 30
0.0
  0
VERTEX
  5
1BE
330
1B8
100
AcDbEntity
  8
0
 62
     7
420
 16777215
370
    25
100
AcDbVertex
100
AcDb2dVertex
 10
30.07741300417649
 20
29.21887719002768
 30
0.0
  0
VERTEX
  5
1BF
330
1B8
100
AcDbEntity
  8
0
 62
     7
420
 16777215
370
    25
100
AcDbVertex
100
AcDb2dVertex
 10
30.45241300417649
 20
29.21887719002768
 30
0.0
  0
VERTEX
  5
1C0
330
1B8
100
AcDbEntity
  8
0
 62
     7
420
 16777215
370
    25
100
AcDbVertex
100
AcDb2dVertex
 10
30.45241300417649
 20
29.81887719002764
 30
0.0
  0
VERTEX
  5
1C1
330
1B8
100
AcDbEntity
  8
0
 62
     7
420
 16777215
370
    25
100
AcDbVertex
100
AcDb2dVertex
 10
30.07741300417649
 20
29.81887719002764
 30
0.0
  0
VERTEX
  5
1C2
330
1B8
100
AcDbEntity
  8
0
 62
     7
420
 16777215
370
    25
100
AcDbVertex
100
AcDb2dVertex
 10
30.07741300417649
 20
31.31887719002766
 30
0.0
  0
VERTEX
  5
1C3
330
1B8
100
AcDbEntity
  8
0
 62
     7
420
 16777215
370
    25
100
AcDbVertex
100
AcDb2dVertex
 10
30.45241300417649
 20
31.31887719002766
 30
0.0
  0
VERTEX
  5
1C4
330
1B8
100
AcDbEntity
  8
0
 62
     7
420
 16777215
370
    25
100
AcDbVertex
100
AcDb2dVertex
 10
30.45241300417649
 20
31.61887719002767
 30
0.0
  0
VERTEX
  5
1C5
330
1B8
100
AcDbEntity
  8
0
 62
     7
420
 16777215
370
    25
100
AcDbVertex
100
AcDb2dVertex
 10
31.20241300417648
 20
31.61887719002767
 30
0.0
  0
VERTEX
  5
1C6
330
1B8
100
AcDbEntity
  8
0
 62
     7
420
 16777215
370
    25
100
AcDbVertex
100
AcDb2dVertex
 10
31.20241300417648
 20
31.31887719002766
 30
0.0
  0
VERTEX
  5
1C7
330
1B8
100
AcDbEntity
  8
0
 62
     7
420
 16777215
370
    25
100
AcDbVertex
100
AcDb2dVertex
 10
31.57741300417648
 20
31.31887719002766
 30
0.0
  0
VERTEX
  5
1C8
330
1B8
100
AcDbEntity
  8
0
 62
     7
420
 16777215
370
    25
100
AcDbVertex
100
AcDb2dVertex
 10
31.57741300417648
 20
29.81887719002764
 30
0.0
  0
VERTEX
  5
1C9
330
1B8
100
AcDbEntity
  8
0
 62
     7
420
 16777215
370
    25
100
AcDbVertex
100
AcDb2dVertex
 10
31.20241300417648
 20
29.81887719002764
 30
0.0
  0
SEQEND
  5
1CA
330
1B8
100
AcDbEntity
  8
0
 62
     7
420
 16777215
370
    25
  0
POLYLINE
  5
1CB
330
12F
100
AcDbEntity
  8
0
 62
     7
420
 16777215
370
    25
100
AcDb2dPolyline
 66
     1
 10
0.0
 20
0.0
 30
0.0
  0
VERTEX
  5
1CC
330
1CB
100
AcDbEntity
  8
0
 62
     7
420
 16777215
370
    25
100
AcDbVertex
100
AcDb2dVertex
 10
29.46563230285628
 20
29.81887719002764
 30
0.0
  0
VERTEX
  5
1CD
330
1CB
100
AcDbEntity
  8
0
 62
     7
420
 16777215
370
    25
100
AcDbVertex
100
AcDb2dVertex
 10
29.46563230285628
 20
29.21887719002768
 30
0.0
  0
VERTEX
  5
1CE
330
1CB
100
AcDbEntity
  8
0
 62
     7
420
 16777215
370
    25
100
AcDbVertex
100
AcDb2dVertex
 10
29.84063230285628
 20
29.21887719002768
 30
0.0
  0
VERTEX
  5
1CF
330
1CB
100
AcDbEntity
  8
0
 62
     7
420
 16777215
370
    25
100
AcDbVertex
100
AcDb2dVertex
 10
29.84063230285628
 20
27.71887719002769
 30
0.0
  0
VERTEX
  5
1D0
330
1CB
100
AcDbEntity
  8
0
 62
     7
420
 16777215
370
    25
100
AcDbVertex
100
AcDb2dVertex
 10
28.34063230285629
 20
27.71887719002769
 30
0.0
  0
VERTEX
  5
1D1
330
1CB
100
AcDbEntity
  8
0
 62
     7
420
 16777215
370
    25
100
AcDbVertex
100
AcDb2dVertex
 10
28.34063230285629
 20
29.21887719002768
 30
0.0
  0
VERTEX
  5
1D2
330
1CB
100
AcDbEntity
  8
0
 62
     7
420
 16777215
370
    25
100
AcDbVertex
100
AcDb2dVertex
 10
28.71563230285629
 20
29.21887719002768
 30
0.0
  0
VERTEX
  5
1D3
330
1CB
100
AcDbEntity
  8
0
 62
     7
420
 16777215
370
    25
100
AcDbVertex
100
AcDb2dVertex
 10
28.71563230285629
 20
29.81887719002764
 30
0.0
  0
VERTEX
  5
1D4
330
1CB
100
AcDbEntity
  8
0
 62
     7
420
 16777215
370
    25
100
AcDbVertex
100
AcDb2dVertex
 10
28.34063230285629
 20
29.81887719002764
 30
0.0
  0
VERTEX
  5
1D5
330
1CB
100
AcDbEntity
  8
0
 62
     7
420
 16777215
370
    25
100
AcDbVertex
100
AcDb2dVertex
 10
28.34063230285629
 20
31.31887719002766
 30
0.0
  0
VERTEX
  5
1D6
330
1CB
100
AcDbEntity
  8
0
 62
     7
420
 16777215
370
    25
100
AcDbVertex
100
AcDb2dVertex
 10
28.71563230285629
 20
31.31887719002766
 30
0.0
  0
VERTEX
  5
1D7
330
1CB
100
AcDbEntity
  8
0
 62
     7
420
 16777215
370
    25
100
AcDbVertex
100
AcDb2dVertex
 10
28.71563230285629
 20
31.61887719002767
 30
0.0
  0
VERTEX
  5
1D8
330
1CB
100
AcDbEntity
  8
0
 62
     7
420
 16777215
370
    25
100
AcDbVertex
100
AcDb2dVertex
 10
29.46563230285628
 20
31.61887719002767
 30
0.0
  0
VERTEX
  5
1D9
330
1CB
100
AcDbEntity
  8
0
 62
     7
420
 16777215
370
    25
100
AcDbVertex
100
AcDb2dVertex
 10
29.46563230285628
 20
31.31887719002766
 30
0.0
  0
VERTEX
  5
1DA
330
1CB
100
AcDbEntity
  8
0
 62
     7
420
 16777215
370
    25
100
AcDbVertex
100
AcDb2dVertex
 10
29.84063230285628
 20
31.31887719002766
 30
0.0
  0
VERTEX
  5
1DB
330
1CB
100
AcDbEntity
  8
0
 62
     7
420
 16777215
370
    25
100
AcDbVertex
100
AcDb2dVertex
 10
29.84063230285628
 20
29.81887719002764
 30
0.0
  0
VERTEX
  5
1DC
330
1CB
100
AcDbEntity
  8
0
 62
     7
420
 16777215
370
    25
100
AcDbVertex
100
AcDb2dVertex
 10
29.46563230285628
 20
29.81887719002764
 30
0.0
  0
SEQEND
  5
1DD
330
1CB
100
AcDbEntity
  8
0
 62
     7
420
 16777215
370
    25
  0
POLYLINE
  5
1DE
330
12F
100
AcDbEntity
  8
0
 62
     7
420
 16777215
370
    25
100
AcDb2dPolyline
 66
     1
 10
0.0
 20
0.0
 30
0.0
  0
VERTEX
  5
1DF
330
1DE
100
AcDbEntity
  8
0
 62
     7
420
 16777215
370
    25
100
AcDbVertex
100
AcDb2dVertex
 10
31.20241300417648
 20
29.81887719002764
 30
0.0
  0
VERTEX
  5
1E0
330
1DE
100
AcDbEntity
  8
0
 62
     7
420
 16777215
370
    25
100
AcDbVertex
100
AcDb2dVertex
 10
31.20241300417648
 20
29.21887719002768
 30
0.0
  0
VERTEX
  5
1E1
330
1DE
100
AcDbEntity
  8
0
 62
     7
420
 16777215
370
    25
100
AcDbVertex
100
AcDb2dVertex
 10
31.57741300417648
 20
29.21887719002768
 30
0.0
  0
VERTEX
  5
1E2
330
1DE
100
AcDbEntity
  8
0
 62
     7
420
 16777215
370
    25
100
AcDbVertex
100
AcDb2dVertex
 10
31.57741300417648
 20
27.71887719002769
 30
0.0
  0
VERTEX
  5
1E3
330
1DE
100
AcDbEntity
  8
0
 62
     7
420
 16777215
370
    25
100
AcDbVertex
100
AcDb2dVertex
 10
30.07741300417649
 20
27.71887719002769
 30
0.0
  0
VERTEX
  5
1E4
330
1DE
100
AcDbEntity
  8
0
 62
     7
420
 16777215
370
    25
100
AcDbVertex
100
AcDb2dVertex
 10
30.07741300417649
 20
29.21887719002768
 30
0.0
  0
VERTEX
  5
1E5
330
1DE
100
AcDbEntity
  8
0
 62
     7
420
 16777215
370
    25
100
AcDbVertex
100
AcDb2dVertex
 10
30.45241300417649
 20
29.21887719002768
 30
0.0
  0
VERTEX
  5
1E6
330
1DE
100
AcDbEntity
  8
0
 62
     7
420
 16777215
370
    25
100
AcDbVertex
100
AcDb2dVertex
 10
30.45241300417649
 20
29.81887719002764
 30
0.0
  0
VERTEX
  5
1E7
330
1DE
100
AcDbEntity
  8
0
 62
     7
420
 16777215
370
    25
100
AcDbVertex
100
AcDb2dVertex
 10
30.07741300417649
 20
29.81887719002764
 30
0.0
  0
VERTEX
  5
1E8
330
1DE
100
AcDbEntity
  8
0
 62
     7
420
 16777215
370
    25
100
AcDbVertex
100
AcDb2dVertex
 10
30.07741300417649
 20
31.31887719002766
 30
0.0
  0
VERTEX
  5
1E9
330
1DE
100
AcDbEntity
  8
0
 62
     7
420
 16777215
370
    25
100
AcDbVertex
100
AcDb2dVertex
 10
30.45241300417649
 20
31.31887719002766
 30
0.0
  0
VERTEX
  5
1EA
330
1DE
100
AcDbEntity
  8
0
 62
     7
420
 16777215
370
    25
100
AcDbVertex
100
AcDb2dVertex
 10
30.45241300417649
 20
31.61887719002767
 30
0.0
  0
VERTEX
  5
1EB
330
1DE
100
AcDbEntity
  8
0
 62
     7
420
 16777215
370
    25
100
AcDbVertex
100
AcDb2dVertex
 10
31.20241300417648
 20
31.61887719002767
 30
0.0
  0
VERTEX
  5
1EC
330
1DE
100
AcDbEntity
  8
0
 62
     7
420
 16777215
370
    25
100
AcDbVertex
100
AcDb2dVertex
 10
31.20241300417648
 20
31.31887719002766
 30
0.0
  0
VERTEX
  5
1ED
330
1DE
100
AcDbEntity
  8
0
 62
     7
420
 16777215
370
    25
100
AcDbVertex
100
AcDb2dVertex
 10
31.57741300417648
 20
31.31887719002766
 30
0.0
  0
VERTEX
  5
1EE
330
1DE
100
AcDbEntity
  8
0
 62
     7
420
 16777215
370
    25
100
AcDbVertex
100
AcDb2dVertex
 10
31.57741300417648
 20
29.81887719002764
 30
0.0
  0
VERTEX
  5
1EF
330
1DE
100
AcDbEntity
  8
0
 62
     7
420
 16777215
370
    25
100
AcDbVertex
100
AcDb2dVertex
 10
31.20241300417648
 20
29.81887719002764
 30
0.0
  0
SEQEND
  5
1F0
330
1DE
100
AcDbEntity
  8
0
 62
     7
420
 16777215
370
    25
  0
POLYLINE
  5
1F1
330
12F
100
AcDbEntity
  8
0
 62
     7
420
 16777215
370
    25
100
AcDb2dPolyline
 66
     1
 10
0.0
 20
0.0
 30
0.0
  0
VERTEX
  5
1F2
330
1F1
100
AcDbEntity
  8
0
 62
     7
420
 16777215
370
    25
100
AcDbVertex
100
AcDb2dVertex
 10
29.4612448761443
 20
25.59037134313161
 30
0.0
  0
VERTEX
  5
1F3
330
1F1
100
AcDbEntity
  8
0
 62
     7
420
 16777215
370
    25
100
AcDbVertex
100
AcDb2dVertex
 10
29.4612448761443
 20
24.99037134313159
 30
0.0
  0
VERTEX
  5
1F4
330
1F1
100
AcDbEntity
  8
0
 62
     7
420
 16777215
370
    25
100
AcDbVertex
100
AcDb2dVertex
 10
29.83624487614429
 20
24.99037134313159
 30
0.0
  0
VERTEX
  5
1F5
330
1F1
100
AcDbEntity
  8
0
 62
     7
420
 16777215
370
    25
100
AcDbVertex
100
AcDb2dVertex
 10
29.83624487614429
 20
23.4903713431316
 30
0.0
  0
VERTEX
  5
1F6
330
1F1
100
AcDbEntity
  8
0
 62
     7
420
 16777215
370
    25
100
AcDbVertex
100
AcDb2dVertex
 10
28.3362448761443
 20
23.4903713431316
 30
0.0
  0
VERTEX
  5
1F7
330
1F1
100
AcDbEntity
  8
0
 62
     7
420
 16777215
370
    25
100
AcDbVertex
100
AcDb2dVertex
 10
28.3362448761443
 20
24.99037134313159
 30
0.0
  0
VERTEX
  5
1F8
330
1F1
100
AcDbEntity
  8
0
 62
     7
420
 16777215
370
    25
100
AcDbVertex
100
AcDb2dVertex
 10
28.7112448761443
 20
24.99037134313159
 30
0.0
  0
VERTEX
  5
1F9
330
1F1
100
AcDbEntity
  8
0
 62
     7
420
 16777215
370
    25
100
AcDbVertex
100
AcDb2dVertex
 10
28.7112448761443
 20
25.59037134313161
 30
0.0
  0
VERTEX
  5
1FA
330
1F1
100
AcDbEntity
  8
0
 62
     7
420
 16777215
370
    25
100
AcDbVertex
100
AcDb2dVertex
 10
28.3362448761443
 20
25.59037134313161
 30
0.0
  0
VERTEX
  5
1FB
330
1F1
100
AcDbEntity
  8
0
 62
     7
420
 16777215
370
    25
100
AcDbVertex
100
AcDb2dVertex
 10
28.3362448761443
 20
27.0903713431316
 30
0.0
  0
VERTEX
  5
1FC
330
1F1
100
AcDbEntity
  8
0
 62
     7
420
 16777215
370
    25
100
AcDbVertex
100
AcDb2dVertex
 10
28.7112448761443
 20
27.0903713431316
 30
0.0
  0
VERTEX
  5
1FD
330
1F1
100
AcDbEntity
  8
0
 62
     7
420
 16777215
370
    25
100
AcDbVertex
100
AcDb2dVertex
 10
28.7112448761443
 20
27.39037134313154
 30
0.0
  0
VERTEX
  5
1FE
330
1F1
100
AcDbEntity
  8
0
 62
     7
420
 16777215
370
    25
100
AcDbVertex
100
AcDb2dVertex
 10
29.4612448761443
 20
27.39037134313154
 30
0.0
  0
VERTEX
  5
1FF
330
1F1
100
AcDbEntity
  8
0
 62
     7
420
 16777215
370
    25
100
AcDbVertex
100
AcDb2dVertex
 10
29.4612448761443
 20
27.0903713431316
 30
0.0
  0
VERTEX
  5
200
330
1F1
100
AcDbEntity
  8
0
 62
     7
420
 16777215
370
    25
100
AcDbVertex
100
AcDb2dVertex
 10
29.83624487614429
 20
27.0903713431316
 30
0.0
  0
VERTEX
  5
201
330
1F1
100
AcDbEntity
  8
0
 62
     7
420
 16777215
370
    25
100
AcDbVertex
100
AcDb2dVertex
 10
29.83624487614429
 20
25.59037134313161
 30
0.0
  0
VERTEX
  5
202
330
1F1
100
AcDbEntity
  8
0
 62
     7
420
 16777215
370
    25
100
AcDbVertex
100
AcDb2dVertex
 10
29.4612448761443
 20
25.59037134313161
 30
0.0
  0
SEQEND
  5
203
330
1F1
100
AcDbEntity
  8
0
 62
     7
420
 16777215
370
    25
  0
POLYLINE
  5
204
330
12F
100
AcDbEntity
  8
0
 62
     7
420
 16777215
370
    25
100
AcDb2dPolyline
 66
     1
 10
0.0
 20
0.0
 30
0.0
  0
VERTEX
  5
205
330
204
100
AcDbEntity
  8
0
 62
     7
420
 16777215
370
    25
100
AcDbVertex
100
AcDb2dVertex
 10
31.1980255774645
 20
25.59037134313161
 30
0.0
  0
VERTEX
  5
206
330
204
100
AcDbEntity
  8
0
 62
     7
420
 16777215
370
    25
100
AcDbVertex
100
AcDb2dVertex
 10
31.1980255774645
 20
24.99037134313159
 30
0.0
  0
VERTEX
  5
207
330
204
100
AcDbEntity
  8
0
 62
     7
420
 16777215
370
    25
100
AcDbVertex
100
AcDb2dVertex
 10
31.57302557746449
 20
24.99037134313159
 30
0.0
  0
VERTEX
  5
208
330
204
100
AcDbEntity
  8
0
 62
     7
420
 16777215
370
    25
100
AcDbVertex
100
AcDb2dVertex
 10
31.57302557746449
 20
23.4903713431316
 30
0.0
  0
VERTEX
  5
209
330
204
100
AcDbEntity
  8
0
 62
     7
420
 16777215
370
    25
100
AcDbVertex
100
AcDb2dVertex
 10
30.0730255774645
 20
23.4903713431316
 30
0.0
  0
VERTEX
  5
20A
330
204
100
AcDbEntity
  8
0
 62
     7
420
 16777215
370
    25
100
AcDbVertex
100
AcDb2dVertex
 10
30.0730255774645
 20
24.99037134313159
 30
0.0
  0
VERTEX
  5
20B
330
204
100
AcDbEntity
  8
0
 62
     7
420
 16777215
370
    25
100
AcDbVertex
100
AcDb2dVertex
 10
30.4480255774645
 20
24.99037134313159
 30
0.0
  0
VERTEX
  5
20C
330
204
100
AcDbEntity
  8
0
 62
     7
420
 16777215
370
    25
100
AcDbVertex
100
AcDb2dVertex
 10
30.4480255774645
 20
25.59037134313161
 30
0.0
  0
VERTEX
  5
20D
330
204
100
AcDbEntity
  8
0
 62
     7
420
 16777215
370
    25
100
AcDbVertex
100
AcDb2dVertex
 10
30.0730255774645
 20
25.59037134313161
 30
0.0
  0
VERTEX
  5
20E
330
204
100
AcDbEntity
  8
0
 62
     7
420
 16777215
370
    25
100
AcDbVertex
100
AcDb2dVertex
 10
30.0730255774645
 20
27.0903713431316
 30
0.0
  0
VERTEX
  5
20F
330
204
100
AcDbEntity
  8
0
 62
     7
420
 16777215
370
    25
100
AcDbVertex
100
AcDb2dVertex
 10
30.4480255774645
 20
27.0903713431316
 30
0.0
  0
VERTEX
  5
210
330
204
100
AcDbEntity
  8
0
 62
     7
420
 16777215
370
    25
100
AcDbVertex
100
AcDb2dVertex
 10
30.4480255774645
 20
27.39037134313154
 30
0.0
  0
VERTEX
  5
211
330
204
100
AcDbEntity
  8
0
 62
     7
420
 16777215
370
    25
100
AcDbVertex
100
AcDb2dVertex
 10
31.1980255774645
 20
27.39037134313154
 30
0.0
  0
VERTEX
  5
212
330
204
100
AcDbEntity
  8
0
 62
     7
420
 16777215
370
    25
100
AcDbVertex
100
AcDb2dVertex
 10
31.1980255774645
 20
27.0903713431316
 30
0.0
  0
VERTEX
  5
213
330
204
100
AcDbEntity
  8
0
 62
     7
420
 16777215
370
    25
100
AcDbVertex
100
AcDb2dVertex
 10
31.57302557746449
 20
27.0903713431316
 30
0.0
  0
VERTEX
  5
214
330
204
100
AcDbEntity
  8
0
 62
     7
420
 16777215
370
    25
100
AcDbVertex
100
AcDb2dVertex
 10
31.57302557746449
 20
25.59037134313161
 30
0.0
  0
VERTEX
  5
215
330
204
100
AcDbEntity
  8
0
 62
     7
420
 16777215
370
    25
100
AcDbVertex
100
AcDb2dVertex
 10
31.1980255774645
 20
25.59037134313161
 30
0.0
  0
SEQEND
  5
216
330
204
100
AcDbEntity
  8
0
 62
     7
420
 16777215
370
    25
  0
ENDBLK
  5
132
330
12F
100
AcDbEntity
  8
0
100
AcDbBlockEnd
  0
BLOCK
  5
219
330
217
100
AcDbEntity
  8
0
100
AcDbBlockBegin
  2
block 34
 70
     0
 10
0.0
 20
0.0
 30
0.0
  3
block 34
  1

  0
INSERT
  5
21C
330
217
100
AcDbEntity
  8
0
100
AcDbBlockReference
  2
block 35
 10
0.0
 20
0.0
 30
0.0
  0
INSERT
  5
227
330
217
100
AcDbEntity
  8
0
100
AcDbBlockReference
  2
block 36
 10
0.0
 20
0.0
 30
0.0
  0
INSERT
  5
232
330
217
100
AcDbEntity
  8
0
100
AcDbBlockReference
  2
block 37
 10
0.0
 20
0.0
 30
0.0
  0
INSERT
  5
23D
330
217
100
AcDbEntity
  8
0
100
AcDbBlockReference
  2
block 38
 10
0.0
 20
0.0
 30
0.0
  0
INSERT
  5
248
330
217
100
AcDbEntity
  8
0
100
AcDbBlockReference
  2
block 39
 10
0.0
 20
0.0
 30
0.0
  0
ENDBLK
  5
21A
330
217
100
AcDbEntity
  8
0
100
AcDbBlockEnd
  0
BLOCK
  5
21D
330
21B
100
AcDbEntity
  8
0
100
AcDbBlockBegin
  2
block 35
 70
     0
 10
0.0
 20
0.0
 30
0.0
  3
block 35
  1

  0
POLYLINE
  5
21F
330
21B
100
AcDbEntity
  8
0
 62
     7
420
 16777215
370
    25
100
AcDb2dPolyline
 66
     1
 10
0.0
 20
0.0
 30
0.0
  0
VERTEX
  5
220
330
21F
100
AcDbEntity
  8
0
 62
     7
420
 16777215
370
    25
100
AcDbVertex
100
AcDb2dVertex
 10
52.2654034728706
 20
32.49374560452592
 30
0.0
  0
VERTEX
  5
221
330
21F
100
AcDbEntity
  8
0
 62
     7
420
 16777215
370
    25
100
AcDbVertex
100
AcDb2dVertex
 10
51.96540347287053
 20
32.49374560452592
 30
0.0
  0
VERTEX
  5
222
330
21F
100
AcDbEntity
  8
0
 62
     7
420
 16777215
370
    25
100
AcDbVertex
100
AcDb2dVertex
 10
51.96540347287053
 20
31.74374560452592
 30
0.0
  0
VERTEX
  5
223
330
21F
100
AcDbEntity
  8
0
 62
     7
420
 16777215
370
    25
100
AcDbVertex
100
AcDb2dVertex
 10
52.2654034728706
 20
31.74374560452592
 30
0.0
  0
VERTEX
  5
224
330
21F
100
AcDbEntity
  8
0
 62
     7
420
 16777215
370
    25
100
AcDbVertex
100
AcDb2dVertex
 10
52.2654034728706
 20
32.49374560452592
 30
0.0
  0
SEQEND
  5
225
330
21F
100
AcDbEntity
  8
0
 62
     7
420
 16777215
370
    25
  0
ENDBLK
  5
21E
330
21B
100
AcDbEntity
  8
0
100
AcDbBlockEnd
  0
BLOCK
  5
228
330
226
100
AcDbEntity
  8
0
100
AcDbBlockBegin
  2
block 36
 70
     0
 10
0.0
 20
0.0
 30
0.0
  3
block 36
  1

  0
POLYLINE
  5
22A
330
226
100
AcDbEntity
  8
0
 62
     7
420
 16777215
370
    25
100
AcDb2dPolyline
 66
     1
 10
0.0
 20
0.0
 30
0.0
  0
VERTEX
  5
22B
330
22A
100
AcDbEntity
  8
0
 62
     7
420
 16777215
370
    25
100
AcDbVertex
100
AcDb2dVertex
 10
52.2654034728706
 20
37.82707893785931
 30
0.0
  0
VERTEX
  5
22C
330
22A
100
AcDbEntity
  8
0
 62
     7
420
 16777215
370
    25
100
AcDbVertex
100
AcDb2dVertex
 10
51.96540347287053
 20
37.82707893785931
 30
0.0
  0
VERTEX
  5
22D
330
22A
100
AcDbEntity
  8
0
 62
     7
420
 16777215
370
    25
100
AcDbVertex
100
AcDb2dVertex
 10
51.96540347287053
 20
37.07707893785932
 30
0.0
  0
VERTEX
  5
22E
330
22A
100
AcDbEntity
  8
0
 62
     7
420
 16777215
370
    25
100
AcDbVertex
100
AcDb2dVertex
 10
52.2654034728706
 20
37.07707893785932
 30
0.0
  0
VERTEX
  5
22F
330
22A
100
AcDbEntity
  8
0
 62
     7
420
 16777215
370
    25
100
AcDbVertex
100
AcDb2dVertex
 10
52.2654034728706
 20
37.82707893785931
 30
0.0
  0
SEQEND
  5
230
330
22A
100
AcDbEntity
  8
0
 62
     7
420
 16777215
370
    25
  0
ENDBLK
  5
229
330
226
100
AcDbEntity
  8
0
100
AcDbBlockEnd
  0
BLOCK
  5
233
330
231
100
AcDbEntity
  8
0
100
AcDbBlockBegin
  2
block 37
 70
     0
 10
0.0
 20
0.0
 30
0.0
  3
block 37
  1

  0
POLYLINE
  5
235
330
231
100
AcDbEntity
  8
0
 62
     7
420
 16777215
370
    25
100
AcDb2dPolyline
 66
     1
 10
0.0
 20
0.0
 30
0.0
  0
VERTEX
  5
236
330
235
100
AcDbEntity
  8
0
 62
     7
420
 16777215
370
    25
100
AcDbVertex
100
AcDb2dVertex
 10
52.2654034728706
 20
27.16041227119265
 30
0.0
  0
VERTEX
  5
237
330
235
100
AcDbEntity
  8
0
 62
     7
420
 16777215
370
    25
100
AcDbVertex
100
AcDb2dVertex
 10
51.96540347287053
 20
27.16041227119265
 30
0.0
  0
VERTEX
  5
238
330
235
100
AcDbEntity
  8
0
 62
     7
420
 16777215
370
    25
100
AcDbVertex
100
AcDb2dVertex
 10
51.96540347287053
 20
26.41041227119266
 30
0.0
  0
VERTEX
  5
239
330
235
100
AcDbEntity
  8
0
 62
     7
420
 16777215
370
    25
100
AcDbVertex
100
AcDb2dVertex
 10
52.2654034728706
 20
26.41041227119266
 30
0.0
  0
VERTEX
  5
23A
330
235
100
AcDbEntity
  8
0
 62
     7
420
 16777215
370
    25
100
AcDbVertex
100
AcDb2dVertex
 10
52.2654034728706
 20
27.16041227119265
 30
0.0
  0
SEQEND
  5
23B
330
235
100
AcDbEntity
  8
0
 62
     7
420
 16777215
370
    25
  0
ENDBLK
  5
234
330
231
100
AcDbEntity
  8
0
100
AcDbBlockEnd
  0
BLOCK
  5
23E
330
23C
100
AcDbEntity
  8
0
100
AcDbBlockBegin
  2
block 38
 70
     0
 10
0.0
 20
0.0
 30
0.0
  3
block 38
  1

  0
POLYLINE
  5
240
330
23C
100
AcDbEntity
  8
0
 62
     7
420
 16777215
370
    25
100
AcDb2dPolyline
 66
     1
 10
0.0
 20
0.0
 30
0.0
  0
VERTEX
  5
241
330
240
100
AcDbEntity
  8
0
 62
     7
420
 16777215
370
    25
100
AcDbVertex
100
AcDb2dVertex
 10
52.2654034728706
 20
21.82707893785926
 30
0.0
  0
VERTEX
  5
242
330
240
100
AcDbEntity
  8
0
 62
     7
420
 16777215
370
    25
100
AcDbVertex
100
AcDb2dVertex
 10
51.96540347287053
 20
21.82707893785926
 30
0.0
  0
VERTEX
  5
243
330
240
100
AcDbEntity
  8
0
 62
     7
420
 16777215
370
    25
100
AcDbVertex
100
AcDb2dVertex
 10
51.96540347287053
 20
21.07707893785927
 30
0.0
  0
VERTEX
  5
244
330
240
100
AcDbEntity
  8
0
 62
     7
420
 16777215
370
    25
100
AcDbVertex
100
AcDb2dVertex
 10
52.2654034728706
 20
21.07707893785927
 30
0.0
  0
VERTEX
  5
245
330
240
100
AcDbEntity
  8
0
 62
     7
420
 16777215
370
    25
100
AcDbVertex
100
AcDb2dVertex
 10
52.2654034728706
 20
21.82707893785926
 30
0.0
  0
SEQEND
  5
246
330
240
100
AcDbEntity
  8
0
 62
     7
420
 16777215
370
    25
  0
ENDBLK
  5
23F
330
23C
100
AcDbEntity
  8
0
100
AcDbBlockEnd
  0
BLOCK
  5
249
330
247
100
AcDbEntity
  8
0
100
AcDbBlockBegin
  2
block 39
 70
     0
 10
0.0
 20
0.0
 30
0.0
  3
block 39
  1

  0
POLYLINE
  5
24B
330
247
100
AcDbEntity
  8
0
 62
     7
420
 16777215
370
    25
100
AcDb2dPolyline
 66
     1
 10
0.0
 20
0.0
 30
0.0
  0
VERTEX
  5
24C
330
24B
100
AcDbEntity
  8
0
 62
     7
420
 16777215
370
    25
100
AcDbVertex
100
AcDb2dVertex
 10
49.91540349820252
 20
20.65907893785932
 30
0.0
  0
VERTEX
  5
24D
330
24B
100
AcDbEntity
  8
0
 62
     7
420
 16777215
370
    25
100
AcDbVertex
100
AcDb2dVertex
 10
49.91540349820252
 20
45.78907893785934
 30
0.0
  0
VERTEX
  5
24E
330
24B
100
AcDbEntity
  8
0
 62
     7
420
 16777215
370
    25
100
AcDbVertex
100
AcDb2dVertex
 10
56.01540349820247
 20
45.78907893785934
 30
0.0
  0
VERTEX
  5
24F
330
24B
100
AcDbEntity
  8
0
 62
     7
420
 16777215
370
    25
100
AcDbVertex
100
AcDb2dVertex
 10
56.01540349820247
 20
45.08907893785926
 30
0.0
  0
VERTEX
  5
250
330
24B
100
AcDbEntity
  8
0
 62
     7
420
 16777215
370
    25
100
AcDbVertex
100
AcDb2dVertex
 10
55.71540349820253
 20
45.08907893785926
 30
0.0
  0
VERTEX
  5
251
330
24B
100
AcDbEntity
  8
0
 62
     7
420
 16777215
370
    25
100
AcDbVertex
100
AcDb2dVertex
 10
55.71540349820253
 20
44.64607893785929
 30
0.0
  0
VERTEX
  5
252
330
24B
100
AcDbEntity
  8
0
 62
     7
420
 16777215
370
    25
100
AcDbVertex
100
AcDb2dVertex
 10
56.01540349820247
 20
44.64607893785929
 30
0.0
  0
VERTEX
  5
253
330
24B
100
AcDbEntity
  8
0
 62
     7
420
 16777215
370
    25
100
AcDbVertex
100
AcDb2dVertex
 10
56.01540349820247
 20
44.20307893785933
 30
0.0
  0
VERTEX
  5
254
330
24B
100
AcDbEntity
  8
0
 62
     7
420
 16777215
370
    25
100
AcDbVertex
100
AcDb2dVertex
 10
55.71540349820253
 20
44.20307893785933
 30
0.0
  0
VERTEX
  5
255
330
24B
100
AcDbEntity
  8
0
 62
     7
420
 16777215
370
    25
100
AcDbVertex
100
AcDb2dVertex
 10
55.71540349820253
 20
43.7600789378593
 30
0.0
  0
VERTEX
  5
256
330
24B
100
AcDbEntity
  8
0
 62
     7
420
 16777215
370
    25
100
AcDbVertex
100
AcDb2dVertex
 10
56.01540349820247
 20
43.7600789378593
 30
0.0
  0
VERTEX
  5
257
330
24B
100
AcDbEntity
  8
0
 62
     7
420
 16777215
370
    25
100
AcDbVertex
100
AcDb2dVertex
 10
56.01540349820247
 20
43.31707893785928
 30
0.0
  0
VERTEX
  5
258
330
24B
100
AcDbEntity
  8
0
 62
     7
420
 16777215
370
    25
100
AcDbVertex
100
AcDb2dVertex
 10
55.71540349820253
 20
43.31707893785928
 30
0.0
  0
VERTEX
  5
259
330
24B
100
AcDbEntity
  8
0
 62
     7
420
 16777215
370
    25
100
AcDbVertex
100
AcDb2dVertex
 10
55.71540349820253
 20
42.87407893785925
 30
0.0
  0
VERTEX
  5
25A
330
24B
100
AcDbEntity
  8
0
 62
     7
420
 16777215
370
    25
100
AcDbVertex
100
AcDb2dVertex
 10
56.01540349820247
 20
42.87407893785925
 30
0.0
  0
VERTEX
  5
25B
330
24B
100
AcDbEntity
  8
0
 62
     7
420
 16777215
370
    25
100
AcDbVertex
100
AcDb2dVertex
 10
56.01540349820247
 20
42.4310789378593
 30
0.0
  0
VERTEX
  5
25C
330
24B
100
AcDbEntity
  8
0
 62
     7
420
 16777215
370
    25
100
AcDbVertex
100
AcDb2dVertex
 10
55.71540349820253
 20
42.4310789378593
 30
0.0
  0
VERTEX
  5
25D
330
24B
100
AcDbEntity
  8
0
 62
     7
420
 16777215
370
    25
100
AcDbVertex
100
AcDb2dVertex
 10
55.71540349820253
 20
41.98807893785933
 30
0.0
  0
VERTEX
  5
25E
330
24B
100
AcDbEntity
  8
0
 62
     7
420
 16777215
370
    25
100
AcDbVertex
100
AcDb2dVertex
 10
56.01540349820247
 20
41.98807893785933
 30
0.0
  0
VERTEX
  5
25F
330
24B
100
AcDbEntity
  8
0
 62
     7
420
 16777215
370
    25
100
AcDbVertex
100
AcDb2dVertex
 10
56.01540349820247
 20
41.54507893785931
 30
0.0
  0
VERTEX
  5
260
330
24B
100
AcDbEntity
  8
0
 62
     7
420
 16777215
370
    25
100
AcDbVertex
100
AcDb2dVertex
 10
55.71540349820253
 20
41.54507893785931
 30
0.0
  0
VERTEX
  5
261
330
24B
100
AcDbEntity
  8
0
 62
     7
420
 16777215
370
    25
100
AcDbVertex
100
AcDb2dVertex
 10
55.71540349820253
 20
41.10207893785928
 30
0.0
  0
VERTEX
  5
262
330
24B
100
AcDbEntity
  8
0
 62
     7
420
 16777215
370
    25
100
AcDbVertex
100
AcDb2dVertex
 10
56.01540349820247
 20
41.10207893785928
 30
0.0
  0
VERTEX
  5
263
330
24B
100
AcDbEntity
  8
0
 62
     7
420
 16777215
370
    25
100
AcDbVertex
100
AcDb2dVertex
 10
56.01540349820247
 20
20.65907893785932
 30
0.0
  0
VERTEX
  5
264
330
24B
100
AcDbEntity
  8
0
 62
     7
420
 16777215
370
    25
100
AcDbVertex
100
AcDb2dVertex
 10
49.91540349820252
 20
20.65907893785932
 30
0.0
  0
SEQEND
  5
265
330
24B
100
AcDbEntity
  8
0
 62
     7
420
 16777215
370
    25
  0
ENDBLK
  5
24A
330
247
100
AcDbEntity
  8
0
100
AcDbBlockEnd
  0
BLOCK
  5
268
330
266
100
AcDbEntity
  8
0
100
AcDbBlockBegin
  2
block 40
 70
     0
 10
0.0
 20
0.0
 30
0.0
  3
block 40
  1

  0
INSERT
  5
26B
330
266
100
AcDbEntity
  8
0
100
AcDbBlockReference
  2
block 41
 10
0.0
 20
0.0
 30
0.0
  0
INSERT
  5
276
330
266
100
AcDbEntity
  8
0
100
AcDbBlockReference
  2
block 42
 10
0.0
 20
0.0
 30
0.0
  0
INSERT
  5
281
330
266
100
AcDbEntity
  8
0
100
AcDbBlockReference
  2
block 43
 10
0.0
 20
0.0
 30
0.0
  0
INSERT
  5
28C
330
266
100
AcDbEntity
  8
0
100
AcDbBlockReference
  2
block 44
 10
0.0
 20
0.0
 30
0.0
  0
INSERT
  5
297
330
266
100
AcDbEntity
  8
0
100
AcDbBlockReference
  2
block 45
 10
0.0
 20
0.0
 30
0.0
  0
ENDBLK
  5
269
330
266
100
AcDbEntity
  8
0
100
AcDbBlockEnd
  0
BLOCK
  5
26C
330
26A
100
AcDbEntity
  8
0
100
AcDbBlockBegin
  2
block 41
 70
     0
 10
0.0
 20
0.0
 30
0.0
  3
block 41
  1

  0
POLYLINE
  5
26E
330
26A
100
AcDbEntity
  8
0
 62
     7
420
 16777215
370
    25
100
AcDb2dPolyline
 66
     1
 10
0.0
 20
0.0
 30
0.0
  0
VERTEX
  5
26F
330
26E
100
AcDbEntity
  8
0
 62
     7
420
 16777215
370
    25
100
AcDbVertex
100
AcDb2dVertex
 10
46.94907604267098
 20
32.49374560435754
 30
0.0
  0
VERTEX
  5
270
330
26E
100
AcDbEntity
  8
0
 62
     7
420
 16777215
370
    25
100
AcDbVertex
100
AcDb2dVertex
 10
47.24907604267093
 20
32.49374560434409
 30
0.0
  0
VERTEX
  5
271
330
26E
100
AcDbEntity
  8
0
 62
     7
420
 16777215
370
    25
100
AcDbVertex
100
AcDb2dVertex
 10
47.24907604263731
 20
31.7437456043441
 30
0.0
  0
VERTEX
  5
272
330
26E
100
AcDbEntity
  8
0
 62
     7
420
 16777215
370
    25
100
AcDbVertex
100
AcDb2dVertex
 10
46.94907604263723
 20
31.74374560435754
 30
0.0
  0
VERTEX
  5
273
330
26E
100
AcDbEntity
  8
0
 62
     7
420
 16777215
370
    25
100
AcDbVertex
100
AcDb2dVertex
 10
46.94907604267098
 20
32.49374560435754
 30
0.0
  0
SEQEND
  5
274
330
26E
100
AcDbEntity
  8
0
 62
     7
420
 16777215
370
    25
  0
ENDBLK
  5
26D
330
26A
100
AcDbEntity
  8
0
100
AcDbBlockEnd
  0
BLOCK
  5
277
330
275
100
AcDbEntity
  8
0
100
AcDbBlockBegin
  2
block 42
 70
     0
 10
0.0
 20
0.0
 30
0.0
  3
block 42
  1

  0
POLYLINE
  5
279
330
275
100
AcDbEntity
  8
0
 62
     7
420
 16777215
370
    25
100
AcDb2dPolyline
 66
     1
 10
0.0
 20
0.0
 30
0.0
  0
VERTEX
  5
27A
330
279
100
AcDbEntity
  8
0
 62
     7
420
 16777215
370
    25
100
AcDbVertex
100
AcDb2dVertex
 10
46.9490760429104
 20
37.82707893769093
 30
0.0
  0
VERTEX
  5
27B
330
279
100
AcDbEntity
  8
0
 62
     7
420
 16777215
370
    25
100
AcDbVertex
100
AcDb2dVertex
 10
47.24907604291041
 20
37.82707893767748
 30
0.0
  0
VERTEX
  5
27C
330
279
100
AcDbEntity
  8
0
 62
     7
420
 16777215
370
    25
100
AcDbVertex
100
AcDb2dVertex
 10
47.24907604287672
 20
37.07707893767749
 30
0.0
  0
VERTEX
  5
27D
330
279
100
AcDbEntity
  8
0
 62
     7
420
 16777215
370
    25
100
AcDbVertex
100
AcDb2dVertex
 10
46.94907604287671
 20
37.07707893769093
 30
0.0
  0
VERTEX
  5
27E
330
279
100
AcDbEntity
  8
0
 62
     7
420
 16777215
370
    25
100
AcDbVertex
100
AcDb2dVertex
 10
46.9490760429104
 20
37.82707893769093
 30
0.0
  0
SEQEND
  5
27F
330
279
100
AcDbEntity
  8
0
 62
     7
420
 16777215
370
    25
  0
ENDBLK
  5
278
330
275
100
AcDbEntity
  8
0
100
AcDbBlockEnd
  0
BLOCK
  5
282
330
280
100
AcDbEntity
  8
0
100
AcDbBlockBegin
  2
block 43
 70
     0
 10
0.0
 20
0.0
 30
0.0
  3
block 43
  1

  0
POLYLINE
  5
284
330
280
100
AcDbEntity
  8
0
 62
     7
420
 16777215
370
    25
100
AcDb2dPolyline
 66
     1
 10
0.0
 20
0.0
 30
0.0
  0
VERTEX
  5
285
330
284
100
AcDbEntity
  8
0
 62
     7
420
 16777215
370
    25
100
AcDbVertex
100
AcDb2dVertex
 10
46.9490760424315
 20
27.16041227102427
 30
0.0
  0
VERTEX
  5
286
330
284
100
AcDbEntity
  8
0
 62
     7
420
 16777215
370
    25
100
AcDbVertex
100
AcDb2dVertex
 10
47.24907604243151
 20
27.1604122710108
 30
0.0
  0
VERTEX
  5
287
330
284
100
AcDbEntity
  8
0
 62
     7
420
 16777215
370
    25
100
AcDbVertex
100
AcDb2dVertex
 10
47.24907604239782
 20
26.4104122710108
 30
0.0
  0
VERTEX
  5
288
330
284
100
AcDbEntity
  8
0
 62
     7
420
 16777215
370
    25
100
AcDbVertex
100
AcDb2dVertex
 10
46.94907604239781
 20
26.41041227102428
 30
0.0
  0
VERTEX
  5
289
330
284
100
AcDbEntity
  8
0
 62
     7
420
 16777215
370
    25
100
AcDbVertex
100
AcDb2dVertex
 10
46.9490760424315
 20
27.16041227102427
 30
0.0
  0
SEQEND
  5
28A
330
284
100
AcDbEntity
  8
0
 62
     7
420
 16777215
370
    25
  0
ENDBLK
  5
283
330
280
100
AcDbEntity
  8
0
100
AcDbBlockEnd
  0
BLOCK
  5
28D
330
28B
100
AcDbEntity
  8
0
100
AcDbBlockBegin
  2
block 44
 70
     0
 10
0.0
 20
0.0
 30
0.0
  3
block 44
  1

  0
POLYLINE
  5
28F
330
28B
100
AcDbEntity
  8
0
 62
     7
420
 16777215
370
    25
100
AcDb2dPolyline
 66
     1
 10
0.0
 20
0.0
 30
0.0
  0
VERTEX
  5
290
330
28F
100
AcDbEntity
  8
0
 62
     7
420
 16777215
370
    25
100
AcDbVertex
100
AcDb2dVertex
 10
46.94907604219202
 20
21.82707893769088
 30
0.0
  0
VERTEX
  5
291
330
28F
100
AcDbEntity
  8
0
 62
     7
420
 16777215
370
    25
100
AcDbVertex
100
AcDb2dVertex
 10
47.24907604219209
 20
21.82707893767741
 30
0.0
  0
VERTEX
  5
292
330
28F
100
AcDbEntity
  8
0
 62
     7
420
 16777215
370
    25
100
AcDbVertex
100
AcDb2dVertex
 10
47.24907604215834
 20
21.07707893767741
 30
0.0
  0
VERTEX
  5
293
330
28F
100
AcDbEntity
  8
0
 62
     7
420
 16777215
370
    25
100
AcDbVertex
100
AcDb2dVertex
 10
46.9490760421584
 20
21.07707893769089
 30
0.0
  0
VERTEX
  5
294
330
28F
100
AcDbEntity
  8
0
 62
     7
420
 16777215
370
    25
100
AcDbVertex
100
AcDb2dVertex
 10
46.94907604219202
 20
21.82707893769088
 30
0.0
  0
SEQEND
  5
295
330
28F
100
AcDbEntity
  8
0
 62
     7
420
 16777215
370
    25
  0
ENDBLK
  5
28E
330
28B
100
AcDbEntity
  8
0
100
AcDbBlockEnd
  0
BLOCK
  5
298
330
296
100
AcDbEntity
  8
0
100
AcDbBlockBegin
  2
block 45
 70
     0
 10
0.0
 20
0.0
 30
0.0
  3
block 45
  1

  0
POLYLINE
  5
29A
330
296
100
AcDbEntity
  8
0
 62
     7
420
 16777215
370
    25
100
AcDb2dPolyline
 66
     1
 10
0.0
 20
0.0
 30
0.0
  0
VERTEX
  5
29B
330
29A
100
AcDbEntity
  8
0
 62
     7
420
 16777215
370
    25
100
AcDbVertex
100
AcDb2dVertex
 10
49.29907601680767
 20
20.65907893758545
 30
0.0
  0
VERTEX
  5
29C
330
29A
100
AcDbEntity
  8
0
 62
     7
420
 16777215
370
    25
100
AcDbVertex
100
AcDb2dVertex
 10
49.29907601793597
 20
45.78907893758547
 30
0.0
  0
VERTEX
  5
29D
330
29A
100
AcDbEntity
  8
0
 62
     7
420
 16777215
370
    25
100
AcDbVertex
100
AcDb2dVertex
 10
43.19907601793592
 20
45.78907893785934
 30
0.0
  0
VERTEX
  5
29E
330
29A
100
AcDbEntity
  8
0
 62
     7
420
 16777215
370
    25
100
AcDbVertex
100
AcDb2dVertex
 10
43.19907601790447
 20
45.08907893785926
 30
0.0
  0
VERTEX
  5
29F
330
29A
100
AcDbEntity
  8
0
 62
     7
420
 16777215
370
    25
100
AcDbVertex
100
AcDb2dVertex
 10
43.49907601790442
 20
45.08907893784578
 30
0.0
  0
VERTEX
  5
2A0
330
29A
100
AcDbEntity
  8
0
 62
     7
420
 16777215
370
    25
100
AcDbVertex
100
AcDb2dVertex
 10
43.49907601788456
 20
44.64607893784581
 30
0.0
  0
VERTEX
  5
2A1
330
29A
100
AcDbEntity
  8
0
 62
     7
420
 16777215
370
    25
100
AcDbVertex
100
AcDb2dVertex
 10
43.19907601788461
 20
44.64607893785929
 30
0.0
  0
VERTEX
  5
2A2
330
29A
100
AcDbEntity
  8
0
 62
     7
420
 16777215
370
    25
100
AcDbVertex
100
AcDb2dVertex
 10
43.19907601786472
 20
44.20307893785933
 30
0.0
  0
VERTEX
  5
2A3
330
29A
100
AcDbEntity
  8
0
 62
     7
420
 16777215
370
    25
100
AcDbVertex
100
AcDb2dVertex
 10
43.49907601786467
 20
44.20307893784585
 30
0.0
  0
VERTEX
  5
2A4
330
29A
100
AcDbEntity
  8
0
 62
     7
420
 16777215
370
    25
100
AcDbVertex
100
AcDb2dVertex
 10
43.49907601784478
 20
43.76007893784583
 30
0.0
  0
VERTEX
  5
2A5
330
29A
100
AcDbEntity
  8
0
 62
     7
420
 16777215
370
    25
100
AcDbVertex
100
AcDb2dVertex
 10
43.19907601784483
 20
43.7600789378593
 30
0.0
  0
VERTEX
  5
2A6
330
29A
100
AcDbEntity
  8
0
 62
     7
420
 16777215
370
    25
100
AcDbVertex
100
AcDb2dVertex
 10
43.19907601782494
 20
43.31707893785928
 30
0.0
  0
VERTEX
  5
2A7
330
29A
100
AcDbEntity
  8
0
 62
     7
420
 16777215
370
    25
100
AcDbVertex
100
AcDb2dVertex
 10
43.49907601782488
 20
43.31707893784581
 30
0.0
  0
VERTEX
  5
2A8
330
29A
100
AcDbEntity
  8
0
 62
     7
420
 16777215
370
    25
100
AcDbVertex
100
AcDb2dVertex
 10
43.49907601780499
 20
42.87407893784578
 30
0.0
  0
VERTEX
  5
2A9
330
29A
100
AcDbEntity
  8
0
 62
     7
420
 16777215
370
    25
100
AcDbVertex
100
AcDb2dVertex
 10
43.19907601780505
 20
42.87407893785925
 30
0.0
  0
VERTEX
  5
2AA
330
29A
100
AcDbEntity
  8
0
 62
     7
420
 16777215
370
    25
100
AcDbVertex
100
AcDb2dVertex
 10
43.19907601778515
 20
42.4310789378593
 30
0.0
  0
VERTEX
  5
2AB
330
29A
100
AcDbEntity
  8
0
 62
     7
420
 16777215
370
    25
100
AcDbVertex
100
AcDb2dVertex
 10
43.4990760177851
 20
42.43107893784582
 30
0.0
  0
VERTEX
  5
2AC
330
29A
100
AcDbEntity
  8
0
 62
     7
420
 16777215
370
    25
100
AcDbVertex
100
AcDb2dVertex
 10
43.4990760177652
 20
41.98807893784586
 30
0.0
  0
VERTEX
  5
2AD
330
29A
100
AcDbEntity
  8
0
 62
     7
420
 16777215
370
    25
100
AcDbVertex
100
AcDb2dVertex
 10
43.19907601776526
 20
41.98807893785933
 30
0.0
  0
VERTEX
  5
2AE
330
29A
100
AcDbEntity
  8
0
 62
     7
420
 16777215
370
    25
100
AcDbVertex
100
AcDb2dVertex
 10
43.19907601774537
 20
41.54507893785931
 30
0.0
  0
VERTEX
  5
2AF
330
29A
100
AcDbEntity
  8
0
 62
     7
420
 16777215
370
    25
100
AcDbVertex
100
AcDb2dVertex
 10
43.49907601774531
 20
41.54507893784583
 30
0.0
  0
VERTEX
  5
2B0
330
29A
100
AcDbEntity
  8
0
 62
     7
420
 16777215
370
    25
100
AcDbVertex
100
AcDb2dVertex
 10
43.49907601772542
 20
41.10207893784581
 30
0.0
  0
VERTEX
  5
2B1
330
29A
100
AcDbEntity
  8
0
 62
     7
420
 16777215
370
    25
100
AcDbVertex
100
AcDb2dVertex
 10
43.19907601772547
 20
41.10207893785928
 30
0.0
  0
VERTEX
  5
2B2
330
29A
100
AcDbEntity
  8
0
 62
     7
420
 16777215
370
    25
100
AcDbVertex
100
AcDb2dVertex
 10
43.19907601680765
 20
20.65907893785932
 30
0.0
  0
VERTEX
  5
2B3
330
29A
100
AcDbEntity
  8
0
 62
     7
420
 16777215
370
    25
100
AcDbVertex
100
AcDb2dVertex
 10
49.29907601680767
 20
20.65907893758545
 30
0.0
  0
SEQEND
  5
2B4
330
29A
100
AcDbEntity
  8
0
 62
     7
420
 16777215
370
    25
  0
ENDBLK
  5
299
330
296
100
AcDbEntity
  8
0
100
AcDbBlockEnd
  0
BLOCK
  5
2B7
330
2B5
100
AcDbEntity
  8
0
100
AcDbBlockBegin
  2
block 46
 70
     0
 10
0.0
 20
0.0
 30
0.0
  3
block 46
  1

  0
INSERT
  5
2BA
330
2B5
100
AcDbEntity
  8
0
100
AcDbBlockReference
  2
block 47
 10
0.0
 20
0.0
 30
0.0
  0
INSERT
  5
2BF
330
2B5
100
AcDbEntity
  8
0
100
AcDbBlockReference
  2
block 48
 10
0.0
 20
0.0
 30
0.0
  0
ENDBLK
  5
2B8
330
2B5
100
AcDbEntity
  8
0
100
AcDbBlockEnd
  0
BLOCK
  5
2BB
330
2B9
100
AcDbEntity
  8
0
100
AcDbBlockBegin
  2
block 47
 70
     0
 10
0.0
 20
0.0
 30
0.0
  3
block 47
  1

  0
SPLINE
  5
2BD
330
2B9
100
AcDbEntity
  8
0
 62
     7
420
 16777215
370
    25
100
AcDbSpline
210
0.0
220
0.0
230
1.0
 70
    11
 71
     3
 72
    20
 73
    16
 74
     0
 42
0.0000000001
 43
0.0000000001
 12
1.0
 22
0.0
 32
0.0
 13
1.0
 23
0.0
 33
0.0
 40
0.0
 40
0.0
 40
0.0
 40
0.0
 40
1.0
 40
1.0
 40
1.0
 40
2.0
 40
2.0
 40
2.0
 40
3.0
 40
3.0
 40
3.0
 40
4.0
 40
4.0
 40
4.0
 40
5.0
 40
5.0
 40
5.0
 40
5.0
 10
58.94836255773723
 20
32.64236234865377
 30
0.0
 10
59.14166222017797
 20
32.64236234865377
 30
0.0
 10
59.29836255773721
 20
32.48566201109453
 30
0.0
 10
59.29836255773721
 20
32.29236234865379
 30
0.0
 10
59.29836255773721
 20
32.09906268621292
 30
0.0
 10
59.14166222017797
 20
31.94236234865381
 30
0.0
 10
58.94836255773723
 20
31.94236234865381
 30
0.0
 10
58.75506289529643
 20
31.94236234865381
 30
0.0
 10
58.59836255773725
 20
32.09906268621292
 30
0.0
 10
58.59836255773725
 20
32.29236234865379
 30
0.0
 10
58.59836255773725
 20
32.48566201109453
 30
0.0
 10
58.75506289529643
 20
32.64236234865377
 30
0.0
 10
58.94836255773723
 20
32.64236234865377
 30
0.0
 10
58.94836255773723
 20
32.64236234865377
 30
0.0
 10
58.94836255773723
 20
32.64236234865377
 30
0.0
 10
58.94836255773723
 20
32.64236234865377
 30
0.0
  0
ENDBLK
  5
2BC
330
2B9
100
AcDbEntity
  8
0
100
AcDbBlockEnd
  0
BLOCK
  5
2C0
330
2BE
100
AcDbEntity
  8
0
100
AcDbBlockBegin
  2
block 48
 70
     0
 10
0.0
 20
0.0
 30
0.0
  3
block 48
  1

  0
SPLINE
  5
2C2
330
2BE
100
AcDbEntity
  8
0
 62
     7
420
 16777215
370
    25
100
AcDbSpline
210
0.0
220
0.0
230
1.0
 70
    11
 71
     3
 72
    20
 73
    16
 74
     0
 42
0.0000000001
 43
0.0000000001
 12
1.0
 22
0.0
 32
0.0
 13
1.0
 23
0.0
 33
0.0
 40
0.0
 40
0.0
 40
0.0
 40
0.0
 40
1.0
 40
1.0
 40
1.0
 40
2.0
 40
2.0
 40
2.0
 40
3.0
 40
3.0
 40
3.0
 40
4.0
 40
4.0
 40
4.0
 40
5.0
 40
5.0
 40
5.0
 40
5.0
 10
58.94836255773723
 20
34.79236234865368
 30
0.0
 10
60.32907443231417
 20
34.79236234865368
 30
0.0
 10
61.44836255773725
 20
33.67307422323073
 30
0.0
 10
61.44836255773725
 20
32.29236234865379
 30
0.0
 10
61.44836255773725
 20
30.91165047407672
 30
0.0
 10
60.32907443231417
 20
29.79236234865373
 30
0.0
 10
58.94836255773723
 20
29.79236234865373
 30
0.0
 10
57.56765068316023
 20
29.79236234865373
 30
0.0
 10
56.44836255773721
 20
30.91165047407672
 30
0.0
 10
56.44836255773721
 20
32.29236234865379
 30
0.0
 10
56.44836255773721
 20
33.67307422323073
 30
0.0
 10
57.56765068316023
 20
34.79236234865368
 30
0.0
 10
58.94836255773723
 20
34.79236234865368
 30
0.0
 10
58.94836255773723
 20
34.79236234865368
 30
0.0
 10
58.94836255773723
 20
34.79236234865368
 30
0.0
 10
58.94836255773723
 20
34.79236234865368
 30
0.0
  0
ENDBLK
  5
2C1
330
2BE
100
AcDbEntity
  8
0
100
AcDbBlockEnd
  0
BLOCK
  5
2C5
330
2C3
100
AcDbEntity
  8
0
100
AcDbBlockBegin
  2
block 49
 70
     0
 10
0.0
 20
0.0
 30
0.0
  3
block 49
  1

  0
INSERT
  5
2C8
330
2C3
100
AcDbEntity
  8
0
100
AcDbBlockReference
  2
block 50
 10
0.0
 20
0.0
 30
0.0
  0
INSERT
  5
2CD
330
2C3
100
AcDbEntity
  8
0
100
AcDbBlockReference
  2
block 51
 10
0.0
 20
0.0
 30
0.0
  0
ENDBLK
  5
2C6
330
2C3
100
AcDbEntity
  8
0
100
AcDbBlockEnd
  0
BLOCK
  5
2C9
330
2C7
100
AcDbEntity
  8
0
100
AcDbBlockBegin
  2
block 50
 70
     0
 10
0.0
 20
0.0
 30
0.0
  3
block 50
  1

  0
SPLINE
  5
2CB
330
2C7
100
AcDbEntity
  8
0
 62
     7
420
 16777215
370
    25
100
AcDbSpline
210
0.0
220
0.0
230
1.0
 70
    11
 71
     3
 72
    20
 73
    16
 74
     0
 42
0.0000000001
 43
0.0000000001
 12
1.0
 22
0.0
 32
0.0
 13
1.0
 23
0.0
 33
0.0
 40
0.0
 40
0.0
 40
0.0
 40
0.0
 40
1.0
 40
1.0
 40
1.0
 40
2.0
 40
2.0
 40
2.0
 40
3.0
 40
3.0
 40
3.0
 40
4.0
 40
4.0
 40
4.0
 40
5.0
 40
5.0
 40
5.0
 40
5.0
 10
58.94836255773723
 20
37.92905397671127
 30
0.0
 10
59.14166222017797
 20
37.92905397671127
 30
0.0
 10
59.29836255773721
 20
37.77235363915203
 30
0.0
 10
59.29836255773721
 20
37.57905397671129
 30
0.0
 10
59.29836255773721
 20
37.38575431427042
 30
0.0
 10
59.14166222017797
 20
37.22905397671131
 30
0.0
 10
58.94836255773723
 20
37.22905397671131
 30
0.0
 10
58.75506289529643
 20
37.22905397671131
 30
0.0
 10
58.59836255773725
 20
37.38575431427042
 30
0.0
 10
58.59836255773725
 20
37.57905397671129
 30
0.0
 10
58.59836255773725
 20
37.77235363915203
 30
0.0
 10
58.75506289529643
 20
37.92905397671127
 30
0.0
 10
58.94836255773723
 20
37.92905397671127
 30
0.0
 10
58.94836255773723
 20
37.92905397671127
 30
0.0
 10
58.94836255773723
 20
37.92905397671127
 30
0.0
 10
58.94836255773723
 20
37.92905397671127
 30
0.0
  0
ENDBLK
  5
2CA
330
2C7
100
AcDbEntity
  8
0
100
AcDbBlockEnd
  0
BLOCK
  5
2CE
330
2CC
100
AcDbEntity
  8
0
100
AcDbBlockBegin
  2
block 51
 70
     0
 10
0.0
 20
0.0
 30
0.0
  3
block 51
  1

  0
SPLINE
  5
2D0
330
2CC
100
AcDbEntity
  8
0
 62
     7
420
 16777215
370
    25
100
AcDbSpline
210
0.0
220
0.0
230
1.0
 70
    11
 71
     3
 72
    20
 73
    16
 74
     0
 42
0.0000000001
 43
0.0000000001
 12
1.0
 22
0.0
 32
0.0
 13
1.0
 23
0.0
 33
0.0
 40
0.0
 40
0.0
 40
0.0
 40
0.0
 40
1.0
 40
1.0
 40
1.0
 40
2.0
 40
2.0
 40
2.0
 40
3.0
 40
3.0
 40
3.0
 40
4.0
 40
4.0
 40
4.0
 40
5.0
 40
5.0
 40
5.0
 40
5.0
 10
58.94836255773723
 20
40.07905397671125
 30
0.0
 10
60.32907443231417
 20
40.07905397671125
 30
0.0
 10
61.44836255773725
 20
38.95976585128822
 30
0.0
 10
61.44836255773725
 20
37.57905397671129
 30
0.0
 10
61.44836255773725
 20
36.19834210213422
 30
0.0
 10
60.32907443231417
 20
35.07905397671126
 30
0.0
 10
58.94836255773723
 20
35.07905397671126
 30
0.0
 10
57.56765068316023
 20
35.07905397671126
 30
0.0
 10
56.44836255773721
 20
36.19834210213422
 30
0.0
 10
56.44836255773721
 20
37.57905397671129
 30
0.0
 10
56.44836255773721
 20
38.95976585128822
 30
0.0
 10
57.56765068316023
 20
40.07905397671125
 30
0.0
 10
58.94836255773723
 20
40.07905397671125
 30
0.0
 10
58.94836255773723
 20
40.07905397671125
 30
0.0
 10
58.94836255773723
 20
40.07905397671125
 30
0.0
 10
58.94836255773723
 20
40.07905397671125
 30
0.0
  0
ENDBLK
  5
2CF
330
2CC
100
AcDbEntity
  8
0
100
AcDbBlockEnd
  0
BLOCK
  5
2D3
330
2D1
100
AcDbEntity
  8
0
100
AcDbBlockBegin
  2
block 52
 70
     0
 10
0.0
 20
0.0
 30
0.0
  3
block 52
  1

  0
INSERT
  5
2D6
330
2D1
100
AcDbEntity
  8
0
100
AcDbBlockReference
  2
block 53
 10
0.0
 20
0.0
 30
0.0
  0
INSERT
  5
2DB
330
2D1
100
AcDbEntity
  8
0
100
AcDbBlockReference
  2
block 54
 10
0.0
 20
0.0
 30
0.0
  0
ENDBLK
  5
2D4
330
2D1
100
AcDbEntity
  8
0
100
AcDbBlockEnd
  0
BLOCK
  5
2D7
330
2D5
100
AcDbEntity
  8
0
100
AcDbBlockBegin
  2
block 53
 70
     0
 10
0.0
 20
0.0
 30
0.0
  3
block 53
  1

  0
SPLINE
  5
2D9
330
2D5
100
AcDbEntity
  8
0
 62
     7
420
 16777215
370
    25
100
AcDbSpline
210
0.0
220
0.0
230
1.0
 70
    11
 71
     3
 72
    20
 73
    16
 74
     0
 42
0.0000000001
 43
0.0000000001
 12
1.0
 22
0.0
 32
0.0
 13
1.0
 23
0.0
 33
0.0
 40
0.0
 40
0.0
 40
0.0
 40
0.0
 40
1.0
 40
1.0
 40
1.0
 40
2.0
 40
2.0
 40
2.0
 40
3.0
 40
3.0
 40
3.0
 40
4.0
 40
4.0
 40
4.0
 40
5.0
 40
5.0
 40
5.0
 40
5.0
 10
58.94836255773723
 20
43.2157456047688
 30
0.0
 10
59.14166222017797
 20
43.2157456047688
 30
0.0
 10
59.29836255773721
 20
43.05904526720956
 30
0.0
 10
59.29836255773721
 20
42.86574560476882
 30
0.0
 10
59.29836255773721
 20
42.67244594232795
 30
0.0
 10
59.14166222017797
 20
42.51574560476884
 30
0.0
 10
58.94836255773723
 20
42.51574560476884
 30
0.0
 10
58.75506289529643
 20
42.51574560476884
 30
0.0
 10
58.59836255773725
 20
42.67244594232795
 30
0.0
 10
58.59836255773725
 20
42.86574560476882
 30
0.0
 10
58.59836255773725
 20
43.05904526720956
 30
0.0
 10
58.75506289529643
 20
43.2157456047688
 30
0.0
 10
58.94836255773723
 20
43.2157456047688
 30
0.0
 10
58.94836255773723
 20
43.2157456047688
 30
0.0
 10
58.94836255773723
 20
43.2157456047688
 30
0.0
 10
58.94836255773723
 20
43.2157456047688
 30
0.0
  0
ENDBLK
  5
2D8
330
2D5
100
AcDbEntity
  8
0
100
AcDbBlockEnd
  0
BLOCK
  5
2DC
330
2DA
100
AcDbEntity
  8
0
100
AcDbBlockBegin
  2
block 54
 70
     0
 10
0.0
 20
0.0
 30
0.0
  3
block 54
  1

  0
SPLINE
  5
2DE
330
2DA
100
AcDbEntity
  8
0
 62
     7
420
 16777215
370
    25
100
AcDbSpline
210
0.0
220
0.0
230
1.0
 70
    11
 71
     3
 72
    20
 73
    16
 74
     0
 42
0.0000000001
 43
0.0000000001
 12
1.0
 22
0.0
 32
0.0
 13
1.0
 23
0.0
 33
0.0
 40
0.0
 40
0.0
 40
0.0
 40
0.0
 40
1.0
 40
1.0
 40
1.0
 40
2.0
 40
2.0
 40
2.0
 40
3.0
 40
3.0
 40
3.0
 40
4.0
 40
4.0
 40
4.0
 40
5.0
 40
5.0
 40
5.0
 40
5.0
 10
58.94836255773723
 20
45.36574560476878
 30
0.0
 10
60.32907443231417
 20
45.36574560476878
 30
0.0
 10
61.44836255773725
 20
44.24645747934576
 30
0.0
 10
61.44836255773725
 20
42.86574560476882
 30
0.0
 10
61.44836255773725
 20
41.48503373019175
 30
0.0
 10
60.32907443231417
 20
40.3657456047688
 30
0.0
 10
58.94836255773723
 20
40.3657456047688
 30
0.0
 10
57.56765068316023
 20
40.3657456047688
 30
0.0
 10
56.44836255773721
 20
41.48503373019175
 30
0.0
 10
56.44836255773721
 20
42.86574560476882
 30
0.0
 10
56.44836255773721
 20
44.24645747934576
 30
0.0
 10
57.56765068316023
 20
45.36574560476878
 30
0.0
 10
58.94836255773723
 20
45.36574560476878
 30
0.0
 10
58.94836255773723
 20
45.36574560476878
 30
0.0
 10
58.94836255773723
 20
45.36574560476878
 30
0.0
 10
58.94836255773723
 20
45.36574560476878
 30
0.0
  0
ENDBLK
  5
2DD
330
2DA
100
AcDbEntity
  8
0
100
AcDbBlockEnd
  0
BLOCK
  5
2E1
330
2DF
100
AcDbEntity
  8
0
100
AcDbBlockBegin
  2
block 55
 70
     0
 10
0.0
 20
0.0
 30
0.0
  3
block 55
  1

  0
INSERT
  5
2E4
330
2DF
100
AcDbEntity
  8
0
100
AcDbBlockReference
  2
block 56
 10
0.0
 20
0.0
 30
0.0
  0
INSERT
  5
2EF
330
2DF
100
AcDbEntity
  8
0
100
AcDbBlockReference
  2
block 57
 10
0.0
 20
0.0
 30
0.0
  0
INSERT
  5
312
330
2DF
100
AcDbEntity
  8
0
100
AcDbBlockReference
  2
block 58
 10
0.0
 20
0.0
 30
0.0
  0
INSERT
  5
31D
330
2DF
100
AcDbEntity
  8
0
100
AcDbBlockReference
  2
block 59
 10
0.0
 20
0.0
 30
0.0
  0
INSERT
  5
328
330
2DF
100
AcDbEntity
  8
0
100
AcDbBlockReference
  2
block 60
 10
0.0
 20
0.0
 30
0.0
  0
INSERT
  5
333
330
2DF
100
AcDbEntity
  8
0
100
AcDbBlockReference
  2
block 61
 10
0.0
 20
0.0
 30
0.0
  0
ENDBLK
  5
2E2
330
2DF
100
AcDbEntity
  8
0
100
AcDbBlockEnd
  0
BLOCK
  5
2E5
330
2E3
100
AcDbEntity
  8
0
100
AcDbBlockBegin
  2
block 56
 70
     0
 10
0.0
 20
0.0
 30
0.0
  3
block 56
  1

  0
POLYLINE
  5
2E7
330
2E3
100
AcDbEntity
  8
0
 62
     7
420
 16777215
370
    25
100
AcDb2dPolyline
 66
     1
 10
0.0
 20
0.0
 30
0.0
  0
VERTEX
  5
2E8
330
2E7
100
AcDbEntity
  8
0
 62
     7
420
 16777215
370
    25
100
AcDbVertex
100
AcDb2dVertex
 10
49.04907604287672
 20
19.73083332836136
 30
0.0
  0
VERTEX
  5
2E9
330
2E7
100
AcDbEntity
  8
0
 62
     7
420
 16777215
370
    25
100
AcDbVertex
100
AcDb2dVertex
 10
48.4490760428767
 20
19.73083332836136
 30
0.0
  0
VERTEX
  5
2EA
330
2E7
100
AcDbEntity
  8
0
 62
     7
420
 16777215
370
    25
100
AcDbVertex
100
AcDb2dVertex
 10
48.4490760428767
 20
19.28783332836134
 30
0.0
  0
VERTEX
  5
2EB
330
2E7
100
AcDbEntity
  8
0
 62
     7
420
 16777215
370
    25
100
AcDbVertex
100
AcDb2dVertex
 10
49.04907604287672
 20
19.28783332836134
 30
0.0
  0
VERTEX
  5
2EC
330
2E7
100
AcDbEntity
  8
0
 62
     7
420
 16777215
370
    25
100
AcDbVertex
100
AcDb2dVertex
 10
49.04907604287672
 20
19.73083332836136
 30
0.0
  0
SEQEND
  5
2ED
330
2E7
100
AcDbEntity
  8
0
 62
     7
420
 16777215
370
    25
  0
ENDBLK
  5
2E6
330
2E3
100
AcDbEntity
  8
0
100
AcDbBlockEnd
  0
BLOCK
  5
2F0
330
2EE
100
AcDbEntity
  8
0
100
AcDbBlockBegin
  2
block 57
 70
     0
 10
0.0
 20
0.0
 30
0.0
  3
block 57
  1

  0
POLYLINE
  5
2F2
330
2EE
100
AcDbEntity
  8
0
 62
     7
420
 16777215
370
    25
100
AcDb2dPolyline
 66
     1
 10
0.0
 20
0.0
 30
0.0
  0
VERTEX
  5
2F3
330
2F2
100
AcDbEntity
  8
0
 62
     7
420
 16777215
370
    25
100
AcDbVertex
100
AcDb2dVertex
 10
46.94907604287671
 20
20.18783332836131
 30
0.0
  0
VERTEX
  5
2F4
330
2F2
100
AcDbEntity
  8
0
 62
     7
420
 16777215
370
    25
100
AcDbVertex
100
AcDb2dVertex
 10
50.54907604287671
 20
20.18783332836131
 30
0.0
  0
VERTEX
  5
2F5
330
2F2
100
AcDbEntity
  8
0
 62
     7
420
 16777215
370
    25
100
AcDbVertex
100
AcDb2dVertex
 10
50.54907604287671
 20
19.28783332836134
 30
0.0
  0
VERTEX
  5
2F6
330
2F2
100
AcDbEntity
  8
0
 62
     7
420
 16777215
370
    25
100
AcDbVertex
100
AcDb2dVertex
 10
50.84907604287672
 20
19.28783332836134
 30
0.0
  0
VERTEX
  5
2F7
330
2F2
100
AcDbEntity
  8
0
 62
     7
420
 16777215
370
    25
100
AcDbVertex
100
AcDb2dVertex
 10
50.84907604287672
 20
18.84483332836131
 30
0.0
  0
VERTEX
  5
2F8
330
2F2
100
AcDbEntity
  8
0
 62
     7
420
 16777215
370
    25
100
AcDbVertex
100
AcDb2dVertex
 10
50.54907604287671
 20
18.84483332836131
 30
0.0
  0
VERTEX
  5
2F9
330
2F2
100
AcDbEntity
  8
0
 62
     7
420
 16777215
370
    25
100
AcDbVertex
100
AcDb2dVertex
 10
50.54907604287671
 20
18.40183332836129
 30
0.0
  0
VERTEX
  5
2FA
330
2F2
100
AcDbEntity
  8
0
 62
     7
420
 16777215
370
    25
100
AcDbVertex
100
AcDb2dVertex
 10
50.84907604287672
 20
18.40183332836129
 30
0.0
  0
VERTEX
  5
2FB
330
2F2
100
AcDbEntity
  8
0
 62
     7
420
 16777215
370
    25
100
AcDbVertex
100
AcDb2dVertex
 10
50.84907604287672
 20
17.95883332836127
 30
0.0
  0
VERTEX
  5
2FC
330
2F2
100
AcDbEntity
  8
0
 62
     7
420
 16777215
370
    25
100
AcDbVertex
100
AcDb2dVertex
 10
50.54907604287671
 20
17.95883332836133
 30
0.0
  0
VERTEX
  5
2FD
330
2F2
100
AcDbEntity
  8
0
 62
     7
420
 16777215
370
    25
100
AcDbVertex
100
AcDb2dVertex
 10
50.54907604287671
 20
17.51583332836137
 30
0.0
  0
VERTEX
  5
2FE
330
2F2
100
AcDbEntity
  8
0
 62
     7
420
 16777215
370
    25
100
AcDbVertex
100
AcDb2dVertex
 10
50.84907604287672
 20
17.51583332836137
 30
0.0
  0
VERTEX
  5
2FF
330
2F2
100
AcDbEntity
  8
0
 62
     7
420
 16777215
370
    25
100
AcDbVertex
100
AcDb2dVertex
 10
50.84907604287672
 20
17.07283332836134
 30
0.0
  0
VERTEX
  5
300
330
2F2
100
AcDbEntity
  8
0
 62
     7
420
 16777215
370
    25
100
AcDbVertex
100
AcDb2dVertex
 10
50.54907604287671
 20
17.07283332836134
 30
0.0
  0
VERTEX
  5
301
330
2F2
100
AcDbEntity
  8
0
 62
     7
420
 16777215
370
    25
100
AcDbVertex
100
AcDb2dVertex
 10
50.54907604287671
 20
16.62983332836132
 30
0.0
  0
VERTEX
  5
302
330
2F2
100
AcDbEntity
  8
0
 62
     7
420
 16777215
370
    25
100
AcDbVertex
100
AcDb2dVertex
 10
50.84907604287672
 20
16.62983332836132
 30
0.0
  0
VERTEX
  5
303
330
2F2
100
AcDbEntity
  8
0
 62
     7
420
 16777215
370
    25
100
AcDbVertex
100
AcDb2dVertex
 10
50.84907604287672
 20
16.18683332836129
 30
0.0
  0
VERTEX
  5
304
330
2F2
100
AcDbEntity
  8
0
 62
     7
420
 16777215
370
    25
100
AcDbVertex
100
AcDb2dVertex
 10
50.54907604287671
 20
16.18683332836129
 30
0.0
  0
VERTEX
  5
305
330
2F2
100
AcDbEntity
  8
0
 62
     7
420
 16777215
370
    25
100
AcDbVertex
100
AcDb2dVertex
 10
50.54907604287671
 20
15.74383332836127
 30
0.0
  0
VERTEX
  5
306
330
2F2
100
AcDbEntity
  8
0
 62
     7
420
 16777215
370
    25
100
AcDbVertex
100
AcDb2dVertex
 10
50.84907604287672
 20
15.74383332836127
 30
0.0
  0
VERTEX
  5
307
330
2F2
100
AcDbEntity
  8
0
 62
     7
420
 16777215
370
    25
100
AcDbVertex
100
AcDb2dVertex
 10
50.84907604287672
 20
15.30083332836137
 30
0.0
  0
VERTEX
  5
308
330
2F2
100
AcDbEntity
  8
0
 62
     7
420
 16777215
370
    25
100
AcDbVertex
100
AcDb2dVertex
 10
50.54907604287671
 20
15.30083332836137
 30
0.0
  0
VERTEX
  5
309
330
2F2
100
AcDbEntity
  8
0
 62
     7
420
 16777215
370
    25
100
AcDbVertex
100
AcDb2dVertex
 10
50.54907604287671
 20
14.85783332836134
 30
0.0
  0
VERTEX
  5
30A
330
2F2
100
AcDbEntity
  8
0
 62
     7
420
 16777215
370
    25
100
AcDbVertex
100
AcDb2dVertex
 10
49.04907604287672
 20
14.85783332836134
 30
0.0
  0
VERTEX
  5
30B
330
2F2
100
AcDbEntity
  8
0
 62
     7
420
 16777215
370
    25
100
AcDbVertex
100
AcDb2dVertex
 10
49.04907604287672
 20
15.30083332836137
 30
0.0
  0
VERTEX
  5
30C
330
2F2
100
AcDbEntity
  8
0
 62
     7
420
 16777215
370
    25
100
AcDbVertex
100
AcDb2dVertex
 10
48.4490760428767
 20
15.30083332836137
 30
0.0
  0
VERTEX
  5
30D
330
2F2
100
AcDbEntity
  8
0
 62
     7
420
 16777215
370
    25
100
AcDbVertex
100
AcDb2dVertex
 10
48.4490760428767
 20
14.55783332836127
 30
0.0
  0
VERTEX
  5
30E
330
2F2
100
AcDbEntity
  8
0
 62
     7
420
 16777215
370
    25
100
AcDbVertex
100
AcDb2dVertex
 10
46.94907604287671
 20
14.55783332836127
 30
0.0
  0
VERTEX
  5
30F
330
2F2
100
AcDbEntity
  8
0
 62
     7
420
 16777215
370
    25
100
AcDbVertex
100
AcDb2dVertex
 10
46.94907604287671
 20
20.18783332836131
 30
0.0
  0
SEQEND
  5
310
330
2F2
100
AcDbEntity
  8
0
 62
     7
420
 16777215
370
    25
  0
ENDBLK
  5
2F1
330
2EE
100
AcDbEntity
  8
0
100
AcDbBlockEnd
  0
BLOCK
  5
313
330
311
100
AcDbEntity
  8
0
100
AcDbBlockBegin
  2
block 58
 70
     0
 10
0.0
 20
0.0
 30
0.0
  3
block 58
  1

  0
POLYLINE
  5
315
330
311
100
AcDbEntity
  8
0
 62
     7
420
 16777215
370
    25
100
AcDb2dPolyline
 66
     1
 10
0.0
 20
0.0
 30
0.0
  0
VERTEX
  5
316
330
315
100
AcDbEntity
  8
0
 62
     7
420
 16777215
370
    25
100
AcDbVertex
100
AcDb2dVertex
 10
48.4490760428767
 20
16.18683332836129
 30
0.0
  0
VERTEX
  5
317
330
315
100
AcDbEntity
  8
0
 62
     7
420
 16777215
370
    25
100
AcDbVertex
100
AcDb2dVertex
 10
48.4490760428767
 20
15.74383332836127
 30
0.0
  0
VERTEX
  5
318
330
315
100
AcDbEntity
  8
0
 62
     7
420
 16777215
370
    25
100
AcDbVertex
100
AcDb2dVertex
 10
49.04907604287672
 20
15.74383332836127
 30
0.0
  0
VERTEX
  5
319
330
315
100
AcDbEntity
  8
0
 62
     7
420
 16777215
370
    25
100
AcDbVertex
100
AcDb2dVertex
 10
49.04907604287672
 20
16.18683332836129
 30
0.0
  0
VERTEX
  5
31A
330
315
100
AcDbEntity
  8
0
 62
     7
420
 16777215
370
    25
100
AcDbVertex
100
AcDb2dVertex
 10
48.4490760428767
 20
16.18683332836129
 30
0.0
  0
SEQEND
  5
31B
330
315
100
AcDbEntity
  8
0
 62
     7
420
 16777215
370
    25
  0
ENDBLK
  5
314
330
311
100
AcDbEntity
  8
0
100
AcDbBlockEnd
  0
BLOCK
  5
31E
330
31C
100
AcDbEntity
  8
0
100
AcDbBlockBegin
  2
block 59
 70
     0
 10
0.0
 20
0.0
 30
0.0
  3
block 59
  1

  0
POLYLINE
  5
320
330
31C
100
AcDbEntity
  8
0
 62
     7
420
 16777215
370
    25
100
AcDb2dPolyline
 66
     1
 10
0.0
 20
0.0
 30
0.0
  0
VERTEX
  5
321
330
320
100
AcDbEntity
  8
0
 62
     7
420
 16777215
370
    25
100
AcDbVertex
100
AcDb2dVertex
 10
48.4490760428767
 20
17.07283332836134
 30
0.0
  0
VERTEX
  5
322
330
320
100
AcDbEntity
  8
0
 62
     7
420
 16777215
370
    25
100
AcDbVertex
100
AcDb2dVertex
 10
48.4490760428767
 20
16.62983332836132
 30
0.0
  0
VERTEX
  5
323
330
320
100
AcDbEntity
  8
0
 62
     7
420
 16777215
370
    25
100
AcDbVertex
100
AcDb2dVertex
 10
49.04907604287672
 20
16.62983332836132
 30
0.0
  0
VERTEX
  5
324
330
320
100
AcDbEntity
  8
0
 62
     7
420
 16777215
370
    25
100
AcDbVertex
100
AcDb2dVertex
 10
49.04907604287672
 20
17.07283332836134
 30
0.0
  0
VERTEX
  5
325
330
320
100
AcDbEntity
  8
0
 62
     7
420
 16777215
370
    25
100
AcDbVertex
100
AcDb2dVertex
 10
48.4490760428767
 20
17.07283332836134
 30
0.0
  0
SEQEND
  5
326
330
320
100
AcDbEntity
  8
0
 62
     7
420
 16777215
370
    25
  0
ENDBLK
  5
31F
330
31C
100
AcDbEntity
  8
0
100
AcDbBlockEnd
  0
BLOCK
  5
329
330
327
100
AcDbEntity
  8
0
100
AcDbBlockBegin
  2
block 60
 70
     0
 10
0.0
 20
0.0
 30
0.0
  3
block 60
  1

  0
POLYLINE
  5
32B
330
327
100
AcDbEntity
  8
0
 62
     7
420
 16777215
370
    25
100
AcDb2dPolyline
 66
     1
 10
0.0
 20
0.0
 30
0.0
  0
VERTEX
  5
32C
330
32B
100
AcDbEntity
  8
0
 62
     7
420
 16777215
370
    25
100
AcDbVertex
100
AcDb2dVertex
 10
48.4490760428767
 20
17.95883332836133
 30
0.0
  0
VERTEX
  5
32D
330
32B
100
AcDbEntity
  8
0
 62
     7
420
 16777215
370
    25
100
AcDbVertex
100
AcDb2dVertex
 10
48.4490760428767
 20
17.51583332836137
 30
0.0
  0
VERTEX
  5
32E
330
32B
100
AcDbEntity
  8
0
 62
     7
420
 16777215
370
    25
100
AcDbVertex
100
AcDb2dVertex
 10
49.04907604287672
 20
17.51583332836137
 30
0.0
  0
VERTEX
  5
32F
330
32B
100
AcDbEntity
  8
0
 62
     7
420
 16777215
370
    25
100
AcDbVertex
100
AcDb2dVertex
 10
49.04907604287672
 20
17.95883332836133
 30
0.0
  0
VERTEX
  5
330
330
32B
100
AcDbEntity
  8
0
 62
     7
420
 16777215
370
    25
100
AcDbVertex
100
AcDb2dVertex
 10
48.4490760428767
 20
17.95883332836133
 30
0.0
  0
SEQEND
  5
331
330
32B
100
AcDbEntity
  8
0
 62
     7
420
 16777215
370
    25
  0
ENDBLK
  5
32A
330
327
100
AcDbEntity
  8
0
100
AcDbBlockEnd
  0
BLOCK
  5
334
330
332
100
AcDbEntity
  8
0
100
AcDbBlockBegin
  2
block 61
 70
     0
 10
0.0
 20
0.0
 30
0.0
  3
block 61
  1

  0
POLYLINE
  5
336
330
332
100
AcDbEntity
  8
0
 62
     7
420
 16777215
370
    25
100
AcDb2dPolyline
 66
     1
 10
0.0
 20
0.0
 30
0.0
  0
VERTEX
  5
337
330
336
100
AcDbEntity
  8
0
 62
     7
420
 16777215
370
    25
100
AcDbVertex
100
AcDb2dVertex
 10
48.4490760428767
 20
18.84483332836131
 30
0.0
  0
VERTEX
  5
338
330
336
100
AcDbEntity
  8
0
 62
     7
420
 16777215
370
    25
100
AcDbVertex
100
AcDb2dVertex
 10
48.4490760428767
 20
18.40183332836129
 30
0.0
  0
VERTEX
  5
339
330
336
100
AcDbEntity
  8
0
 62
     7
420
 16777215
370
    25
100
AcDbVertex
100
AcDb2dVertex
 10
49.04907604287672
 20
18.40183332836129
 30
0.0
  0
VERTEX
  5
33A
330
336
100
AcDbEntity
  8
0
 62
     7
420
 16777215
370
    25
100
AcDbVertex
100
AcDb2dVertex
 10
49.04907604287672
 20
18.84483332836131
 30
0.0
  0
VERTEX
  5
33B
330
336
100
AcDbEntity
  8
0
 62
     7
420
 16777215
370
    25
100
AcDbVertex
100
AcDb2dVertex
 10
48.4490760428767
 20
18.84483332836131
 30
0.0
  0
SEQEND
  5
33C
330
336
100
AcDbEntity
  8
0
 62
     7
420
 16777215
370
    25
  0
ENDBLK
  5
335
330
332
100
AcDbEntity
  8
0
100
AcDbBlockEnd
  0
BLOCK
  5
33F
330
33D
100
AcDbEntity
  8
0
100
AcDbBlockBegin
  2
block 62
 70
     0
 10
0.0
 20
0.0
 30
0.0
  3
block 62
  1

  0
INSERT
  5
342
330
33D
100
AcDbEntity
  8
0
100
AcDbBlockReference
  2
block 63
 10
0.0
 20
0.0
 30
0.0
  0
INSERT
  5
34A
330
33D
100
AcDbEntity
  8
0
100
AcDbBlockReference
  2
block 64
 10
0.0
 20
0.0
 30
0.0
  0
INSERT
  5
34F
330
33D
100
AcDbEntity
  8
0
100
AcDbBlockReference
  2
block 65
 10
0.0
 20
0.0
 30
0.0
  0
INSERT
  5
354
330
33D
100
AcDbEntity
  8
0
100
AcDbBlockReference
  2
block 66
 10
0.0
 20
0.0
 30
0.0
  0
INSERT
  5
35C
330
33D
100
AcDbEntity
  8
0
100
AcDbBlockReference
  2
block 67
 10
0.0
 20
0.0
 30
0.0
  0
INSERT
  5
364
330
33D
100
AcDbEntity
  8
0
100
AcDbBlockReference
  2
block 68
 10
0.0
 20
0.0
 30
0.0
  0
INSERT
  5
36C
330
33D
100
AcDbEntity
  8
0
100
AcDbBlockReference
  2
block 69
 10
0.0
 20
0.0
 30
0.0
  0
INSERT
  5
374
330
33D
100
AcDbEntity
  8
0
100
AcDbBlockReference
  2
block 70
 10
0.0
 20
0.0
 30
0.0
  0
INSERT
  5
37C
330
33D
100
AcDbEntity
  8
0
100
AcDbBlockReference
  2
block 71
 10
0.0
 20
0.0
 30
0.0
  0
INSERT
  5
384
330
33D
100
AcDbEntity
  8
0
100
AcDbBlockReference
  2
block 72
 10
0.0
 20
0.0
 30
0.0
  0
INSERT
  5
38C
330
33D
100
AcDbEntity
  8
0
100
AcDbBlockReference
  2
block 73
 10
0.0
 20
0.0
 30
0.0
  0
ENDBLK
  5
340
330
33D
100
AcDbEntity
  8
0
100
AcDbBlockEnd
  0
BLOCK
  5
343
330
341
100
AcDbEntity
  8
0
100
AcDbBlockBegin
  2
block 63
 70
     0
 10
0.0
 20
0.0
 30
0.0
  3
block 63
  1

  0
POLYLINE
  5
345
330
341
100
AcDbEntity
  8
0
 62
     7
420
 16777215
370
    25
100
AcDb2dPolyline
 66
     1
 10
0.0
 20
0.0
 30
0.0
  0
VERTEX
  5
346
330
345
100
AcDbEntity
  8
0
 62
     7
420
 16777215
370
    25
100
AcDbVertex
100
AcDb2dVertex
 10
31.29596805554614
 20
23.01755273196004
 30
0.0
  0
VERTEX
  5
347
330
345
100
AcDbEntity
  8
0
 62
     7
420
 16777215
370
    25
100
AcDbVertex
100
AcDb2dVertex
 10
31.2959680554519
 20
20.91901810397325
 30
0.0
  0
SEQEND
  5
348
330
345
100
AcDbEntity
  8
0
 62
     7
420
 16777215
370
    25
  0
ENDBLK
  5
344
330
341
100
AcDbEntity
  8
0
100
AcDbBlockEnd
  0
BLOCK
  5
34B
330
349
100
AcDbEntity
  8
0
100
AcDbBlockBegin
  2
block 64
 70
     0
 10
0.0
 20
0.0
 30
0.0
  3
block 64
  1

  0
SPLINE
  5
34D
330
349
100
AcDbEntity
  8
0
 62
     7
420
 16777215
370
    25
100
AcDbSpline
210
0.0
220
0.0
230
1.0
 70
     8
 71
     3
 72
     8
 73
     4
 74
     0
 42
0.0000000001
 43
0.0000000001
 12
1.0
 22
0.0
 32
0.0
 13
1.0
 23
0.0
 33
0.0
 40
0.0
 40
0.0
 40
0.0
 40
0.0
 40
1.0
 40
1.0
 40
1.0
 40
1.0
 10
31.2959680554519
 20
20.91901810397325
 30
0.0
 10
31.29596805544751
 20
20.82075305660907
 30
0.0
 10
31.22458301860287
 20
20.73704499941146
 30
0.0
 10
31.12755092078908
 20
20.72152754062017
 30
0.0
  0
ENDBLK
  5
34C
330
349
100
AcDbEntity
  8
0
100
AcDbBlockEnd
  0
BLOCK
  5
350
330
34E
100
AcDbEntity
  8
0
100
AcDbBlockBegin
  2
block 65
 70
     0
 10
0.0
 20
0.0
 30
0.0
  3
block 65
  1

  0
SPLINE
  5
352
330
34E
100
AcDbEntity
  8
0
 62
     7
420
 16777215
370
    25
100
AcDbSpline
210
0.0
220
0.0
230
1.0
 70
     8
 71
     3
 72
     8
 73
     4
 74
     0
 42
0.0000000001
 43
0.0000000001
 12
1.0
 22
0.0
 32
0.0
 13
1.0
 23
0.0
 33
0.0
 40
0.0
 40
0.0
 40
0.0
 40
0.0
 40
1.0
 40
1.0
 40
1.0
 40
1.0
 10
28.30930138871778
 20
19.41755273209416
 30
0.0
 10
28.30930138874163
 20
19.94819841849444
 30
0.0
 10
29.37490733703103
 20
20.44124323108907
 30
0.0
 10
31.12755092078908
 20
20.72152754062011
 30
0.0
  0
ENDBLK
  5
351
330
34E
100
AcDbEntity
  8
0
100
AcDbBlockEnd
  0
BLOCK
  5
355
330
353
100
AcDbEntity
  8
0
100
AcDbBlockBegin
  2
block 66
 70
     0
 10
0.0
 20
0.0
 30
0.0
  3
block 66
  1

  0
POLYLINE
  5
357
330
353
100
AcDbEntity
  8
0
 62
     7
420
 16777215
370
    25
100
AcDb2dPolyline
 66
     1
 10
0.0
 20
0.0
 30
0.0
  0
VERTEX
  5
358
330
357
100
AcDbEntity
  8
0
 62
     7
420
 16777215
370
    25
100
AcDbVertex
100
AcDb2dVertex
 10
28.30930138871778
 20
19.41755273209416
 30
0.0
  0
VERTEX
  5
359
330
357
100
AcDbEntity
  8
0
 62
     7
420
 16777215
370
    25
100
AcDbVertex
100
AcDb2dVertex
 10
27.88263472205117
 20
19.41755273211328
 30
0.0
  0
SEQEND
  5
35A
330
357
100
AcDbEntity
  8
0
 62
     7
420
 16777215
370
    25
  0
ENDBLK
  5
356
330
353
100
AcDbEntity
  8
0
100
AcDbBlockEnd
  0
BLOCK
  5
35D
330
35B
100
AcDbEntity
  8
0
100
AcDbBlockBegin
  2
block 67
 70
     0
 10
0.0
 20
0.0
 30
0.0
  3
block 67
  1

  0
POLYLINE
  5
35F
330
35B
100
AcDbEntity
  8
0
 62
     7
420
 16777215
370
    25
100
AcDb2dPolyline
 66
     1
 10
0.0
 20
0.0
 30
0.0
  0
VERTEX
  5
360
330
35F
100
AcDbEntity
  8
0
 62
     7
420
 16777215
370
    25
100
AcDbVertex
100
AcDb2dVertex
 10
27.88263472205117
 20
19.41755273211328
 30
0.0
  0
VERTEX
  5
361
330
35F
100
AcDbEntity
  8
0
 62
     7
420
 16777215
370
    25
100
AcDbVertex
100
AcDb2dVertex
 10
27.88263472211851
 20
20.91755273211327
 30
0.0
  0
SEQEND
  5
362
330
35F
100
AcDbEntity
  8
0
 62
     7
420
 16777215
370
    25
  0
ENDBLK
  5
35E
330
35B
100
AcDbEntity
  8
0
100
AcDbBlockEnd
  0
BLOCK
  5
365
330
363
100
AcDbEntity
  8
0
100
AcDbBlockBegin
  2
block 68
 70
     0
 10
0.0
 20
0.0
 30
0.0
  3
block 68
  1

  0
POLYLINE
  5
367
330
363
100
AcDbEntity
  8
0
 62
     7
420
 16777215
370
    25
100
AcDb2dPolyline
 66
     1
 10
0.0
 20
0.0
 30
0.0
  0
VERTEX
  5
368
330
367
100
AcDbEntity
  8
0
 62
     7
420
 16777215
370
    25
100
AcDbVertex
100
AcDb2dVertex
 10
27.88263472211851
 20
20.91755273211327
 30
0.0
  0
VERTEX
  5
369
330
367
100
AcDbEntity
  8
0
 62
     7
420
 16777215
370
    25
100
AcDbVertex
100
AcDb2dVertex
 10
28.73596805545181
 20
20.91755273207496
 30
0.0
  0
SEQEND
  5
36A
330
367
100
AcDbEntity
  8
0
 62
     7
420
 16777215
370
    25
  0
ENDBLK
  5
366
330
363
100
AcDbEntity
  8
0
100
AcDbBlockEnd
  0
BLOCK
  5
36D
330
36B
100
AcDbEntity
  8
0
100
AcDbBlockBegin
  2
block 69
 70
     0
 10
0.0
 20
0.0
 30
0.0
  3
block 69
  1

  0
POLYLINE
  5
36F
330
36B
100
AcDbEntity
  8
0
 62
     7
420
 16777215
370
    25
100
AcDb2dPolyline
 66
     1
 10
0.0
 20
0.0
 30
0.0
  0
VERTEX
  5
370
330
36F
100
AcDbEntity
  8
0
 62
     7
420
 16777215
370
    25
100
AcDbVertex
100
AcDb2dVertex
 10
28.73596805545181
 20
20.91755273207496
 30
0.0
  0
VERTEX
  5
371
330
36F
100
AcDbEntity
  8
0
 62
     7
420
 16777215
370
    25
100
AcDbVertex
100
AcDb2dVertex
 10
28.73596805547876
 20
21.51755273207499
 30
0.0
  0
SEQEND
  5
372
330
36F
100
AcDbEntity
  8
0
 62
     7
420
 16777215
370
    25
  0
ENDBLK
  5
36E
330
36B
100
AcDbEntity
  8
0
100
AcDbBlockEnd
  0
BLOCK
  5
375
330
373
100
AcDbEntity
  8
0
100
AcDbBlockBegin
  2
block 70
 70
     0
 10
0.0
 20
0.0
 30
0.0
  3
block 70
  1

  0
POLYLINE
  5
377
330
373
100
AcDbEntity
  8
0
 62
     7
420
 16777215
370
    25
100
AcDb2dPolyline
 66
     1
 10
0.0
 20
0.0
 30
0.0
  0
VERTEX
  5
378
330
377
100
AcDbEntity
  8
0
 62
     7
420
 16777215
370
    25
100
AcDbVertex
100
AcDb2dVertex
 10
28.73596805547876
 20
21.51755273207499
 30
0.0
  0
VERTEX
  5
379
330
377
100
AcDbEntity
  8
0
 62
     7
420
 16777215
370
    25
100
AcDbVertex
100
AcDb2dVertex
 10
28.18266805547871
 20
21.51755273209982
 30
0.0
  0
SEQEND
  5
37A
330
377
100
AcDbEntity
  8
0
 62
     7
420
 16777215
370
    25
  0
ENDBLK
  5
376
330
373
100
AcDbEntity
  8
0
100
AcDbBlockEnd
  0
BLOCK
  5
37D
330
37B
100
AcDbEntity
  8
0
100
AcDbBlockBegin
  2
block 71
 70
     0
 10
0.0
 20
0.0
 30
0.0
  3
block 71
  1

  0
POLYLINE
  5
37F
330
37B
100
AcDbEntity
  8
0
 62
     7
420
 16777215
370
    25
100
AcDb2dPolyline
 66
     1
 10
0.0
 20
0.0
 30
0.0
  0
VERTEX
  5
380
330
37F
100
AcDbEntity
  8
0
 62
     7
420
 16777215
370
    25
100
AcDbVertex
100
AcDb2dVertex
 10
28.18266805547871
 20
21.51755273209982
 30
0.0
  0
VERTEX
  5
381
330
37F
100
AcDbEntity
  8
0
 62
     7
420
 16777215
370
    25
100
AcDbVertex
100
AcDb2dVertex
 10
28.18266805554606
 20
23.01755273209981
 30
0.0
  0
SEQEND
  5
382
330
37F
100
AcDbEntity
  8
0
 62
     7
420
 16777215
370
    25
  0
ENDBLK
  5
37E
330
37B
100
AcDbEntity
  8
0
100
AcDbBlockEnd
  0
BLOCK
  5
385
330
383
100
AcDbEntity
  8
0
100
AcDbBlockBegin
  2
block 72
 70
     0
 10
0.0
 20
0.0
 30
0.0
  3
block 72
  1

  0
POLYLINE
  5
387
330
383
100
AcDbEntity
  8
0
 62
     7
420
 16777215
370
    25
100
AcDb2dPolyline
 66
     1
 10
0.0
 20
0.0
 30
0.0
  0
VERTEX
  5
388
330
387
100
AcDbEntity
  8
0
 62
     7
420
 16777215
370
    25
100
AcDbVertex
100
AcDb2dVertex
 10
28.18266805554606
 20
23.01755273209981
 30
0.0
  0
VERTEX
  5
389
330
387
100
AcDbEntity
  8
0
 62
     7
420
 16777215
370
    25
100
AcDbVertex
100
AcDb2dVertex
 10
31.29596805554614
 20
23.01755273196004
 30
0.0
  0
SEQEND
  5
38A
330
387
100
AcDbEntity
  8
0
 62
     7
420
 16777215
370
    25
  0
ENDBLK
  5
386
330
383
100
AcDbEntity
  8
0
100
AcDbBlockEnd
  0
BLOCK
  5
38D
330
38B
100
AcDbEntity
  8
0
100
AcDbBlockBegin
  2
block 73
 70
     0
 10
0.0
 20
0.0
 30
0.0
  3
block 73
  1

  0
POLYLINE
  5
38F
330
38B
100
AcDbEntity
  8
0
 62
     7
420
 16777215
370
    25
100
AcDb2dPolyline
 66
     1
 10
0.0
 20
0.0
 30
0.0
  0
VERTEX
  5
390
330
38F
100
AcDbEntity
  8
0
 62
     7
420
 16777215
370
    25
100
AcDbVertex
100
AcDb2dVertex
 10
29.58930138881206
 20
21.51755273203667
 30
0.0
  0
VERTEX
  5
391
330
38F
100
AcDbEntity
  8
0
 62
     7
420
 16777215
370
    25
100
AcDbVertex
100
AcDb2dVertex
 10
30.44263472214543
 20
21.51755273199836
 30
0.0
  0
VERTEX
  5
392
330
38F
100
AcDbEntity
  8
0
 62
     7
420
 16777215
370
    25
100
AcDbVertex
100
AcDb2dVertex
 10
30.44263472211848
 20
20.91755273199835
 30
0.0
  0
VERTEX
  5
393
330
38F
100
AcDbEntity
  8
0
 62
     7
420
 16777215
370
    25
100
AcDbVertex
100
AcDb2dVertex
 10
29.58930138878511
 20
20.91755273203665
 30
0.0
  0
VERTEX
  5
394
330
38F
100
AcDbEntity
  8
0
 62
     7
420
 16777215
370
    25
100
AcDbVertex
100
AcDb2dVertex
 10
29.58930138881206
 20
21.51755273203667
 30
0.0
  0
SEQEND
  5
395
330
38F
100
AcDbEntity
  8
0
 62
     7
420
 16777215
370
    25
  0
ENDBLK
  5
38E
330
38B
100
AcDbEntity
  8
0
100
AcDbBlockEnd
  0
BLOCK
  5
398
330
396
100
AcDbEntity
  8
0
100
AcDbBlockBegin
  2
block 74
 70
     0
 10
0.0
 20
0.0
 30
0.0
  3
block 74
  1

  0
INSERT
  5
39B
330
396
100
AcDbEntity
  8
0
100
AcDbBlockReference
  2
block 75
 10
0.0
 20
0.0
 30
0.0
  0
ENDBLK
  5
399
330
396
100
AcDbEntity
  8
0
100
AcDbBlockEnd
  0
BLOCK
  5
39C
330
39A
100
AcDbEntity
  8
0
100
AcDbBlockBegin
  2
block 75
 70
     0
 10
0.0
 20
0.0
 30
0.0
  3
block 75
  1

  0
POLYLINE
  5
39E
330
39A
100
AcDbEntity
  8
0
 62
     7
420
 16777215
370
    25
100
AcDb2dPolyline
 66
     1
 10
0.0
 20
0.0
 30
0.0
  0
VERTEX
  5
39F
330
39E
100
AcDbEntity
  8
0
 62
     7
420
 16777215
370
    25
100
AcDbVertex
100
AcDb2dVertex
 10
56.48056324188533
 20
20.67509783850761
 30
0.0
  0
VERTEX
  5
3A0
330
39E
100
AcDbEntity
  8
0
 62
     7
420
 16777215
370
    25
100
AcDbVertex
100
AcDb2dVertex
 10
56.48056324188533
 20
23.67509783850746
 30
0.0
  0
VERTEX
  5
3A1
330
39E
100
AcDbEntity
  8
0
 62
     7
420
 16777215
370
    25
100
AcDbVertex
100
AcDb2dVertex
 10
57.48056324188537
 20
23.67509783850746
 30
0.0
  0
VERTEX
  5
3A2
330
39E
100
AcDbEntity
  8
0
 62
     7
420
 16777215
370
    25
100
AcDbVertex
100
AcDb2dVertex
 10
57.48056324188537
 20
20.67509783850761
 30
0.0
  0
VERTEX
  5
3A3
330
39E
100
AcDbEntity
  8
0
 62
     7
420
 16777215
370
    25
100
AcDbVertex
100
AcDb2dVertex
 10
56.48056324188533
 20
20.67509783850761
 30
0.0
  0
SEQEND
  5
3A4
330
39E
100
AcDbEntity
  8
0
 62
     7
420
 16777215
370
    25
  0
ENDBLK
  5
39D
330
39A
100
AcDbEntity
  8
0
100
AcDbBlockEnd
  0
BLOCK
  5
3A7
330
3A5
100
AcDbEntity
  8
0
100
AcDbBlockBegin
  2
block 76
 70
     0
 10
0.0
 20
0.0
 30
0.0
  3
block 76
  1

  0
INSERT
  5
3AA
330
3A5
100
AcDbEntity
  8
0
100
AcDbBlockReference
  2
block 77
 10
0.0
 20
0.0
 30
0.0
  0
ENDBLK
  5
3A8
330
3A5
100
AcDbEntity
  8
0
100
AcDbBlockEnd
  0
BLOCK
  5
3AB
330
3A9
100
AcDbEntity
  8
0
100
AcDbBlockBegin
  2
block 77
 70
     0
 10
0.0
 20
0.0
 30
0.0
  3
block 77
  1

  0
SPLINE
  5
3AD
330
3A9
100
AcDbEntity
  8
0
 62
     7
420
 16777215
370
    25
100
AcDbSpline
210
0.0
220
0.0
230
1.0
 70
    11
 71
     3
 72
   125
 73
   121
 74
     0
 42
0.0000000001
 43
0.0000000001
 12
1.0
 22
0.0
 32
0.0
 13
1.0
 23
0.0
 33
0.0
 40
0.0
 40
0.0
 40
0.0
 40
0.0
 40
1.0
 40
1.0
 40
1.0
 40
2.0
 40
2.0
 40
2.0
 40
3.0
 40
3.0
 40
3.0
 40
4.0
 40
4.0
 40
4.0
 40
5.0
 40
5.0
 40
5.0
 40
6.0
 40
6.0
 40
6.0
 40
7.0
 40
7.0
 40
7.0
 40
8.0
 40
8.0
 40
8.0
 40
9.0
 40
9.0
 40
9.0
 40
10.0
 40
10.0
 40
10.0
 40
11.0
 40
11.0
 40
11.0
 40
12.0
 40
12.0
 40
12.0
 40
13.0
 40
13.0
 40
13.0
 40
14.0
 40
14.0
 40
14.0
 40
15.0
 40
15.0
 40
15.0
 40
16.0
 40
16.0
 40
16.0
 40
17.0
 40
17.0
 40
17.0
 40
18.0
 40
18.0
 40
18.0
 40
19.0
 40
19.0
 40
19.0
 40
20.0
 40
20.0
 40
20.0
 40
21.0
 40
21.0
 40
21.0
 40
22.0
 40
22.0
 40
22.0
 40
23.0
 40
23.0
 40
23.0
 40
24.0
 40
24.0
 40
24.0
 40
25.0
 40
25.0
 40
25.0
 40
26.0
 40
26.0
 40
26.0
 40
27.0
 40
27.0
 40
27.0
 40
28.0
 40
28.0
 40
28.0
 40
29.0
 40
29.0
 40
29.0
 40
30.0
 40
30.0
 40
30.0
 40
31.0
 40
31.0
 40
31.0
 40
32.0
 40
32.0
 40
32.0
 40
33.0
 40
33.0
 40
33.0
 40
34.0
 40
34.0
 40
34.0
 40
35.0
 40
35.0
 40
35.0
 40
36.0
 40
36.0
 40
36.0
 40
37.0
 40
37.0
 40
37.0
 40
38.0
 40
38.0
 40
38.0
 40
39.0
 40
39.0
 40
39.0
 40
40.0
 40
40.0
 40
40.0
 40
40.0
 10
62.17920349531197
 20
22.82707943785925
 30
0.0
 10
62.17920349531197
 20
22.82707943785925
 30
0.0
 10
62.17920349531197
 20
20.82707843785921
 30
0.0
 10
62.17920349531197
 20
20.82707843785921
 30
0.0
 10
62.17920349531197
 20
20.55093633908627
 30
0.0
 10
61.95534609408504
 20
20.32707893785927
 30
0.0
 10
61.67920399531197
 20
20.32707893785927
 30
0.0
 10
61.67920399531197
 20
20.32707893785927
 30
0.0
 10
61.679202995312
 20
20.32707893785927
 30
0.0
 10
61.679202995312
 20
20.32707893785927
 30
0.0
 10
61.40306089653899
 20
20.32707893785927
 30
0.0
 10
61.17920349531206
 20
20.10322153663228
 30
0.0
 10
61.17920349531206
 20
19.82707943785934
 30
0.0
 10
61.17920349531206
 20
19.82707943785934
 30
0.0
 10
61.17920349531206
 20
18.32707843785918
 30
0.0
 10
61.17920349531206
 20
18.32707843785918
 30
0.0
 10
61.17920349531206
 20
18.05093633908625
 30
0.0
 10
61.40306089653899
 20
17.82707893785932
 30
0.0
 10
61.679202995312
 20
17.82707893785932
 30
0.0
 10
61.679202995312
 20
17.82707893785932
 30
0.0
 10
61.67920399531197
 20
17.82707893785932
 30
0.0
 10
61.67920399531197
 20
17.82707893785932
 30
0.0
 10
61.95534609408504
 20
17.82707893785932
 30
0.0
 10
62.17920349531197
 20
17.60322153663225
 30
0.0
 10
62.17920349531197
 20
17.32707943785932
 30
0.0
 10
62.17920349531197
 20
17.32707943785932
 30
0.0
 10
62.17920349531197
 20
16.32707843785924
 30
0.0
 10
62.17920349531197
 20
16.32707843785924
 30
0.0
 10
62.17920349531197
 20
16.05093633908617
 30
0.0
 10
61.95534609408504
 20
15.82707893785924
 30
0.0
 10
61.67920399531197
 20
15.82707893785924
 30
0.0
 10
61.67920399531197
 20
15.82707893785924
 30
0.0
 10
59.67920299531199
 20
15.82707893785924
 30
0.0
 10
59.67920299531199
 20
15.82707893785924
 30
0.0
 10
59.40306089653899
 20
15.82707893785924
 30
0.0
 10
59.17920349531199
 20
16.05093633908617
 30
0.0
 10
59.17920349531199
 20
16.32707843785924
 30
0.0
 10
59.17920349531199
 20
16.32707843785924
 30
0.0
 10
59.17920349531199
 20
17.32707943785932
 30
0.0
 10
59.17920349531199
 20
17.32707943785932
 30
0.0
 10
59.17920349531199
 20
17.60322153663225
 30
0.0
 10
59.40306089653899
 20
17.82707893785932
 30
0.0
 10
59.67920299531199
 20
17.82707893785932
 30
0.0
 10
59.67920299531199
 20
17.82707893785932
 30
0.0
 10
59.67920399531203
 20
17.82707893785932
 30
0.0
 10
59.67920399531203
 20
17.82707893785932
 30
0.0
 10
59.95534609408503
 20
17.82707893785932
 30
0.0
 10
60.17920349531202
 20
18.05093633908625
 30
0.0
 10
60.17920349531202
 20
18.32707843785931
 30
0.0
 10
60.17920349531202
 20
18.32707843785931
 30
0.0
 10
60.17920349531202
 20
19.82707943785934
 30
0.0
 10
60.17920349531202
 20
19.82707943785934
 30
0.0
 10
60.17920349531202
 20
20.10322153663228
 30
0.0
 10
59.95534609408503
 20
20.32707893785927
 30
0.0
 10
59.67920399531203
 20
20.32707893785927
 30
0.0
 10
59.67920399531203
 20
20.32707893785927
 30
0.0
 10
59.67920299531199
 20
20.32707893785927
 30
0.0
 10
59.67920299531199
 20
20.32707893785927
 30
0.0
 10
59.40306089653899
 20
20.32707893785927
 30
0.0
 10
59.17920349531199
 20
20.55093633908627
 30
0.0
 10
59.17920349531199
 20
20.82707843785921
 30
0.0
 10
59.17920349531199
 20
20.82707843785921
 30
0.0
 10
59.17920349531199
 20
22.82707943785925
 30
0.0
 10
59.17920349531199
 20
22.82707943785925
 30
0.0
 10
59.17920349531199
 20
23.10322153663225
 30
0.0
 10
59.40306089653899
 20
23.32707893785925
 30
0.0
 10
59.67920299531199
 20
23.32707893785925
 30
0.0
 10
59.67920299531199
 20
23.32707893785925
 30
0.0
 10
59.67920399531203
 20
23.32707893785925
 30
0.0
 10
59.67920399531203
 20
23.32707893785925
 30
0.0
 10
59.95534609408503
 20
23.32707893785925
 30
0.0
 10
60.17920349531202
 20
23.55093633908625
 30
0.0
 10
60.17920349531202
 20
23.82707843785925
 30
0.0
 10
60.17920349531202
 20
23.82707843785925
 30
0.0
 10
60.17920349531202
 20
25.32707943785928
 30
0.0
 10
60.17920349531202
 20
25.32707943785928
 30
0.0
 10
60.17920349531202
 20
25.60322153663228
 30
0.0
 10
59.95534609408503
 20
25.82707893785927
 30
0.0
 10
59.67920399531203
 20
25.82707893785927
 30
0.0
 10
59.67920399531203
 20
25.82707893785927
 30
0.0
 10
59.67920299531199
 20
25.82707893785927
 30
0.0
 10
59.67920299531199
 20
25.82707893785927
 30
0.0
 10
59.40306089653899
 20
25.82707893785927
 30
0.0
 10
59.17920349531199
 20
26.05093633908627
 30
0.0
 10
59.17920349531199
 20
26.32707843785927
 30
0.0
 10
59.17920349531199
 20
26.32707843785927
 30
0.0
 10
59.17920349531199
 20
27.32707943785928
 30
0.0
 10
59.17920349531199
 20
27.32707943785928
 30
0.0
 10
59.17920349531199
 20
27.60322153663229
 30
0.0
 10
59.40306089653899
 20
27.82707893785928
 30
0.0
 10
59.67920299531199
 20
27.82707893785928
 30
0.0
 10
59.67920299531199
 20
27.82707893785928
 30
0.0
 10
61.67920399531197
 20
27.82707893785928
 30
0.0
 10
61.67920399531197
 20
27.82707893785928
 30
0.0
 10
61.95534609408504
 20
27.82707893785928
 30
0.0
 10
62.17920349531197
 20
27.60322153663235
 30
0.0
 10
62.17920349531197
 20
27.32707943785928
 30
0.0
 10
62.17920349531197
 20
27.32707943785928
 30
0.0
 10
62.17920349531197
 20
26.32707843785921
 30
0.0
 10
62.17920349531197
 20
26.32707843785921
 30
0.0
 10
62.17920349531197
 20
26.05093633908627
 30
0.0
 10
61.95534609408504
 20
25.82707893785927
 30
0.0
 10
61.67920399531197
 20
25.82707893785927
 30
0.0
 10
61.67920399531197
 20
25.82707893785927
 30
0.0
 10
61.679202995312
 20
25.82707893785927
 30
0.0
 10
61.679202995312
 20
25.82707893785927
 30
0.0
 10
61.40306089653899
 20
25.82707893785927
 30
0.0
 10
61.17920349531206
 20
25.60322153663228
 30
0.0
 10
61.17920349531206
 20
25.32707943785934
 30
0.0
 10
61.17920349531206
 20
25.32707943785934
 30
0.0
 10
61.17920349531206
 20
23.82707843785925
 30
0.0
 10
61.17920349531206
 20
23.82707843785925
 30
0.0
 10
61.17920349531206
 20
23.55093633908625
 30
0.0
 10
61.40306089653899
 20
23.32707893785925
 30
0.0
 10
61.679202995312
 20
23.32707893785925
 30
0.0
 10
61.679202995312
 20
23.32707893785925
 30
0.0
 10
61.67920399531197
 20
23.32707893785925
 30
0.0
 10
61.67920399531197
 20
23.32707893785925
 30
0.0
 10
61.95534609408504
 20
23.32707893785925
 30
0.0
 10
62.17920349531197
 20
23.10322153663225
 30
0.0
 10
62.17920349531197
 20
22.82707943785925
 30
0.0
  0
ENDBLK
  5
3AC
330
3A9
100
AcDbEntity
  8
0
100
AcDbBlockEnd
  0
BLOCK
  5
3B7
330
3B5
100
AcDbEntity
  8
0
100
AcDbBlockBegin
  2
block 78
 70
     0
 10
0.0
 20
0.0
 30
0.0
  3
block 78
  1

  0
INSERT
  5
3BA
330
3B5
100
AcDbEntity
  8
0
100
AcDbBlockReference
  2
block 79
 10
0.0
 20
0.0
 30
0.0
  0
ENDBLK
  5
3B8
330
3B5
100
AcDbEntity
  8
0
100
AcDbBlockEnd
  0
BLOCK
  5
3BB
330
3B9
100
AcDbEntity
  8
0
100
AcDbBlockBegin
  2
block 79
 70
     0
 10
0.0
 20
0.0
 30
0.0
  3
block 79
  1

  0
POLYLINE
  5
3BD
330
3B9
100
AcDbEntity
  8
0
 62
     7
420
 16777215
370
    25
100
AcDb2dPolyline
 66
     1
 10
0.0
 20
0.0
 30
0.0
  0
VERTEX
  5
3BE
330
3BD
100
AcDbEntity
  8
0
 62
     7
420
 16777215
370
    25
100
AcDbVertex
100
AcDb2dVertex
 10
57.69633614614816
 20
20.67509783850761
 30
0.0
  0
VERTEX
  5
3BF
330
3BD
100
AcDbEntity
  8
0
 62
     7
420
 16777215
370
    25
100
AcDbVertex
100
AcDb2dVertex
 10
57.69633614614816
 20
23.67509783850746
 30
0.0
  0
VERTEX
  5
3C0
330
3BD
100
AcDbEntity
  8
0
 62
     7
420
 16777215
370
    25
100
AcDbVertex
100
AcDb2dVertex
 10
58.6963361461482
 20
23.67509783850746
 30
0.0
  0
VERTEX
  5
3C1
330
3BD
100
AcDbEntity
  8
0
 62
     7
420
 16777215
370
    25
100
AcDbVertex
100
AcDb2dVertex
 10
58.6963361461482
 20
20.67509783850761
 30
0.0
  0
VERTEX
  5
3C2
330
3BD
100
AcDbEntity
  8
0
 62
     7
420
 16777215
370
    25
100
AcDbVertex
100
AcDb2dVertex
 10
57.69633614614816
 20
20.67509783850761
 30
0.0
  0
SEQEND
  5
3C3
330
3BD
100
AcDbEntity
  8
0
 62
     7
420
 16777215
370
    25
  0
ENDBLK
  5
3BC
330
3B9
100
AcDbEntity
  8
0
100
AcDbBlockEnd
  0
BLOCK
  5
3C6
330
3C4
100
AcDbEntity
  8
0
100
AcDbBlockBegin
  2
block 80
 70
     0
 10
0.0
 20
0.0
 30
0.0
  3
block 80
  1

  0
INSERT
  5
3C9
330
3C4
100
AcDbEntity
  8
0
100
AcDbBlockReference
  2
block 81
 10
0.0
 20
0.0
 30
0.0
  0
ENDBLK
  5
3C7
330
3C4
100
AcDbEntity
  8
0
100
AcDbBlockEnd
  0
BLOCK
  5
3CA
330
3C8
100
AcDbEntity
  8
0
100
AcDbBlockBegin
  2
block 81
 70
     0
 10
0.0
 20
0.0
 30
0.0
  3
block 81
  1

  0
POLYLINE
  5
3CC
330
3C8
100
AcDbEntity
  8
0
 62
     7
420
 16777215
370
    25
100
AcDb2dPolyline
 66
     1
 10
0.0
 20
0.0
 30
0.0
  0
VERTEX
  5
3CD
330
3CC
100
AcDbEntity
  8
0
 62
     7
420
 16777215
370
    25
100
AcDbVertex
100
AcDb2dVertex
 10
56.48056324188533
 20
24.16041227119274
 30
0.0
  0
VERTEX
  5
3CE
330
3CC
100
AcDbEntity
  8
0
 62
     7
420
 16777215
370
    25
100
AcDbVertex
100
AcDb2dVertex
 10
56.48056324188533
 20
27.16041227119265
 30
0.0
  0
VERTEX
  5
3CF
330
3CC
100
AcDbEntity
  8
0
 62
     7
420
 16777215
370
    25
100
AcDbVertex
100
AcDb2dVertex
 10
57.48056324188537
 20
27.16041227119265
 30
0.0
  0
VERTEX
  5
3D0
330
3CC
100
AcDbEntity
  8
0
 62
     7
420
 16777215
370
    25
100
AcDbVertex
100
AcDb2dVertex
 10
57.48056324188537
 20
24.16041227119274
 30
0.0
  0
VERTEX
  5
3D1
330
3CC
100
AcDbEntity
  8
0
 62
     7
420
 16777215
370
    25
100
AcDbVertex
100
AcDb2dVertex
 10
56.48056324188533
 20
24.16041227119274
 30
0.0
  0
SEQEND
  5
3D2
330
3CC
100
AcDbEntity
  8
0
 62
     7
420
 16777215
370
    25
  0
ENDBLK
  5
3CB
330
3C8
100
AcDbEntity
  8
0
100
AcDbBlockEnd
  0
BLOCK
  5
3D5
330
3D3
100
AcDbEntity
  8
0
100
AcDbBlockBegin
  2
block 82
 70
     0
 10
0.0
 20
0.0
 30
0.0
  3
block 82
  1

  0
INSERT
  5
3D8
330
3D3
100
AcDbEntity
  8
0
100
AcDbBlockReference
  2
block 83
 10
0.0
 20
0.0
 30
0.0
  0
ENDBLK
  5
3D6
330
3D3
100
AcDbEntity
  8
0
100
AcDbBlockEnd
  0
BLOCK
  5
3D9
330
3D7
100
AcDbEntity
  8
0
100
AcDbBlockBegin
  2
block 83
 70
     0
 10
0.0
 20
0.0
 30
0.0
  3
block 83
  1

  0
POLYLINE
  5
3DB
330
3D7
100
AcDbEntity
  8
0
 62
     7
420
 16777215
370
    25
100
AcDb2dPolyline
 66
     1
 10
0.0
 20
0.0
 30
0.0
  0
VERTEX
  5
3DC
330
3DB
100
AcDbEntity
  8
0
 62
     7
420
 16777215
370
    25
100
AcDbVertex
100
AcDb2dVertex
 10
57.69633614614816
 20
24.16041227119274
 30
0.0
  0
VERTEX
  5
3DD
330
3DB
100
AcDbEntity
  8
0
 62
     7
420
 16777215
370
    25
100
AcDbVertex
100
AcDb2dVertex
 10
57.69633614614816
 20
27.16041227119265
 30
0.0
  0
VERTEX
  5
3DE
330
3DB
100
AcDbEntity
  8
0
 62
     7
420
 16777215
370
    25
100
AcDbVertex
100
AcDb2dVertex
 10
58.6963361461482
 20
27.16041227119265
 30
0.0
  0
VERTEX
  5
3DF
330
3DB
100
AcDbEntity
  8
0
 62
     7
420
 16777215
370
    25
100
AcDbVertex
100
AcDb2dVertex
 10
58.6963361461482
 20
24.16041227119274
 30
0.0
  0
VERTEX
  5
3E0
330
3DB
100
AcDbEntity
  8
0
 62
     7
420
 16777215
370
    25
100
AcDbVertex
100
AcDb2dVertex
 10
57.69633614614816
 20
24.16041227119274
 30
0.0
  0
SEQEND
  5
3E1
330
3DB
100
AcDbEntity
  8
0
 62
     7
420
 16777215
370
    25
  0
ENDBLK
  5
3DA
330
3D7
100
AcDbEntity
  8
0
100
AcDbBlockEnd
  0
BLOCK
  5
3E6
330
3E4
100
AcDbEntity
  8
0
100
AcDbBlockBegin
  2
block 84
 70
     0
 10
0.0
 20
0.0
 30
0.0
  3
block 84
  1

  0
SPLINE
  5
3E8
330
3E4
100
AcDbEntity
  8
Camada 2
370
     0
100
AcDbSpline
210
0.0
220
0.0
230
1.0
 70
    11
 71
     3
 72
    29
 73
    25
 74
     0
 42
0.0000000001
 43
0.0000000001
 12
1.0
 22
0.0
 32
0.0
 13
1.0
 23
0.0
 33
0.0
 40
0.0
 40
0.0
 40
0.0
 40
0.0
 40
1.0
 40
1.0
 40
1.0
 40
2.0
 40
2.0
 40
2.0
 40
3.0
 40
3.0
 40
3.0
 40
4.0
 40
4.0
 40
4.0
 40
5.0
 40
5.0
 40
5.0
 40
6.0
 40
6.0
 40
6.0
 40
7.0
 40
7.0
 40
7.0
 40
8.0
 40
8.0
 40
8.0
 40
8.0
 10
64.7480428720973
 20
14.07741054547211
 30
0.0
 10
64.7480428720973
 20
14.07741054547211
 30
0.0
 10
63.694560260085
 20
14.07741054547211
 30
0.0
 10
63.694560260085
 20
14.07741054547211
 30
0.0
 10
63.23582216067727
 20
14.07741054547211
 30
0.0
 10
62.862611503532
 20
14.45061768426773
 30
0.0
 10
62.862611503532
 20
14.90935932304191
 30
0.0
 10
62.862611503532
 20
14.90935932304191
 30
0.0
 10
62.862611503532
 20
15.96284196166746
 30
0.0
 10
62.862611503532
 20
15.96284196166746
 30
0.0
 10
62.862611503532
 20
16.42158360044164
 30
0.0
 10
63.23582216067727
 20
16.79479073923726
 30
0.0
 10
63.694560260085
 20
16.79479073923726
 30
0.0
 10
63.694560260085
 20
16.79479073923726
 30
0.0
 10
64.7480428720973
 20
16.79479073923726
 30
0.0
 10
64.7480428720973
 20
16.79479073923726
 30
0.0
 10
65.20680919372654
 20
16.79479073923726
 30
0.0
 10
65.58001632309411
 20
16.42158360044164
 30
0.0
 10
65.58001632309411
 20
15.96284196166746
 30
0.0
 10
65.58001632309411
 20
15.96284196166746
 30
0.0
 10
65.58001632309411
 20
14.90935932304191
 30
0.0
 10
65.58001632309411
 20
14.90935932304191
 30
0.0
 10
65.58001632309411
 20
14.45061768426773
 30
0.0
 10
65.20680919372654
 20
14.07741054547211
 30
0.0
 10
64.7480428720973
 20
14.07741054547211
 30
0.0
  0
SPLINE
  5
3E9
330
3E4
100
AcDbEntity
  8
Camada 2
370
     0
100
AcDbSpline
210
0.0
220
0.0
230
1.0
 70
    11
 71
     3
 72
    29
 73
    25
 74
     0
 42
0.0000000001
 43
0.0000000001
 12
1.0
 22
0.0
 32
0.0
 13
1.0
 23
0.0
 33
0.0
 40
0.0
 40
0.0
 40
0.0
 40
0.0
 40
1.0
 40
1.0
 40
1.0
 40
2.0
 40
2.0
 40
2.0
 40
3.0
 40
3.0
 40
3.0
 40
4.0
 40
4.0
 40
4.0
 40
5.0
 40
5.0
 40
5.0
 40
6.0
 40
6.0
 40
6.0
 40
7.0
 40
7.0
 40
7.0
 40
8.0
 40
8.0
 40
8.0
 40
8.0
 10
63.694560260085
 20
16.59131910039923
 30
0.0
 10
63.34803018559239
 20
16.59131910039923
 30
0.0
 10
63.0660831372299
 20
16.30937557269189
 30
0.0
 10
63.0660831372299
 20
15.96284196166746
 30
0.0
 10
63.0660831372299
 20
15.96284196166746
 30
0.0
 10
63.0660831372299
 20
14.90935932304191
 30
0.0
 10
63.0660831372299
 20
14.90935932304191
 30
0.0
 10
63.0660831372299
 20
14.56282571201742
 30
0.0
 10
63.34803018559239
 20
14.28088218431015
 30
0.0
 10
63.694560260085
 20
14.28088218431015
 30
0.0
 10
63.694560260085
 20
14.28088218431015
 30
0.0
 10
64.7480428720973
 20
14.28088218431015
 30
0.0
 10
64.7480428720973
 20
14.28088218431015
 30
0.0
 10
65.09460116881142
 20
14.28088218431015
 30
0.0
 10
65.3765482171739
 20
14.56282571201742
 30
0.0
 10
65.3765482171739
 20
14.90935932304191
 30
0.0
 10
65.3765482171739
 20
14.90935932304191
 30
0.0
 10
65.3765482171739
 20
15.96284196166746
 30
0.0
 10
65.3765482171739
 20
15.96284196166746
 30
0.0
 10
65.3765482171739
 20
16.30937557269189
 30
0.0
 10
65.09460116881142
 20
16.59131910039923
 30
0.0
 10
64.7480428720973
 20
16.59131910039923
 30
0.0
 10
64.7480428720973
 20
16.59131910039923
 30
0.0
 10
63.694560260085
 20
16.59131910039923
 30
0.0
 10
63.694560260085
 20
16.59131910039923
 30
0.0
  0
HATCH
  5
3EA
330
3E4
100
AcDbEntity
  8
Camada 2
 62
   188
420
  1048598
100
AcDbHatch
 10
0.0
 20
0.0
 30
0.0
210
0.0
220
0.0
230
1.0
  2
SOLID
 70
     1
 71
     0
 91
        2
 92
        1
 93
        1
 72
     4
 94
        3
 73
     0
 74
     1
 95
       29
 96
       25
 40
0.0
 40
0.0
 40
0.0
 40
0.0
 40
1.0
 40
1.0
 40
1.0
 40
2.0
 40
2.0
 40
2.0
 40
3.0
 40
3.0
 40
3.0
 40
4.0
 40
4.0
 40
4.0
 40
5.0
 40
5.0
 40
5.0
 40
6.0
 40
6.0
 40
6.0
 40
7.0
 40
7.0
 40
7.0
 40
8.0
 40
8.0
 40
8.0
 40
8.0
 10
64.7480428720973
 20
14.07741054547211
 10
64.7480428720973
 20
14.07741054547211
 10
63.694560260085
 20
14.07741054547211
 10
63.694560260085
 20
14.07741054547211
 10
63.23582216067727
 20
14.07741054547211
 10
62.862611503532
 20
14.45061768426773
 10
62.862611503532
 20
14.90935932304191
 10
62.862611503532
 20
14.90935932304191
 10
62.862611503532
 20
15.96284196166746
 10
62.862611503532
 20
15.96284196166746
 10
62.862611503532
 20
16.42158360044164
 10
63.23582216067727
 20
16.79479073923726
 10
63.694560260085
 20
16.79479073923726
 10
63.694560260085
 20
16.79479073923726
 10
64.7480428720973
 20
16.79479073923726
 10
64.7480428720973
 20
16.79479073923726
 10
65.20680919372654
 20
16.79479073923726
 10
65.58001632309411
 20
16.42158360044164
 10
65.58001632309411
 20
15.96284196166746
 10
65.58001632309411
 20
15.96284196166746
 10
65.58001632309411
 20
14.90935932304191
 10
65.58001632309411
 20
14.90935932304191
 10
65.58001632309411
 20
14.45061768426773
 10
65.20680919372654
 20
14.07741054547211
 10
64.7480428720973
 20
14.07741054547211
 97
        0
 97
        0
 92
        1
 93
        1
 72
     4
 94
        3
 73
     0
 74
     1
 95
       29
 96
       25
 40
0.0
 40
0.0
 40
0.0
 40
0.0
 40
1.0
 40
1.0
 40
1.0
 40
2.0
 40
2.0
 40
2.0
 40
3.0
 40
3.0
 40
3.0
 40
4.0
 40
4.0
 40
4.0
 40
5.0
 40
5.0
 40
5.0
 40
6.0
 40
6.0
 40
6.0
 40
7.0
 40
7.0
 40
7.0
 40
8.0
 40
8.0
 40
8.0
 40
8.0
 10
63.694560260085
 20
16.59131910039923
 10
63.34803018559239
 20
16.59131910039923
 10
63.0660831372299
 20
16.30937557269189
 10
63.0660831372299
 20
15.96284196166746
 10
63.0660831372299
 20
15.96284196166746
 10
63.0660831372299
 20
14.90935932304191
 10
63.0660831372299
 20
14.90935932304191
 10
63.0660831372299
 20
14.56282571201742
 10
63.34803018559239
 20
14.28088218431015
 10
63.694560260085
 20
14.28088218431015
 10
63.694560260085
 20
14.28088218431015
 10
64.7480428720973
 20
14.28088218431015
 10
64.7480428720973
 20
14.28088218431015
 10
65.09460116881142
 20
14.28088218431015
 10
65.3765482171739
 20
14.56282571201742
 10
65.3765482171739
 20
14.90935932304191
 10
65.3765482171739
 20
14.90935932304191
 10
65.3765482171739
 20
15.96284196166746
 10
65.3765482171739
 20
15.96284196166746
 10
65.3765482171739
 20
16.30937557269189
 10
65.09460116881142
 20
16.59131910039923
 10
64.7480428720973
 20
16.59131910039923
 10
64.7480428720973
 20
16.59131910039923
 10
63.694560260085
 20
16.59131910039923
 10
63.694560260085
 20
16.59131910039923
 97
        0
 97
        0
 75
     2
 76
     1
 98
        0
  0
SPLINE
  5
3EB
330
3E4
100
AcDbEntity
  8
Camada 2
370
     0
100
AcDbSpline
210
0.0
220
0.0
230
1.0
 70
    11
 71
     3
 72
    17
 73
    13
 74
     0
 42
0.0000000001
 43
0.0000000001
 12
1.0
 22
0.0
 32
0.0
 13
1.0
 23
0.0
 33
0.0
 40
0.0
 40
0.0
 40
0.0
 40
0.0
 40
1.0
 40
1.0
 40
1.0
 40
2.0
 40
2.0
 40
2.0
 40
3.0
 40
3.0
 40
3.0
 40
4.0
 40
4.0
 40
4.0
 40
4.0
 10
64.2213036327089
 20
14.74871843419321
 30
0.0
 10
63.84228595076065
 20
14.74871843419321
 30
0.0
 10
63.53394406973821
 20
15.05708148967167
 30
0.0
 10
63.53394406973821
 20
15.43609887846581
 30
0.0
 10
63.53394406973821
 20
15.8151197950377
 30
0.0
 10
63.84228595076065
 20
16.12348285051623
 30
0.0
 10
64.2213036327089
 20
16.12348285051623
 30
0.0
 10
64.60032070919935
 20
16.12348285051623
 30
0.0
 10
64.90868728466559
 20
15.8151197950377
 30
0.0
 10
64.90868728466559
 20
15.43609887846581
 30
0.0
 10
64.90868728466559
 20
15.05708148967167
 30
0.0
 10
64.60032070919935
 20
14.74871843419321
 30
0.0
 10
64.2213036327089
 20
14.74871843419321
 30
0.0
  0
SPLINE
  5
3EC
330
3E4
100
AcDbEntity
  8
Camada 2
370
     0
100
AcDbSpline
210
0.0
220
0.0
230
1.0
 70
    11
 71
     3
 72
    17
 73
    13
 74
     0
 42
0.0000000001
 43
0.0000000001
 12
1.0
 22
0.0
 32
0.0
 13
1.0
 23
0.0
 33
0.0
 40
0.0
 40
0.0
 40
0.0
 40
0.0
 40
1.0
 40
1.0
 40
1.0
 40
2.0
 40
2.0
 40
2.0
 40
3.0
 40
3.0
 40
3.0
 40
4.0
 40
4.0
 40
4.0
 40
4.0
 10
64.2213036327089
 20
15.91512171167935
 30
0.0
 10
63.95719272560691
 20
15.91512171167935
 30
0.0
 10
63.74230873108905
 20
15.70023418395529
 30
0.0
 10
63.74230873108905
 20
15.43609887846581
 30
0.0
 10
63.74230873108905
 20
15.17196710075408
 30
0.0
 10
63.95719272560691
 20
14.95707957303002
 30
0.0
 10
64.2213036327089
 20
14.95707957303002
 30
0.0
 10
64.4854386287969
 20
14.95707957303002
 30
0.0
 10
64.70032262331475
 20
15.17196710075408
 30
0.0
 10
64.70032262331475
 20
15.43609887846581
 30
0.0
 10
64.70032262331475
 20
15.70023418395529
 30
0.0
 10
64.4854386287969
 20
15.91512171167935
 30
0.0
 10
64.2213036327089
 20
15.91512171167935
 30
0.0
  0
HATCH
  5
3ED
330
3E4
100
AcDbEntity
  8
Camada 2
 62
   188
420
  1048598
100
AcDbHatch
 10
0.0
 20
0.0
 30
0.0
210
0.0
220
0.0
230
1.0
  2
SOLID
 70
     1
 71
     0
 91
        2
 92
        1
 93
        1
 72
     4
 94
        3
 73
     0
 74
     1
 95
       17
 96
       13
 40
0.0
 40
0.0
 40
0.0
 40
0.0
 40
1.0
 40
1.0
 40
1.0
 40
2.0
 40
2.0
 40
2.0
 40
3.0
 40
3.0
 40
3.0
 40
4.0
 40
4.0
 40
4.0
 40
4.0
 10
64.2213036327089
 20
14.74871843419321
 10
63.84228595076065
 20
14.74871843419321
 10
63.53394406973821
 20
15.05708148967167
 10
63.53394406973821
 20
15.43609887846581
 10
63.53394406973821
 20
15.8151197950377
 10
63.84228595076065
 20
16.12348285051623
 10
64.2213036327089
 20
16.12348285051623
 10
64.60032070919935
 20
16.12348285051623
 10
64.90868728466559
 20
15.8151197950377
 10
64.90868728466559
 20
15.43609887846581
 10
64.90868728466559
 20
15.05708148967167
 10
64.60032070919935
 20
14.74871843419321
 10
64.2213036327089
 20
14.74871843419321
 97
        0
 97
        0
 92
        1
 93
        1
 72
     4
 94
        3
 73
     0
 74
     1
 95
       17
 96
       13
 40
0.0
 40
0.0
 40
0.0
 40
0.0
 40
1.0
 40
1.0
 40
1.0
 40
2.0
 40
2.0
 40
2.0
 40
3.0
 40
3.0
 40
3.0
 40
4.0
 40
4.0
 40
4.0
 40
4.0
 10
64.2213036327089
 20
15.91512171167935
 10
63.95719272560691
 20
15.91512171167935
 10
63.74230873108905
 20
15.70023418395529
 10
63.74230873108905
 20
15.43609887846581
 10
63.74230873108905
 20
15.17196710075408
 10
63.95719272560691
 20
14.95707957303002
 10
64.2213036327089
 20
14.95707957303002
 10
64.4854386287969
 20
14.95707957303002
 10
64.70032262331475
 20
15.17196710075408
 10
64.70032262331475
 20
15.43609887846581
 10
64.70032262331475
 20
15.70023418395529
 10
64.4854386287969
 20
15.91512171167935
 10
64.2213036327089
 20
15.91512171167935
 97
        0
 97
        0
 75
     2
 76
     1
 98
        0
  0
SPLINE
  5
3EE
330
3E4
100
AcDbEntity
  8
Camada 2
370
     0
100
AcDbSpline
210
0.0
220
0.0
230
1.0
 70
    11
 71
     3
 72
    17
 73
    13
 74
     0
 42
0.0000000001
 43
0.0000000001
 12
1.0
 22
0.0
 32
0.0
 13
1.0
 23
0.0
 33
0.0
 40
0.0
 40
0.0
 40
0.0
 40
0.0
 40
1.0
 40
1.0
 40
1.0
 40
2.0
 40
2.0
 40
2.0
 40
3.0
 40
3.0
 40
3.0
 40
4.0
 40
4.0
 40
4.0
 40
4.0
 10
65.16244738930274
 20
16.19826115605307
 30
0.0
 10
65.16244738930274
 20
16.09941987829996
 30
0.0
 10
65.08232097468027
 20
16.01929346165332
 30
0.0
 10
64.98348002140723
 20
16.01929346165332
 30
0.0
 10
64.88463489639032
 20
16.01929346165332
 30
0.0
 10
64.80450848176785
 20
16.09941987829996
 30
0.0
 10
64.80450848176785
 20
16.19826115605307
 30
0.0
 10
64.80450848176785
 20
16.29710596158386
 30
0.0
 10
64.88463489639032
 20
16.37723237823051
 30
0.0
 10
64.98348002140723
 20
16.37723237823051
 30
0.0
 10
65.08232097468027
 20
16.37723237823051
 30
0.0
 10
65.16244738930274
 20
16.29710596158386
 30
0.0
 10
65.16244738930274
 20
16.19826115605307
 30
0.0
  0
HATCH
  5
3EF
330
3E4
100
AcDbEntity
  8
Camada 2
 62
   188
420
  1048598
100
AcDbHatch
 10
0.0
 20
0.0
 30
0.0
210
0.0
220
0.0
230
1.0
  2
SOLID
 70
     1
 71
     0
 91
        1
 92
        1
 93
        1
 72
     4
 94
        3
 73
     0
 74
     1
 95
       17
 96
       13
 40
0.0
 40
0.0
 40
0.0
 40
0.0
 40
1.0
 40
1.0
 40
1.0
 40
2.0
 40
2.0
 40
2.0
 40
3.0
 40
3.0
 40
3.0
 40
4.0
 40
4.0
 40
4.0
 40
4.0
 10
65.16244738930274
 20
16.19826115605307
 10
65.16244738930274
 20
16.09941987829996
 10
65.08232097468027
 20
16.01929346165332
 10
64.98348002140723
 20
16.01929346165332
 10
64.88463489639032
 20
16.01929346165332
 10
64.80450848176785
 20
16.09941987829996
 10
64.80450848176785
 20
16.19826115605307
 10
64.80450848176785
 20
16.29710596158386
 10
64.88463489639032
 20
16.37723237823051
 10
64.98348002140723
 20
16.37723237823051
 10
65.08232097468027
 20
16.37723237823051
 10
65.16244738930274
 20
16.29710596158386
 10
65.16244738930274
 20
16.19826115605307
 97
        0
 97
        0
 75
     2
 76
     1
 98
        0
  0
ENDBLK
  5
3E7
330
3E4
100
AcDbEntity
  8
0
100
AcDbBlockEnd
  0
ENDSEC
  0
SECTION
  2
ENTITIES
  0
INSERT
  5
41
330
1F
100
AcDbEntity
  8
0
100
AcDbBlockReference
  2
block 2
 10
0.0
 20
0.0
 30
0.0
  0
MTEXT
  5
3E3
330
1F
100
AcDbEntity
  8
Camada 2
 62
     7
420
 16777215
100
AcDbMText
 10
27.49999562741591
 20
46.58672464689553
 30
0.0
 40
0.7788000095582093
 41
0.0
 46
0.0
 71
     7
 72
     1
  1
\fVerdana|b0|i0|c0|p34;\W1;This frame shold be 350 x 320 mm 
 73
     1
 44
1.0
  0
INSERT
  5
3E5
330
1F
100
AcDbEntity
  8
Camada 2
100
AcDbBlockReference
  2
block 84
 10
0.0
 20
0.0
 30
0.0
  0
MTEXT
  5
3F0
330
1F
100
AcDbEntity
  8
Camada 2
 62
     7
420
 16777215
100
AcDbMText
 10
65.87435979255919
 20
14.74870791543361
 30
0.0
 40
1.303767345852749
 41
0.0
 46
0.0
 71
     7
 72
     1
  1
\fVerdana|b0|i0|c0|p34;\W1;labdetest
 73
     1
 44
1.0
  0
MTEXT
  5
3F1
330
1F
100
AcDbEntity
  8
Camada 2
 62
     7
420
 16777215
100
AcDbMText
 10
62.86261102588319
 20
42.33557478800009
 30
0.0
 40
1.303767345852749
 41
0.0
 46
0.0
 71
     7
 72
     1
  1
\fVerdana|b0|i0|c0|p34;\W1;guide on instructables
 73
     1
 44
1.0
  0
ENDSEC
  0
SECTION
  2
OBJECTS
  0
DICTIONARY
  5
C
330
0
100
AcDbDictionary
281
     1
  3
ACAD_GROUP
350
D
  3
ACAD_LAYOUT
350
1A
  3
ACAD_MATERIAL
350
3B
  3
ACAD_MLEADERSTYLE
350
3F3
  3
ACAD_MLINESTYLE
350
17
  3
ACAD_PLOTSETTINGS
350
19
  3
ACAD_PLOTSTYLENAME
350
E
  3
ACAD_TABLESTYLE
350
3F2
  3
ACAD_VISUALSTYLE
350
2A
  0
SUN
  5
3F
330
29
100
AcDbSun
 90
        1
290
     0
 63
     7
421
 16777215
 40
1.0
291
     1
 91
  2455826
 92
 54000000
292
     0
 70
     2
 71
   256
280
     1
  0
DICTIONARY
  5
D
102
{ACAD_REACTORS
330
C
102
}
330
C
100
AcDbDictionary
281
     1
  0
DICTIONARY
  5
1A
102
{ACAD_REACTORS
330
C
102
}
330
C
100
AcDbDictionary
281
     1
  3
Layout1
350
1E
  3
Layout2
350
26
  3
Model
350
22
  0
DICTIONARY
  5
3B
102
{ACAD_REACTORS
330
C
102
}
330
C
100
AcDbDictionary
281
     1
  3
ByBlock
350
3D
  3
ByLayer
350
3C
  3
Global
350
3E
  0
DICTIONARY
  5
3F3
102
{ACAD_REACTORS
330
C
102
}
330
C
100
AcDbDictionary
281
     1
  0
DICTIONARY
  5
17
102
{ACAD_REACTORS
330
C
102
}
330
C
100
AcDbDictionary
281
     1
  3
Standard
350
18
  0
DICTIONARY
  5
19
102
{ACAD_REACTORS
330
C
102
}
330
C
100
AcDbDictionary
281
     1
  0
ACDBDICTIONARYWDFLT
  5
E
102
{ACAD_REACTORS
330
C
102
}
330
C
100
AcDbDictionary
281
     1
  3
Normal
350
F
100
AcDbDictionaryWithDefault
340
F
  0
DICTIONARY
  5
3F2
102
{ACAD_REACTORS
330
C
102
}
330
C
100
AcDbDictionary
281
     1
  0
DICTIONARY
  5
2A
102
{ACAD_REACTORS
330
C
102
}
330
C
100
AcDbDictionary
281
     1
  3
2dWireframe
350
2F
  3
3D Hidden
350
31
  3
3dWireframe
350
30
  3
Basic
350
32
  3
Brighten
350
36
  3
ColorChange
350
3A
  3
Conceptual
350
34
  3
Dim
350
35
  3
Facepattern
350
39
  3
Flat
350
2B
  3
FlatWithEdges
350
2C
  3
Gouraud
350
2D
  3
GouraudWithEdges
350
2E
  3
Linepattern
350
38
  3
Realistic
350
33
  3
Thicken
350
37
  0
LAYOUT
  5
1E
102
{ACAD_REACTORS
330
1A
102
}
330
1A
100
AcDbPlotSettings
  1

  2
none_device
  4

  6

 40
0.0
 41
0.0
 42
0.0
 43
0.0
 44
0.0
 45
0.0
 46
0.0
 47
0.0
 48
0.0
 49
0.0
140
0.0
141
0.0
142
1.0
143
1.0
 70
   688
 72
     0
 73
     0
 74
     5
  7

 75
    16
 76
     0
 77
     2
 78
   300
147
1.0
148
0.0
149
0.0
100
AcDbLayout
  1
Layout1
 70
     1
 71
     1
 10
0.0
 20
0.0
 11
12.0
 21
9.0
 12
0.0
 22
0.0
 32
0.0
 14
1.000000000000000E+20
 24
1.000000000000000E+20
 34
1.000000000000000E+20
 15
-1.000000000000000E+20
 25
-1.000000000000000E+20
 35
-1.000000000000000E+20
146
0.0
 13
0.0
 23
0.0
 33
0.0
 16
1.0
 26
0.0
 36
0.0
 17
0.0
 27
1.0
 37
0.0
 76
     0
330
1B
  0
LAYOUT
  5
26
102
{ACAD_REACTORS
330
1A
102
}
330
1A
100
AcDbPlotSettings
  1

  2
none_device
  4

  6

 40
0.0
 41
0.0
 42
0.0
 43
0.0
 44
0.0
 45
0.0
 46
0.0
 47
0.0
 48
0.0
 49
0.0
140
0.0
141
0.0
142
1.0
143
1.0
 70
   688
 72
     0
 73
     0
 74
     5
  7

 75
    16
 76
     0
 77
     2
 78
   300
147
1.0
148
0.0
149
0.0
100
AcDbLayout
  1
Layout2
 70
     1
 71
     2
 10
0.0
 20
0.0
 11
0.0
 21
0.0
 12
0.0
 22
0.0
 32
0.0
 14
0.0
 24
0.0
 34
0.0
 15
0.0
 25
0.0
 35
0.0
146
0.0
 13
0.0
 23
0.0
 33
0.0
 16
1.0
 26
0.0
 36
0.0
 17
0.0
 27
1.0
 37
0.0
 76
     0
330
23
  0
LAYOUT
  5
22
102
{ACAD_REACTORS
330
1A
102
}
330
1A
100
AcDbPlotSettings
  1

  2
none_device
  4

  6

 40
0.0
 41
0.0
 42
0.0
 43
0.0
 44
0.0
 45
0.0
 46
0.0
 47
0.0
 48
0.0
 49
0.0
140
0.0
141
0.0
142
1.0
143
1.0
 70
  1712
 72
     0
 73
     0
 74
     0
  7

 75
     0
 76
     0
 77
     2
 78
   300
147
1.0
148
0.0
149
0.0
100
AcDbLayout
  1
Model
 70
     1
 71
     0
 10
0.0
 20
0.0
 11
12.0
 21
9.0
 12
0.0
 22
0.0
 32
0.0
 14
1.000000000000000E+20
 24
1.000000000000000E+20
 34
1.000000000000000E+20
 15
-1.000000000000000E+20
 25
-1.000000000000000E+20
 35
-1.000000000000000E+20
146
0.0
 13
0.0
 23
0.0
 33
0.0
 16
1.0
 26
0.0
 36
0.0
 17
0.0
 27
1.0
 37
0.0
 76
     0
330
1F
331
29
  0
MATERIAL
  5
3D
102
{ACAD_REACTORS
330
3B
102
}
330
3B
100
AcDbMaterial
  1
ByBlock
 72
     1
 94
      127
  0
MATERIAL
  5
3C
102
{ACAD_REACTORS
330
3B
102
}
330
3B
100
AcDbMaterial
  1
ByLayer
 72
     1
 94
      127
  0
MATERIAL
  5
3E
102
{ACAD_REACTORS
330
3B
102
}
330
3B
100
AcDbMaterial
  1
Global
 72
     1
 94
      127
  0
MLINESTYLE
  5
18
102
{ACAD_REACTORS
330
17
102
}
330
17
100
AcDbMlineStyle
  2
Standard
 70
     0
  3

 62
   256
 51
90.0
 52
90.0
 71
     2
 49
0.5
 62
   256
  6
BYLAYER
 49
-0.5
 62
   256
  6
BYLAYER
  0
ACDBPLACEHOLDER
  5
F
102
{ACAD_REACTORS
330
E
102
}
330
E
  0
VISUALSTYLE
  5
2F
102
{ACAD_REACTORS
330
2A
102
}
330
2A
100
AcDbVisualStyle
  2
2dWireframe
 70
     4
177
     2
291
     0
 71
     0
176
     1
 72
     2
176
     1
 73
     0
176
     1
 90
        0
176
     1
 40
-0.6
176
     1
 41
-30.0
176
     1
 62
     5
 63
     7
421
 16777215
176
     1
 74
     1
176
     1
 91
        4
176
     1
 64
     7
176
     1
 65
   257
176
     1
 75
     1
176
     1
175
     1
176
     1
 42
1.0
176
     1
 92
        0
176
     1
 66
   257
176
     1
 43
1.0
176
     1
 76
     1
176
     1
 77
     6
176
     1
 78
     2
176
     1
 67
     7
176
     1
 79
     5
176
     1
170
     0
176
     1
171
     0
176
     1
290
     0
176
     1
 93
        1
176
     1
 44
0.0
176
     1
173
     0
176
     1
  0
VISUALSTYLE
  5
31
102
{ACAD_REACTORS
330
2A
102
}
330
2A
100
AcDbVisualStyle
  2
3D Hidden
 70
     6
177
     2
291
     0
 71
     1
176
     1
 72
     2
176
     1
 73
     2
176
     1
 90
        0
176
     1
 40
-0.6
176
     1
 41
-30.0
176
     1
 62
     5
 63
     7
421
 16777215
176
     1
 74
     2
176
     1
 91
        2
176
     1
 64
     7
176
     1
 65
   257
176
     1
 75
     2
176
     1
175
     1
176
     1
 42
40.0
176
     1
 92
        0
176
     1
 66
   257
176
     1
 43
1.0
176
     1
 76
     1
176
     1
 77
     6
176
     1
 78
     2
176
     1
 67
     7
176
     1
 79
     3
176
     1
170
     0
176
     1
171
     0
176
     1
290
     0
176
     1
 93
        1
176
     1
 44
0.0
176
     1
173
     0
176
     1
  0
VISUALSTYLE
  5
30
102
{ACAD_REACTORS
330
2A
102
}
330
2A
100
AcDbVisualStyle
  2
3dWireframe
 70
     5
177
     2
291
     0
 71
     0
176
     1
 72
     2
176
     1
 73
     0
176
     1
 90
        0
176
     1
 40
-0.6
176
     1
 41
-30.0
176
     1
 62
     5
 63
     7
421
 16777215
176
     1
 74
     1
176
     1
 91
        4
176
     1
 64
     7
176
     1
 65
   257
176
     1
 75
     1
176
     1
175
     1
176
     1
 42
1.0
176
     1
 92
        0
176
     1
 66
   257
176
     1
 43
1.0
176
     1
 76
     1
176
     1
 77
     6
176
     1
 78
     2
176
     1
 67
     7
176
     1
 79
     5
176
     1
170
     0
176
     1
171
     0
176
     1
290
     0
176
     1
 93
        1
176
     1
 44
0.0
176
     1
173
     0
176
     1
  0
VISUALSTYLE
  5
32
102
{ACAD_REACTORS
330
2A
102
}
330
2A
100
AcDbVisualStyle
  2
Basic
 70
     7
177
     2
291
     1
 71
     1
176
     1
 72
     0
176
     1
 73
     1
176
     1
 90
        0
176
     1
 40
-0.6
176
     1
 41
-30.0
176
     1
 62
     5
 63
     7
421
 16777215
176
     1
 74
     0
176
     1
 91
        4
176
     1
 64
     7
176
     1
 65
   257
176
     1
 75
     1
176
     1
175
     1
176
     1
 42
1.0
176
     1
 92
        8
176
     1
 66
     7
176
     1
 43
1.0
176
     1
 76
     1
176
     1
 77
     6
176
     1
 78
     2
176
     1
 67
     7
176
     1
 79
     5
176
     1
170
     0
176
     1
171
     0
176
     1
290
     0
176
     1
 93
        1
176
     1
 44
0.0
176
     1
173
     0
176
     1
  0
VISUALSTYLE
  5
36
102
{ACAD_REACTORS
330
2A
102
}
330
2A
100
AcDbVisualStyle
  2
Brighten
 70
    12
177
     2
291
     1
 71
     2
176
     1
 72
     2
176
     1
 73
     0
176
     1
 90
        0
176
     1
 40
-0.6
176
     1
 41
-30.0
176
     1
 62
     5
 63
     7
421
 16777215
176
     1
 74
     1
176
     1
 91
        4
176
     1
 64
     7
176
     1
 65
   257
176
     1
 75
     1
176
     1
175
     1
176
     1
 42
1.0
176
     1
 92
        8
176
     1
 66
     7
176
     1
 43
1.0
176
     1
 76
     1
176
     1
 77
     6
176
     1
 78
     2
176
     1
 67
     7
176
     1
 79
     5
176
     1
170
     0
176
     1
171
     0
176
     1
290
     0
176
     1
 93
        1
176
     1
 44
50.0
176
     1
173
     0
176
     1
  0
VISUALSTYLE
  5
3A
102
{ACAD_REACTORS
330
2A
102
}
330
2A
100
AcDbVisualStyle
  2
ColorChange
 70
    16
177
     2
291
     1
 71
     2
176
     1
 72
     2
176
     1
 73
     3
176
     1
 90
        0
176
     1
 40
-0.6
176
     1
 41
-30.0
176
     1
 62
     5
 63
     8
421
  8421504
176
     1
 74
     1
176
     1
 91
        4
176
     1
 64
     7
176
     1
 65
   257
176
     1
 75
     1
176
     1
175
     1
176
     1
 42
1.0
176
     1
 92
        8
176
     1
 66
     8
424
  8421504
176
     1
 43
1.0
176
     1
 76
     1
176
     1
 77
     6
176
     1
 78
     2
176
     1
 67
     7
176
     1
 79
     5
176
     1
170
     0
176
     1
171
     0
176
     1
290
     0
176
     1
 93
        1
176
     1
 44
0.0
176
     1
173
     0
176
     1
  0
VISUALSTYLE
  5
34
102
{ACAD_REACTORS
330
2A
102
}
330
2A
100
AcDbVisualStyle
  2
Conceptual
 70
     9
177
     2
291
     0
 71
     3
176
     1
 72
     2
176
     1
 73
     0
176
     1
 90
        0
176
     1
 40
-0.6
176
     1
 41
-30.0
176
     1
 62
     5
 63
     7
421
 16777215
176
     1
 74
     2
176
     1
 91
        2
176
     1
 64
     7
176
     1
 65
   257
176
     1
 75
     1
176
     1
175
     1
176
     1
 42
40.0
176
     1
 92
        8
176
     1
 66
     7
176
     1
 43
1.0
176
     1
 76
     1
176
     1
 77
     6
176
     1
 78
     2
176
     1
 67
     7
176
     1
 79
     3
176
     1
170
     0
176
     1
171
     0
176
     1
290
     0
176
     1
 93
        1
176
     1
 44
0.0
176
     1
173
     0
176
     1
  0
VISUALSTYLE
  5
35
102
{ACAD_REACTORS
330
2A
102
}
330
2A
100
AcDbVisualStyle
  2
Dim
 70
    11
177
     2
291
     1
 71
     2
176
     1
 72
     2
176
     1
 73
     0
176
     1
 90
        0
176
     1
 40
-0.6
176
     1
 41
-30.0
176
     1
 62
     5
 63
     7
421
 16777215
176
     1
 74
     1
176
     1
 91
        4
176
     1
 64
     7
176
     1
 65
   257
176
     1
 75
     1
176
     1
175
     1
176
     1
 42
1.0
176
     1
 92
        8
176
     1
 66
     7
176
     1
 43
1.0
176
     1
 76
     1
176
     1
 77
     6
176
     1
 78
     2
176
     1
 67
     7
176
     1
 79
     5
176
     1
170
     0
176
     1
171
     0
176
     1
290
     0
176
     1
 93
        1
176
     1
 44
-50.0
176
     1
173
     0
176
     1
  0
VISUALSTYLE
  5
39
102
{ACAD_REACTORS
330
2A
102
}
330
2A
100
AcDbVisualStyle
  2
Facepattern
 70
    15
177
     2
291
     1
 71
     2
176
     1
 72
     2
176
     1
 73
     0
176
     1
 90
        0
176
     1
 40
-0.6
176
     1
 41
-30.0
176
     1
 62
     5
 63
     7
421
 16777215
176
     1
 74
     1
176
     1
 91
        4
176
     1
 64
     7
176
     1
 65
   257
176
     1
 75
     1
176
     1
175
     1
176
     1
 42
1.0
176
     1
 92
        8
176
     1
 66
     7
176
     1
 43
1.0
176
     1
 76
     1
176
     1
 77
     6
176
     1
 78
     2
176
     1
 67
     7
176
     1
 79
     5
176
     1
170
     0
176
     1
171
     0
176
     1
290
     0
176
     1
 93
        1
176
     1
 44
0.0
176
     1
173
     0
176
     1
  0
VISUALSTYLE
  5
2B
102
{ACAD_REACTORS
330
2A
102
}
330
2A
100
AcDbVisualStyle
  2
Flat
 70
     0
177
     2
291
     1
 71
     2
176
     1
 72
     1
176
     1
 73
     1
176
     1
 90
        2
176
     1
 40
-0.6
176
     1
 41
30.0
176
     1
 62
     5
 63
     7
421
 16777215
176
     1
 74
     0
176
     1
 91
        4
176
     1
 64
     7
176
     1
 65
   257
176
     1
 75
     1
176
     1
175
     1
176
     1
 42
1.0
176
     1
 92
        8
176
     1
 66
     7
176
     1
 43
1.0
176
     1
 76
     1
176
     1
 77
     6
176
     1
 78
     2
176
     1
 67
     7
176
     1
 79
     5
176
     1
170
     0
176
     1
171
     0
176
     1
290
     0
176
     1
 93
       13
176
     1
 44
0.0
176
     1
173
     0
176
     1
  0
VISUALSTYLE
  5
2C
102
{ACAD_REACTORS
330
2A
102
}
330
2A
100
AcDbVisualStyle
  2
FlatWithEdges
 70
     1
177
     2
291
     1
 71
     2
176
     1
 72
     1
176
     1
 73
     1
176
     1
 90
        2
176
     1
 40
-0.6
176
     1
 41
30.0
176
     1
 62
     5
 63
     7
421
 16777215
176
     1
 74
     1
176
     1
 91
        4
176
     1
 64
     7
176
     1
 65
   257
176
     1
 75
     1
176
     1
175
     1
176
     1
 42
1.0
176
     1
 92
        0
176
     1
 66
   257
176
     1
 43
1.0
176
     1
 76
     1
176
     1
 77
     6
176
     1
 78
     2
176
     1
 67
     7
176
     1
 79
     5
176
     1
170
     0
176
     1
171
     0
176
     1
290
     0
176
     1
 93
       13
176
     1
 44
0.0
176
     1
173
     0
176
     1
  0
VISUALSTYLE
  5
2D
102
{ACAD_REACTORS
330
2A
102
}
330
2A
100
AcDbVisualStyle
  2
Gouraud
 70
     2
177
     2
291
     1
 71
     2
176
     1
 72
     2
176
     1
 73
     1
176
     1
 90
        2
176
     1
 40
-0.6
176
     1
 41
30.0
176
     1
 62
     5
 63
     7
421
 16777215
176
     1
 74
     0
176
     1
 91
        4
176
     1
 64
     7
176
     1
 65
   257
176
     1
 75
     1
176
     1
175
     1
176
     1
 42
1.0
176
     1
 92
        0
176
     1
 66
     7
176
     1
 43
1.0
176
     1
 76
     1
176
     1
 77
     6
176
     1
 78
     2
176
     1
 67
     7
176
     1
 79
     5
176
     1
170
     0
176
     1
171
     0
176
     1
290
     0
176
     1
 93
       13
176
     1
 44
0.0
176
     1
173
     0
176
     1
  0
VISUALSTYLE
  5
2E
102
{ACAD_REACTORS
330
2A
102
}
330
2A
100
AcDbVisualStyle
  2
GouraudWithEdges
 70
     3
177
     2
291
     1
 71
     2
176
     1
 72
     2
176
     1
 73
     1
176
     1
 90
        2
176
     1
 40
-0.6
176
     1
 41
30.0
176
     1
 62
     5
 63
     7
421
 16777215
176
     1
 74
     1
176
     1
 91
        4
176
     1
 64
     7
176
     1
 65
   257
176
     1
 75
     1
176
     1
175
     1
176
     1
 42
1.0
176
     1
 92
        0
176
     1
 66
   257
176
     1
 43
1.0
176
     1
 76
     1
176
     1
 77
     6
176
     1
 78
     2
176
     1
 67
     7
176
     1
 79
     5
176
     1
170
     0
176
     1
171
     0
176
     1
290
     0
176
     1
 93
       13
176
     1
 44
0.0
176
     1
173
     0
176
     1
  0
VISUALSTYLE
  5
38
102
{ACAD_REACTORS
330
2A
102
}
330
2A
100
AcDbVisualStyle
  2
Linepattern
 70
    14
177
     2
291
     1
 71
     2
176
     1
 72
     2
176
     1
 73
     0
176
     1
 90
        0
176
     1
 40
-0.6
176
     1
 41
-30.0
176
     1
 62
     5
 63
     7
421
 16777215
176
     1
 74
     1
176
     1
 91
        4
176
     1
 64
     7
176
     1
 65
   257
176
     1
 75
     7
176
     1
175
     7
176
     1
 42
1.0
176
     1
 92
        8
176
     1
 66
     7
176
     1
 43
1.0
176
     1
 76
     1
176
     1
 77
     6
176
     1
 78
     2
176
     1
 67
     7
176
     1
 79
     5
176
     1
170
     0
176
     1
171
     0
176
     1
290
     0
176
     1
 93
        1
176
     1
 44
0.0
176
     1
173
     0
176
     1
  0
VISUALSTYLE
  5
33
102
{ACAD_REACTORS
330
2A
102
}
330
2A
100
AcDbVisualStyle
  2
Realistic
 70
     8
177
     2
291
     0
 71
     2
176
     1
 72
     2
176
     1
 73
     0
176
     1
 90
        0
176
     1
 40
-0.6
176
     1
 41
-30.0
176
     1
 62
     5
 63
     7
421
 16777215
176
     1
 74
     1
176
     1
 91
        0
176
     1
 64
     7
176
     1
 65
   257
176
     1
 75
     1
176
     1
175
     1
176
     1
 42
1.0
176
     1
 92
        8
176
     1
 66
     8
424
  7895160
176
     1
 43
1.0
176
     1
 76
     1
176
     1
 77
     6
176
     1
 78
     2
176
     1
 67
     7
176
     1
 79
     5
176
     1
170
     0
176
     1
171
     0
176
     1
290
     0
176
     1
 93
       13
176
     1
 44
0.0
176
     1
173
     0
176
     1
  0
VISUALSTYLE
  5
37
102
{ACAD_REACTORS
330
2A
102
}
330
2A
100
AcDbVisualStyle
  2
Thicken
 70
    13
177
     2
291
     1
 71
     2
176
     1
 72
     2
176
     1
 73
     0
176
     1
 90
        0
176
     1
 40
-0.6
176
     1
 41
-30.0
176
     1
 62
     5
 63
     7
421
 16777215
176
     1
 74
     1
176
     1
 91
        4
176
     1
 64
     7
176
     1
 65
   257
176
     1
 75
     1
176
     1
175
     1
176
     1
 42
1.0
176
     1
 92
       12
176
     1
 66
     7
176
     1
 43
1.0
176
     1
 76
     1
176
     1
 77
     6
176
     1
 78
     2
176
     1
 67
     7
176
     1
 79
     5
176
     1
170
     0
176
     1
171
     0
176
     1
290
     0
176
     1
 93
        1
176
     1
 44
0.0
176
     1
173
     0
176
     1
  0
ENDSEC
  0
EOF
