  0
SECTION
  2
HEADER
  9
$EXTMIN
 10
1.250001
 20
0.250002
  9
$EXTMAX
 10
15.062430
 20
11.812450
  0
ENDSEC
  0
SECTION
  2
TABLES
  0
ENDSEC
  0
SECTION
  2
ENTITIES
  0
POLYLINE
  8
1
 66
1
 70
1
  0
VERTEX
  8
1
 10
3.312461
 20
7.627119
 42
-0.065459
  0
VERTEX
  8
1
 10
2.779178
 20
7.697344
 42
-0.065439
  0
VERTEX
  8
1
 10
2.282232
 20
7.903182
 42
-0.065452
  0
VERTEX
  8
1
 10
1.855497
 20
8.230627
 42
-0.065447
  0
VERTEX
  8
1
 10
1.528051
 20
8.657362
 42
-0.065448
  0
VERTEX
  8
1
 10
1.322210
 20
9.154306
 42
-0.065448
  0
VERTEX
  8
1
 10
1.252002
 20
9.687592
 42
-0.065448
  0
VERTEX
  8
1
 10
1.322210
 20
10.220878
 42
-0.065448
  0
VERTEX
  8
1
 10
1.528051
 20
10.717822
 42
-0.065448
  0
VERTEX
  8
1
 10
1.855497
 20
11.144557
 42
-0.065448
  0
VERTEX
  8
1
 10
2.282232
 20
11.472003
 42
-0.065448
  0
VERTEX
  8
1
 10
2.779176
 20
11.677843
 42
-0.065448
  0
VERTEX
  8
1
 10
3.312462
 20
11.748052
 42
-0.065448
  0
VERTEX
  8
1
 10
3.845748
 20
11.677843
 42
-0.065448
  0
VERTEX
  8
1
 10
4.342692
 20
11.472003
 42
-0.065448
  0
VERTEX
  8
1
 10
4.769427
 20
11.144557
 42
-0.065448
  0
VERTEX
  8
1
 10
5.096872
 20
10.717822
 42
-0.065448
  0
VERTEX
  8
1
 10
5.302713
 20
10.220878
 42
-0.065448
  0
VERTEX
  8
1
 10
5.372921
 20
9.687592
 42
-0.065448
  0
VERTEX
  8
1
 10
5.302713
 20
9.154306
 42
-0.065448
  0
VERTEX
  8
1
 10
5.096872
 20
8.657362
 42
-0.065445
  0
VERTEX
  8
1
 10
4.769427
 20
8.230626
 42
-0.065458
  0
VERTEX
  8
1
 10
4.342694
 20
7.903180
 42
-0.065436
  0
VERTEX
  8
1
 10
3.845743
 20
7.697356
 42
-0.065448
  0
SEQEND
  0
POLYLINE
  8
1
 66
1
 70
1
  0
VERTEX
  8
1
 10
3.312442
 20
11.449276
 42
-0.316507
  0
VERTEX
  8
1
 10
3.281251
 20
11.473210
 42
-0.330746
  0
VERTEX
  8
1
 10
3.296296
 20
11.509531
 42
-0.413823
  0
VERTEX
  8
1
 10
3.340406
 20
11.497712
 42
-0.441584
  0
VERTEX
  8
1
 10
3.328587
 20
11.453603
 42
-0.131396
  0
SEQEND
  0
POLYLINE
  8
1
 66
1
 70
1
  0
VERTEX
  8
1
 10
3.856835
 20
11.363056
 42
-0.410477
  0
VERTEX
  8
1
 10
3.836103
 20
11.403744
 42
-0.410481
  0
VERTEX
  8
1
 10
3.876792
 20
11.424476
 42
-0.410481
  0
VERTEX
  8
1
 10
3.897523
 20
11.383788
 42
-0.410471
  0
SEQEND
  0
POLYLINE
  8
1
 66
1
 70
1
  0
VERTEX
  8
1
 10
4.347926
 20
11.112821
 42
-0.519691
  0
VERTEX
  8
1
 10
4.346585
 20
11.164039
 42
-0.432986
  0
VERTEX
  8
1
 10
4.392001
 20
11.159265
 42
-0.432986
  0
VERTEX
  8
1
 10
4.387227
 20
11.113850
 42
-0.347630
  0
SEQEND
  0
POLYLINE
  8
1
 66
1
 70
1
  0
VERTEX
  8
1
 10
4.737695
 20
10.723057
 42
-0.435480
  0
VERTEX
  8
1
 10
4.744839
 20
10.768160
 42
-0.435489
  0
VERTEX
  8
1
 10
4.789943
 20
10.761016
 42
-0.435489
  0
VERTEX
  8
1
 10
4.782799
 20
10.715913
 42
-0.435483
  0
SEQEND
  0
POLYLINE
  8
1
 66
1
 70
1
  0
VERTEX
  8
1
 10
4.987925
 20
10.231956
 42
-0.356873
  0
VERTEX
  8
1
 10
5.001049
 20
10.269015
 42
-0.438673
  0
VERTEX
  8
1
 10
5.045716
 20
10.259521
 42
-0.438673
  0
VERTEX
  8
1
 10
5.036222
 20
10.214853
 42
-0.438681
  0
VERTEX
  8
1
 10
4.991554
 20
10.224348
  0
SEQEND
  0
POLYLINE
  8
1
 66
1
 70
1
  0
VERTEX
  8
1
 10
5.074166
 20
9.687566
 42
-0.316507
  0
VERTEX
  8
1
 10
5.098099
 20
9.718756
 42
-0.330746
  0
VERTEX
  8
1
 10
5.134421
 20
9.703711
 42
-0.441584
  0
VERTEX
  8
1
 10
5.122602
 20
9.659602
 42
-0.441584
  0
VERTEX
  8
1
 10
5.078492
 20
9.671421
 42
-0.131396
  0
SEQEND
  0
POLYLINE
  8
1
 66
1
 70
1
  0
VERTEX
  8
1
 10
4.987930
 20
9.143173
 42
-0.410477
  0
VERTEX
  8
1
 10
5.028618
 20
9.163904
 42
-0.410481
  0
VERTEX
  8
1
 10
5.049350
 20
9.123216
 42
-0.410481
  0
VERTEX
  8
1
 10
5.008662
 20
9.102484
 42
-0.410471
  0
SEQEND
  0
POLYLINE
  8
1
 66
1
 70
1
  0
VERTEX
  8
1
 10
4.737695
 20
8.652042
 42
-0.519691
  0
VERTEX
  8
1
 10
4.788913
 20
8.653383
 42
-0.432986
  0
VERTEX
  8
1
 10
4.784139
 20
8.607968
 42
-0.432986
  0
VERTEX
  8
1
 10
4.738724
 20
8.612741
 42
-0.347630
  0
SEQEND
  0
POLYLINE
  8
1
 66
1
 70
1
  0
VERTEX
  8
1
 10
4.347946
 20
8.262312
 42
-0.435480
  0
VERTEX
  8
1
 10
4.393050
 20
8.255169
 42
-0.435489
  0
VERTEX
  8
1
 10
4.385906
 20
8.210065
 42
-0.435489
  0
VERTEX
  8
1
 10
4.340803
 20
8.217209
 42
-0.435483
  0
SEQEND
  0
POLYLINE
  8
1
 66
1
 70
1
  0
VERTEX
  8
1
 10
3.856830
 20
8.012083
 42
-0.356873
  0
VERTEX
  8
1
 10
3.893889
 20
7.998959
 42
-0.438673
  0
VERTEX
  8
1
 10
3.884395
 20
7.954292
 42
-0.438673
  0
VERTEX
  8
1
 10
3.839727
 20
7.963786
 42
-0.438681
  0
VERTEX
  8
1
 10
3.849222
 20
8.008453
  0
SEQEND
  0
POLYLINE
  8
1
 66
1
 70
1
  0
VERTEX
  8
1
 10
3.312440
 20
7.925842
 42
-0.316507
  0
VERTEX
  8
1
 10
3.343630
 20
7.901909
 42
-0.330746
  0
VERTEX
  8
1
 10
3.328585
 20
7.865587
 42
-0.413823
  0
VERTEX
  8
1
 10
3.284476
 20
7.877406
 42
-0.441584
  0
VERTEX
  8
1
 10
3.296295
 20
7.921516
 42
-0.131396
  0
SEQEND
  0
POLYLINE
  8
1
 66
1
 70
1
  0
VERTEX
  8
1
 10
2.768047
 20
8.012078
 42
-0.410477
  0
VERTEX
  8
1
 10
2.788778
 20
7.971390
 42
-0.410481
  0
VERTEX
  8
1
 10
2.748090
 20
7.950658
 42
-0.410481
  0
VERTEX
  8
1
 10
2.727359
 20
7.991346
 42
-0.410471
  0
SEQEND
  0
POLYLINE
  8
1
 66
1
 70
1
  0
VERTEX
  8
1
 10
2.276955
 20
8.262313
 42
-0.519691
  0
VERTEX
  8
1
 10
2.278297
 20
8.211095
 42
-0.432986
  0
VERTEX
  8
1
 10
2.232881
 20
8.215869
 42
-0.432986
  0
VERTEX
  8
1
 10
2.237655
 20
8.261284
 42
-0.347630
  0
SEQEND
  0
POLYLINE
  8
1
 66
1
 70
1
  0
VERTEX
  8
1
 10
1.887186
 20
8.652077
 42
-0.435480
  0
VERTEX
  8
1
 10
1.880043
 20
8.606974
 42
-0.435489
  0
VERTEX
  8
1
 10
1.834939
 20
8.614118
 42
-0.435489
  0
VERTEX
  8
1
 10
1.842083
 20
8.659221
 42
-0.435483
  0
SEQEND
  0
POLYLINE
  8
1
 66
1
 70
1
  0
VERTEX
  8
1
 10
1.636957
 20
9.143178
 42
-0.356873
  0
VERTEX
  8
1
 10
1.623833
 20
9.106119
 42
-0.438673
  0
VERTEX
  8
1
 10
1.579166
 20
9.115613
 42
-0.438673
  0
VERTEX
  8
1
 10
1.588660
 20
9.160281
 42
-0.438681
  0
VERTEX
  8
1
 10
1.633328
 20
9.150786
  0
SEQEND
  0
POLYLINE
  8
1
 66
1
 70
1
  0
VERTEX
  8
1
 10
1.550716
 20
9.687568
 42
-0.316507
  0
VERTEX
  8
1
 10
1.526783
 20
9.656377
 42
-0.330746
  0
VERTEX
  8
1
 10
1.490461
 20
9.671422
 42
-0.441584
  0
VERTEX
  8
1
 10
1.502280
 20
9.715532
 42
-0.441584
  0
VERTEX
  8
1
 10
1.546390
 20
9.703713
 42
-0.131396
  0
SEQEND
  0
POLYLINE
  8
1
 66
1
 70
1
  0
VERTEX
  8
1
 10
1.636952
 20
10.231969
 42
-0.410477
  0
VERTEX
  8
1
 10
1.596264
 20
10.211237
 42
-0.410481
  0
VERTEX
  8
1
 10
1.575532
 20
10.251926
 42
-0.410481
  0
VERTEX
  8
1
 10
1.616220
 20
10.272657
 42
-0.410471
  0
SEQEND
  0
POLYLINE
  8
1
 66
1
 70
1
  0
VERTEX
  8
1
 10
1.887187
 20
10.723072
 42
-0.519691
  0
VERTEX
  8
1
 10
1.835969
 20
10.721731
 42
-0.432986
  0
VERTEX
  8
1
 10
1.840743
 20
10.767146
 42
-0.432986
  0
VERTEX
  8
1
 10
1.886158
 20
10.762373
 42
-0.347630
  0
SEQEND
  0
POLYLINE
  8
1
 66
1
 70
1
  0
VERTEX
  8
1
 10
2.276936
 20
11.112818
 42
-0.435480
  0
VERTEX
  8
1
 10
2.231832
 20
11.119961
 42
-0.435489
  0
VERTEX
  8
1
 10
2.238976
 20
11.165065
 42
-0.435489
  0
VERTEX
  8
1
 10
2.284079
 20
11.157921
 42
-0.435483
  0
SEQEND
  0
POLYLINE
  8
1
 66
1
 70
1
  0
VERTEX
  8
1
 10
2.768044
 20
11.363059
 42
-0.356873
  0
VERTEX
  8
1
 10
2.730985
 20
11.376182
 42
-0.438673
  0
VERTEX
  8
1
 10
2.740479
 20
11.420850
 42
-0.438673
  0
VERTEX
  8
1
 10
2.785147
 20
11.411356
 42
-0.438681
  0
VERTEX
  8
1
 10
2.775652
 20
11.366688
  0
SEQEND
  0
POLYLINE
  8
1
 66
1
 70
1
  0
VERTEX
  8
1
 10
8.062449
 20
7.627080
 42
-0.065459
  0
VERTEX
  8
1
 10
7.529166
 20
7.697305
 42
-0.065439
  0
VERTEX
  8
1
 10
7.032220
 20
7.903143
 42
-0.065452
  0
VERTEX
  8
1
 10
6.605485
 20
8.230588
 42
-0.065447
  0
VERTEX
  8
1
 10
6.278039
 20
8.657323
 42
-0.065448
  0
VERTEX
  8
1
 10
6.072199
 20
9.154267
 42
-0.065448
  0
VERTEX
  8
1
 10
6.001990
 20
9.687553
 42
-0.065448
  0
VERTEX
  8
1
 10
6.072199
 20
10.220839
 42
-0.065448
  0
VERTEX
  8
1
 10
6.278039
 20
10.717783
 42
-0.065448
  0
VERTEX
  8
1
 10
6.605485
 20
11.144518
 42
-0.065448
  0
VERTEX
  8
1
 10
7.032220
 20
11.471963
 42
-0.065448
  0
VERTEX
  8
1
 10
7.529164
 20
11.677804
 42
-0.065448
  0
VERTEX
  8
1
 10
8.062450
 20
11.748012
 42
-0.065448
  0
VERTEX
  8
1
 10
8.595736
 20
11.677804
 42
-0.065448
  0
VERTEX
  8
1
 10
9.092680
 20
11.471963
 42
-0.065448
  0
VERTEX
  8
1
 10
9.519415
 20
11.144518
 42
-0.065448
  0
VERTEX
  8
1
 10
9.846860
 20
10.717783
 42
-0.065448
  0
VERTEX
  8
1
 10
10.052701
 20
10.220839
 42
-0.065448
  0
VERTEX
  8
1
 10
10.122910
 20
9.687553
 42
-0.065448
  0
VERTEX
  8
1
 10
10.052701
 20
9.154267
 42
-0.065448
  0
VERTEX
  8
1
 10
9.846860
 20
8.657323
 42
-0.065445
  0
VERTEX
  8
1
 10
9.519416
 20
8.230586
 42
-0.065458
  0
VERTEX
  8
1
 10
9.092682
 20
7.903141
 42
-0.065436
  0
VERTEX
  8
1
 10
8.595731
 20
7.697317
 42
-0.065448
  0
SEQEND
  0
POLYLINE
  8
1
 66
1
 70
1
  0
VERTEX
  8
1
 10
8.062430
 20
11.449237
 42
-0.316507
  0
VERTEX
  8
1
 10
8.031240
 20
11.473170
 42
-0.330746
  0
VERTEX
  8
1
 10
8.046285
 20
11.509492
 42
-0.441584
  0
VERTEX
  8
1
 10
8.090394
 20
11.497673
 42
-0.441584
  0
VERTEX
  8
1
 10
8.078575
 20
11.453563
 42
-0.131396
  0
SEQEND
  0
POLYLINE
  8
1
 66
1
 70
1
  0
VERTEX
  8
1
 10
8.606823
 20
11.363016
 42
-0.410477
  0
VERTEX
  8
1
 10
8.586092
 20
11.403705
 42
-0.410481
  0
VERTEX
  8
1
 10
8.626780
 20
11.424437
 42
-0.410481
  0
VERTEX
  8
1
 10
8.647512
 20
11.383748
 42
-0.410471
  0
SEQEND
  0
POLYLINE
  8
1
 66
1
 70
1
  0
VERTEX
  8
1
 10
9.097915
 20
11.112781
 42
-0.519691
  0
VERTEX
  8
1
 10
9.096574
 20
11.163999
 42
-0.432986
  0
VERTEX
  8
1
 10
9.141989
 20
11.159226
 42
-0.432986
  0
VERTEX
  8
1
 10
9.137216
 20
11.113811
 42
-0.347630
  0
SEQEND
  0
POLYLINE
  8
1
 66
1
 70
1
  0
VERTEX
  8
1
 10
9.487684
 20
10.723017
 42
-0.435480
  0
VERTEX
  8
1
 10
9.494828
 20
10.768121
 42
-0.435489
  0
VERTEX
  8
1
 10
9.539931
 20
10.760977
 42
-0.435489
  0
VERTEX
  8
1
 10
9.532787
 20
10.715874
 42
-0.435483
  0
SEQEND
  0
POLYLINE
  8
1
 66
1
 70
1
  0
VERTEX
  8
1
 10
9.737913
 20
10.231917
 42
-0.356873
  0
VERTEX
  8
1
 10
9.751037
 20
10.268976
 42
-0.438673
  0
VERTEX
  8
1
 10
9.795704
 20
10.259481
 42
-0.438673
  0
VERTEX
  8
1
 10
9.786210
 20
10.214814
 42
-0.438681
  0
VERTEX
  8
1
 10
9.741543
 20
10.224308
  0
SEQEND
  0
POLYLINE
  8
1
 66
1
 70
1
  0
VERTEX
  8
1
 10
9.824154
 20
9.687527
 42
-0.316507
  0
VERTEX
  8
1
 10
9.848087
 20
9.718717
 42
-0.330746
  0
VERTEX
  8
1
 10
9.884409
 20
9.703672
 42
-0.441584
  0
VERTEX
  8
1
 10
9.872590
 20
9.659563
 42
-0.441584
  0
VERTEX
  8
1
 10
9.828481
 20
9.671382
 42
-0.131396
  0
SEQEND
  0
POLYLINE
  8
1
 66
1
 70
1
  0
VERTEX
  8
1
 10
9.737918
 20
9.143133
 42
-0.410477
  0
VERTEX
  8
1
 10
9.778606
 20
9.163865
 42
-0.410481
  0
VERTEX
  8
1
 10
9.799338
 20
9.123177
 42
-0.410481
  0
VERTEX
  8
1
 10
9.758650
 20
9.102445
 42
-0.410471
  0
SEQEND
  0
POLYLINE
  8
1
 66
1
 70
1
  0
VERTEX
  8
1
 10
9.487683
 20
8.652003
 42
-0.519691
  0
VERTEX
  8
1
 10
9.538901
 20
8.653344
 42
-0.432986
  0
VERTEX
  8
1
 10
9.534127
 20
8.607928
 42
-0.432986
  0
VERTEX
  8
1
 10
9.488712
 20
8.612702
 42
-0.347630
  0
SEQEND
  0
POLYLINE
  8
1
 66
1
 70
1
  0
VERTEX
  8
1
 10
9.097935
 20
8.262273
 42
-0.435480
  0
VERTEX
  8
1
 10
9.143038
 20
8.255129
 42
-0.435489
  0
VERTEX
  8
1
 10
9.135894
 20
8.210026
 42
-0.435489
  0
VERTEX
  8
1
 10
9.090791
 20
8.217170
 42
-0.435483
  0
SEQEND
  0
POLYLINE
  8
1
 66
1
 70
1
  0
VERTEX
  8
1
 10
8.606818
 20
8.012044
 42
-0.356873
  0
VERTEX
  8
1
 10
8.643877
 20
7.998920
 42
-0.438673
  0
VERTEX
  8
1
 10
8.634383
 20
7.954252
 42
-0.438673
  0
VERTEX
  8
1
 10
8.589715
 20
7.963747
 42
-0.438681
  0
VERTEX
  8
1
 10
8.599210
 20
8.008414
  0
SEQEND
  0
POLYLINE
  8
1
 66
1
 70
1
  0
VERTEX
  8
1
 10
8.062429
 20
7.925802
 42
-0.316507
  0
VERTEX
  8
1
 10
8.093619
 20
7.901869
 42
-0.330746
  0
VERTEX
  8
1
 10
8.078574
 20
7.865548
 42
-0.413823
  0
VERTEX
  8
1
 10
8.034464
 20
7.877367
 42
-0.441584
  0
VERTEX
  8
1
 10
8.046283
 20
7.921476
 42
-0.131396
  0
SEQEND
  0
POLYLINE
  8
1
 66
1
 70
1
  0
VERTEX
  8
1
 10
7.518035
 20
8.012039
 42
-0.410477
  0
VERTEX
  8
1
 10
7.538767
 20
7.971350
 42
-0.410481
  0
VERTEX
  8
1
 10
7.498078
 20
7.950619
 42
-0.410481
  0
VERTEX
  8
1
 10
7.477347
 20
7.991307
 42
-0.410471
  0
SEQEND
  0
POLYLINE
  8
1
 66
1
 70
1
  0
VERTEX
  8
1
 10
7.026944
 20
8.262274
 42
-0.519691
  0
VERTEX
  8
1
 10
7.028285
 20
8.211056
 42
-0.432986
  0
VERTEX
  8
1
 10
6.982869
 20
8.215829
 42
-0.432986
  0
VERTEX
  8
1
 10
6.987643
 20
8.261245
 42
-0.347630
  0
SEQEND
  0
POLYLINE
  8
1
 66
1
 70
1
  0
VERTEX
  8
1
 10
6.637175
 20
8.652038
 42
-0.435480
  0
VERTEX
  8
1
 10
6.630031
 20
8.606935
 42
-0.435489
  0
VERTEX
  8
1
 10
6.584928
 20
8.614078
 42
-0.435489
  0
VERTEX
  8
1
 10
6.592071
 20
8.659181
 42
-0.435483
  0
SEQEND
  0
POLYLINE
  8
1
 66
1
 70
1
  0
VERTEX
  8
1
 10
6.386945
 20
9.143139
 42
-0.356873
  0
VERTEX
  8
1
 10
6.373822
 20
9.106079
 42
-0.438673
  0
VERTEX
  8
1
 10
6.329154
 20
9.115574
 42
-0.438673
  0
VERTEX
  8
1
 10
6.338648
 20
9.160241
 42
-0.438681
  0
VERTEX
  8
1
 10
6.383316
 20
9.150747
  0
SEQEND
  0
POLYLINE
  8
1
 66
1
 70
1
  0
VERTEX
  8
1
 10
6.300704
 20
9.687528
 42
-0.316507
  0
VERTEX
  8
1
 10
6.276771
 20
9.656338
 42
-0.330746
  0
VERTEX
  8
1
 10
6.240449
 20
9.671383
 42
-0.441584
  0
VERTEX
  8
1
 10
6.252268
 20
9.715492
 42
-0.441584
  0
VERTEX
  8
1
 10
6.296378
 20
9.703673
 42
-0.131396
  0
SEQEND
  0
POLYLINE
  8
1
 66
1
 70
1
  0
VERTEX
  8
1
 10
6.386940
 20
10.231930
 42
-0.410477
  0
VERTEX
  8
1
 10
6.346252
 20
10.211198
 42
-0.410481
  0
VERTEX
  8
1
 10
6.325520
 20
10.251886
 42
-0.410481
  0
VERTEX
  8
1
 10
6.366208
 20
10.272618
 42
-0.410471
  0
SEQEND
  0
POLYLINE
  8
1
 66
1
 70
1
  0
VERTEX
  8
1
 10
6.637175
 20
10.723033
 42
-0.519691
  0
VERTEX
  8
1
 10
6.585958
 20
10.721692
 42
-0.432986
  0
VERTEX
  8
1
 10
6.590731
 20
10.767107
 42
-0.432986
  0
VERTEX
  8
1
 10
6.636146
 20
10.762334
 42
-0.347630
  0
SEQEND
  0
POLYLINE
  8
1
 66
1
 70
1
  0
VERTEX
  8
1
 10
7.026924
 20
11.112778
 42
-0.435480
  0
VERTEX
  8
1
 10
6.981820
 20
11.119922
 42
-0.435489
  0
VERTEX
  8
1
 10
6.988964
 20
11.165025
 42
-0.435489
  0
VERTEX
  8
1
 10
7.034067
 20
11.157882
 42
-0.435483
  0
SEQEND
  0
POLYLINE
  8
1
 66
1
 70
1
  0
VERTEX
  8
1
 10
7.518032
 20
11.363019
 42
-0.356873
  0
VERTEX
  8
1
 10
7.480973
 20
11.376143
 42
-0.438673
  0
VERTEX
  8
1
 10
7.490467
 20
11.420811
 42
-0.438673
  0
VERTEX
  8
1
 10
7.535135
 20
11.411316
 42
-0.438681
  0
VERTEX
  8
1
 10
7.525640
 20
11.366649
  0
SEQEND
  0
POLYLINE
  8
1
 66
1
 70
1
  0
VERTEX
  8
1
 10
12.937540
 20
7.689529
 42
-0.065459
  0
VERTEX
  8
1
 10
12.404256
 20
7.759754
 42
-0.065439
  0
VERTEX
  8
1
 10
11.907310
 20
7.965592
 42
-0.065452
  0
VERTEX
  8
1
 10
11.480575
 20
8.293036
 42
-0.065447
  0
VERTEX
  8
1
 10
11.153130
 20
8.719772
 42
-0.065448
  0
VERTEX
  8
1
 10
10.947289
 20
9.216715
 42
-0.065448
  0
VERTEX
  8
1
 10
10.877081
 20
9.750002
 42
-0.065448
  0
VERTEX
  8
1
 10
10.947289
 20
10.283288
 42
-0.065448
  0
VERTEX
  8
1
 10
11.153130
 20
10.780231
 42
-0.065448
  0
VERTEX
  8
1
 10
11.480575
 20
11.206967
 42
-0.065448
  0
VERTEX
  8
1
 10
11.907311
 20
11.534412
 42
-0.065448
  0
VERTEX
  8
1
 10
12.404254
 20
11.740253
 42
-0.065448
  0
VERTEX
  8
1
 10
12.937540
 20
11.810461
 42
-0.065448
  0
VERTEX
  8
1
 10
13.470827
 20
11.740253
 42
-0.065448
  0
VERTEX
  8
1
 10
13.967770
 20
11.534412
 42
-0.065448
  0
VERTEX
  8
1
 10
14.394506
 20
11.206967
 42
-0.065448
  0
VERTEX
  8
1
 10
14.721951
 20
10.780231
 42
-0.065448
  0
VERTEX
  8
1
 10
14.927792
 20
10.283288
 42
-0.065448
  0
VERTEX
  8
1
 10
14.998000
 20
9.750002
 42
-0.065448
  0
VERTEX
  8
1
 10
14.927792
 20
9.216715
 42
-0.065448
  0
VERTEX
  8
1
 10
14.721951
 20
8.719772
 42
-0.065445
  0
VERTEX
  8
1
 10
14.394506
 20
8.293035
 42
-0.065458
  0
VERTEX
  8
1
 10
13.967773
 20
7.965590
 42
-0.065436
  0
VERTEX
  8
1
 10
13.470822
 20
7.759766
 42
-0.065448
  0
SEQEND
  0
POLYLINE
  8
1
 66
1
 70
1
  0
VERTEX
  8
1
 10
12.937520
 20
11.511686
 42
-0.316507
  0
VERTEX
  8
1
 10
12.906330
 20
11.535619
 42
-0.330746
  0
VERTEX
  8
1
 10
12.921375
 20
11.571941
 42
-0.413823
  0
VERTEX
  8
1
 10
12.965485
 20
11.560122
 42
-0.441584
  0
VERTEX
  8
1
 10
12.953666
 20
11.516012
 42
-0.131396
  0
SEQEND
  0
POLYLINE
  8
1
 66
1
 70
1
  0
VERTEX
  8
1
 10
13.481914
 20
11.425465
 42
-0.410477
  0
VERTEX
  8
1
 10
13.461182
 20
11.466154
 42
-0.410481
  0
VERTEX
  8
1
 10
13.501870
 20
11.486885
 42
-0.410481
  0
VERTEX
  8
1
 10
13.522602
 20
11.446197
 42
-0.410471
  0
SEQEND
  0
POLYLINE
  8
1
 66
1
 70
1
  0
VERTEX
  8
1
 10
13.973005
 20
11.175230
 42
-0.519691
  0
VERTEX
  8
1
 10
13.971664
 20
11.226448
 42
-0.432986
  0
VERTEX
  8
1
 10
14.017079
 20
11.221675
 42
-0.432986
  0
VERTEX
  8
1
 10
14.012306
 20
11.176259
 42
-0.347630
  0
SEQEND
  0
POLYLINE
  8
1
 66
1
 70
1
  0
VERTEX
  8
1
 10
14.362774
 20
10.785466
 42
-0.435480
  0
VERTEX
  8
1
 10
14.369918
 20
10.830569
 42
-0.435489
  0
VERTEX
  8
1
 10
14.415021
 20
10.823426
 42
-0.435489
  0
VERTEX
  8
1
 10
14.407878
 20
10.778322
 42
-0.435483
  0
SEQEND
  0
POLYLINE
  8
1
 66
1
 70
1
  0
VERTEX
  8
1
 10
14.613004
 20
10.294365
 42
-0.356873
  0
VERTEX
  8
1
 10
14.626127
 20
10.331425
 42
-0.438673
  0
VERTEX
  8
1
 10
14.670795
 20
10.321930
 42
-0.438673
  0
VERTEX
  8
1
 10
14.661301
 20
10.277263
 42
-0.438681
  0
VERTEX
  8
1
 10
14.616633
 20
10.286757
  0
SEQEND
  0
POLYLINE
  8
1
 66
1
 70
1
  0
VERTEX
  8
1
 10
14.699245
 20
9.749976
 42
-0.316507
  0
VERTEX
  8
1
 10
14.723178
 20
9.781166
 42
-0.330746
  0
VERTEX
  8
1
 10
14.759500
 20
9.766121
 42
-0.413823
  0
VERTEX
  8
1
 10
14.747681
 20
9.722011
 42
-0.441584
  0
VERTEX
  8
1
 10
14.703571
 20
9.733831
 42
-0.131396
  0
SEQEND
  0
POLYLINE
  8
1
 66
1
 70
1
  0
VERTEX
  8
1
 10
14.613009
 20
9.205582
 42
-0.410477
  0
VERTEX
  8
1
 10
14.653697
 20
9.226314
 42
-0.410481
  0
VERTEX
  8
1
 10
14.674429
 20
9.185626
 42
-0.410481
  0
VERTEX
  8
1
 10
14.633740
 20
9.164894
 42
-0.410471
  0
SEQEND
  0
POLYLINE
  8
1
 66
1
 70
1
  0
VERTEX
  8
1
 10
14.362773
 20
8.714452
 42
-0.519691
  0
VERTEX
  8
1
 10
14.413991
 20
8.715793
 42
-0.432986
  0
VERTEX
  8
1
 10
14.409218
 20
8.670377
 42
-0.432986
  0
VERTEX
  8
1
 10
14.363803
 20
8.675151
 42
-0.347630
  0
SEQEND
  0
POLYLINE
  8
1
 66
1
 70
1
  0
VERTEX
  8
1
 10
13.973025
 20
8.324722
 42
-0.435480
  0
VERTEX
  8
1
 10
14.018128
 20
8.317578
 42
-0.435489
  0
VERTEX
  8
1
 10
14.010985
 20
8.272475
 42
-0.435489
  0
VERTEX
  8
1
 10
13.965882
 20
8.279618
 42
-0.435483
  0
SEQEND
  0
POLYLINE
  8
1
 66
1
 70
1
  0
VERTEX
  8
1
 10
13.481909
 20
8.074492
 42
-0.356873
  0
VERTEX
  8
1
 10
13.518968
 20
8.061369
 42
-0.438673
  0
VERTEX
  8
1
 10
13.509474
 20
8.016701
 42
-0.438673
  0
VERTEX
  8
1
 10
13.464806
 20
8.026196
 42
-0.438681
  0
VERTEX
  8
1
 10
13.474301
 20
8.070863
  0
SEQEND
  0
POLYLINE
  8
1
 66
1
 70
1
  0
VERTEX
  8
1
 10
12.937519
 20
7.988251
 42
-0.316507
  0
VERTEX
  8
1
 10
12.968709
 20
7.964318
 42
-0.330746
  0
VERTEX
  8
1
 10
12.953664
 20
7.927996
 42
-0.413823
  0
VERTEX
  8
1
 10
12.909555
 20
7.939815
 42
-0.441584
  0
VERTEX
  8
1
 10
12.921374
 20
7.983925
 42
-0.131396
  0
SEQEND
  0
POLYLINE
  8
1
 66
1
 70
1
  0
VERTEX
  8
1
 10
12.393126
 20
8.074488
 42
-0.410477
  0
VERTEX
  8
1
 10
12.413857
 20
8.033799
 42
-0.410481
  0
VERTEX
  8
1
 10
12.373169
 20
8.013067
 42
-0.410481
  0
VERTEX
  8
1
 10
12.352437
 20
8.053756
 42
-0.410471
  0
SEQEND
  0
POLYLINE
  8
1
 66
1
 70
1
  0
VERTEX
  8
1
 10
11.902034
 20
8.324723
 42
-0.519691
  0
VERTEX
  8
1
 10
11.903375
 20
8.273505
 42
-0.432986
  0
VERTEX
  8
1
 10
11.857960
 20
8.278278
 42
-0.432986
  0
VERTEX
  8
1
 10
11.862733
 20
8.323693
 42
-0.347630
  0
SEQEND
  0
POLYLINE
  8
1
 66
1
 70
1
  0
VERTEX
  8
1
 10
11.512265
 20
8.714487
 42
-0.435480
  0
VERTEX
  8
1
 10
11.505121
 20
8.669383
 42
-0.435489
  0
VERTEX
  8
1
 10
11.460018
 20
8.676527
 42
-0.435489
  0
VERTEX
  8
1
 10
11.467162
 20
8.721630
 42
-0.435483
  0
SEQEND
  0
POLYLINE
  8
1
 66
1
 70
1
  0
VERTEX
  8
1
 10
11.262036
 20
9.205587
 42
-0.356873
  0
VERTEX
  8
1
 10
11.248912
 20
9.168528
 42
-0.438673
  0
VERTEX
  8
1
 10
11.204244
 20
9.178023
 42
-0.438673
  0
VERTEX
  8
1
 10
11.213739
 20
9.222690
 42
-0.438681
  0
VERTEX
  8
1
 10
11.258406
 20
9.213196
  0
SEQEND
  0
POLYLINE
  8
1
 66
1
 70
1
  0
VERTEX
  8
1
 10
11.175795
 20
9.749977
 42
-0.316507
  0
VERTEX
  8
1
 10
11.151861
 20
9.718787
 42
-0.330746
  0
VERTEX
  8
1
 10
11.115540
 20
9.733832
 42
-0.441584
  0
VERTEX
  8
1
 10
11.127359
 20
9.777941
 42
-0.441584
  0
VERTEX
  8
1
 10
11.171468
 20
9.766122
 42
-0.131396
  0
SEQEND
  0
POLYLINE
  8
1
 66
1
 70
1
  0
VERTEX
  8
1
 10
11.262031
 20
10.294378
 42
-0.410477
  0
VERTEX
  8
1
 10
11.221342
 20
10.273647
 42
-0.410481
  0
VERTEX
  8
1
 10
11.200611
 20
10.314335
 42
-0.410481
  0
VERTEX
  8
1
 10
11.241299
 20
10.335067
 42
-0.410471
  0
SEQEND
  0
POLYLINE
  8
1
 66
1
 70
1
  0
VERTEX
  8
1
 10
11.512266
 20
10.785482
 42
-0.519691
  0
VERTEX
  8
1
 10
11.461048
 20
10.784141
 42
-0.432986
  0
VERTEX
  8
1
 10
11.465821
 20
10.829556
 42
-0.432986
  0
VERTEX
  8
1
 10
11.511237
 20
10.824782
 42
-0.347630
  0
SEQEND
  0
POLYLINE
  8
1
 66
1
 70
1
  0
VERTEX
  8
1
 10
11.902014
 20
11.175227
 42
-0.435480
  0
VERTEX
  8
1
 10
11.856911
 20
11.182371
 42
-0.435489
  0
VERTEX
  8
1
 10
11.864055
 20
11.227474
 42
-0.435489
  0
VERTEX
  8
1
 10
11.909158
 20
11.220330
 42
-0.435483
  0
SEQEND
  0
POLYLINE
  8
1
 66
1
 70
1
  0
VERTEX
  8
1
 10
12.393123
 20
11.425468
 42
-0.356873
  0
VERTEX
  8
1
 10
12.356064
 20
11.438592
 42
-0.438673
  0
VERTEX
  8
1
 10
12.365558
 20
11.483259
 42
-0.438673
  0
VERTEX
  8
1
 10
12.410226
 20
11.473765
 42
-0.438681
  0
VERTEX
  8
1
 10
12.400731
 20
11.429098
  0
SEQEND
  0
POLYLINE
  8
1
 66
1
 70
1
  0
VERTEX
  8
1
 10
5.687552
 20
3.877079
 42
-0.065459
  0
VERTEX
  8
1
 10
5.154268
 20
3.947304
 42
-0.065439
  0
VERTEX
  8
1
 10
4.657322
 20
4.153142
 42
-0.065452
  0
VERTEX
  8
1
 10
4.230587
 20
4.480587
 42
-0.065447
  0
VERTEX
  8
1
 10
3.903142
 20
4.907322
 42
-0.065448
  0
VERTEX
  8
1
 10
3.697301
 20
5.404266
 42
-0.065448
  0
VERTEX
  8
1
 10
3.627093
 20
5.937552
 42
-0.065448
  0
VERTEX
  8
1
 10
3.697301
 20
6.470838
 42
-0.065448
  0
VERTEX
  8
1
 10
3.903142
 20
6.967782
 42
-0.065448
  0
VERTEX
  8
1
 10
4.230587
 20
7.394517
 42
-0.065448
  0
VERTEX
  8
1
 10
4.657322
 20
7.721962
 42
-0.065448
  0
VERTEX
  8
1
 10
5.154266
 20
7.927803
 42
-0.065448
  0
VERTEX
  8
1
 10
5.687552
 20
7.998012
 42
-0.065448
  0
VERTEX
  8
1
 10
6.220839
 20
7.927803
 42
-0.065448
  0
VERTEX
  8
1
 10
6.717782
 20
7.721962
 42
-0.065448
  0
VERTEX
  8
1
 10
7.144517
 20
7.394517
 42
-0.065448
  0
VERTEX
  8
1
 10
7.471963
 20
6.967782
 42
-0.065448
  0
VERTEX
  8
1
 10
7.677804
 20
6.470838
 42
-0.065448
  0
VERTEX
  8
1
 10
7.748012
 20
5.937552
 42
-0.065448
  0
VERTEX
  8
1
 10
7.677804
 20
5.404266
 42
-0.065448
  0
VERTEX
  8
1
 10
7.471963
 20
4.907322
 42
-0.065445
  0
VERTEX
  8
1
 10
7.144518
 20
4.480586
 42
-0.065458
  0
VERTEX
  8
1
 10
6.717784
 20
4.153140
 42
-0.065436
  0
VERTEX
  8
1
 10
6.220834
 20
3.947316
 42
-0.065448
  0
SEQEND
  0
POLYLINE
  8
1
 66
1
 70
1
  0
VERTEX
  8
1
 10
5.687532
 20
7.699236
 42
-0.316507
  0
VERTEX
  8
1
 10
5.656342
 20
7.723169
 42
-0.330746
  0
VERTEX
  8
1
 10
5.671387
 20
7.759491
 42
-0.413823
  0
VERTEX
  8
1
 10
5.715496
 20
7.747672
 42
-0.441584
  0
VERTEX
  8
1
 10
5.703677
 20
7.703562
 42
-0.131396
  0
SEQEND
  0
POLYLINE
  8
1
 66
1
 70
1
  0
VERTEX
  8
1
 10
6.231926
 20
7.613016
 42
-0.410477
  0
VERTEX
  8
1
 10
6.211194
 20
7.653704
 42
-0.410481
  0
VERTEX
  8
1
 10
6.251882
 20
7.674436
 42
-0.410481
  0
VERTEX
  8
1
 10
6.272614
 20
7.633748
 42
-0.410471
  0
SEQEND
  0
POLYLINE
  8
1
 66
1
 70
1
  0
VERTEX
  8
1
 10
6.723017
 20
7.362780
 42
-0.519691
  0
VERTEX
  8
1
 10
6.721676
 20
7.413998
 42
-0.432986
  0
VERTEX
  8
1
 10
6.767091
 20
7.409225
 42
-0.432986
  0
VERTEX
  8
1
 10
6.762318
 20
7.363810
 42
-0.347630
  0
SEQEND
  0
POLYLINE
  8
1
 66
1
 70
1
  0
VERTEX
  8
1
 10
7.112786
 20
6.973016
 42
-0.435480
  0
VERTEX
  8
1
 10
7.119930
 20
7.018120
 42
-0.435489
  0
VERTEX
  8
1
 10
7.165033
 20
7.010976
 42
-0.435489
  0
VERTEX
  8
1
 10
7.157889
 20
6.965873
 42
-0.435483
  0
SEQEND
  0
POLYLINE
  8
1
 66
1
 70
1
  0
VERTEX
  8
1
 10
7.363016
 20
6.481916
 42
-0.356873
  0
VERTEX
  8
1
 10
7.376139
 20
6.518975
 42
-0.438673
  0
VERTEX
  8
1
 10
7.420807
 20
6.509481
 42
-0.438673
  0
VERTEX
  8
1
 10
7.411312
 20
6.464813
 42
-0.438681
  0
VERTEX
  8
1
 10
7.366645
 20
6.474308
  0
SEQEND
  0
POLYLINE
  8
1
 66
1
 70
1
  0
VERTEX
  8
1
 10
7.449257
 20
5.937526
 42
-0.316507
  0
VERTEX
  8
1
 10
7.473190
 20
5.968716
 42
-0.330746
  0
VERTEX
  8
1
 10
7.509511
 20
5.953671
 42
-0.441584
  0
VERTEX
  8
1
 10
7.497692
 20
5.909562
 42
-0.441584
  0
VERTEX
  8
1
 10
7.453583
 20
5.921381
 42
-0.131396
  0
SEQEND
  0
POLYLINE
  8
1
 66
1
 70
1
  0
VERTEX
  8
1
 10
7.363020
 20
5.393133
 42
-0.410477
  0
VERTEX
  8
1
 10
7.403709
 20
5.413864
 42
-0.410481
  0
VERTEX
  8
1
 10
7.424440
 20
5.373176
 42
-0.410481
  0
VERTEX
  8
1
 10
7.383752
 20
5.352444
 42
-0.410471
  0
SEQEND
  0
POLYLINE
  8
1
 66
1
 70
1
  0
VERTEX
  8
1
 10
7.112785
 20
4.902002
 42
-0.519691
  0
VERTEX
  8
1
 10
7.164003
 20
4.903343
 42
-0.432986
  0
VERTEX
  8
1
 10
7.159230
 20
4.857928
 42
-0.432986
  0
VERTEX
  8
1
 10
7.113814
 20
4.862701
 42
-0.347630
  0
SEQEND
  0
POLYLINE
  8
1
 66
1
 70
1
  0
VERTEX
  8
1
 10
6.723037
 20
4.512272
 42
-0.435480
  0
VERTEX
  8
1
 10
6.768140
 20
4.505128
 42
-0.435489
  0
VERTEX
  8
1
 10
6.760997
 20
4.460025
 42
-0.435489
  0
VERTEX
  8
1
 10
6.715893
 20
4.467169
 42
-0.435483
  0
SEQEND
  0
POLYLINE
  8
1
 66
1
 70
1
  0
VERTEX
  8
1
 10
6.231920
 20
4.262043
 42
-0.356873
  0
VERTEX
  8
1
 10
6.268980
 20
4.248919
 42
-0.438673
  0
VERTEX
  8
1
 10
6.259485
 20
4.204252
 42
-0.438673
  0
VERTEX
  8
1
 10
6.214818
 20
4.213746
 42
-0.438681
  0
VERTEX
  8
1
 10
6.224312
 20
4.258413
  0
SEQEND
  0
POLYLINE
  8
1
 66
1
 70
1
  0
VERTEX
  8
1
 10
5.687531
 20
4.175802
 42
-0.316507
  0
VERTEX
  8
1
 10
5.718721
 20
4.151868
 42
-0.330746
  0
VERTEX
  8
1
 10
5.703676
 20
4.115547
 42
-0.413823
  0
VERTEX
  8
1
 10
5.659567
 20
4.127366
 42
-0.441584
  0
VERTEX
  8
1
 10
5.671386
 20
4.171475
 42
-0.131396
  0
SEQEND
  0
POLYLINE
  8
1
 66
1
 70
1
  0
VERTEX
  8
1
 10
5.143137
 20
4.262038
 42
-0.410477
  0
VERTEX
  8
1
 10
5.163869
 20
4.221350
 42
-0.410481
  0
VERTEX
  8
1
 10
5.123181
 20
4.200618
 42
-0.410481
  0
VERTEX
  8
1
 10
5.102449
 20
4.241306
 42
-0.410471
  0
SEQEND
  0
POLYLINE
  8
1
 66
1
 70
1
  0
VERTEX
  8
1
 10
4.652046
 20
4.512273
 42
-0.519691
  0
VERTEX
  8
1
 10
4.653387
 20
4.461055
 42
-0.432986
  0
VERTEX
  8
1
 10
4.607972
 20
4.465829
 42
-0.432986
  0
VERTEX
  8
1
 10
4.612745
 20
4.511244
 42
-0.347630
  0
SEQEND
  0
POLYLINE
  8
1
 66
1
 70
1
  0
VERTEX
  8
1
 10
4.262277
 20
4.902037
 42
-0.435480
  0
VERTEX
  8
1
 10
4.255133
 20
4.856934
 42
-0.435489
  0
VERTEX
  8
1
 10
4.210030
 20
4.864077
 42
-0.435489
  0
VERTEX
  8
1
 10
4.217174
 20
4.909181
 42
-0.435483
  0
SEQEND
  0
POLYLINE
  8
1
 66
1
 70
1
  0
VERTEX
  8
1
 10
4.012047
 20
5.393138
 42
-0.356873
  0
VERTEX
  8
1
 10
3.998924
 20
5.356079
 42
-0.438673
  0
VERTEX
  8
1
 10
3.954256
 20
5.365573
 42
-0.438673
  0
VERTEX
  8
1
 10
3.963751
 20
5.410240
 42
-0.438681
  0
VERTEX
  8
1
 10
4.008418
 20
5.400746
  0
SEQEND
  0
POLYLINE
  8
1
 66
1
 70
1
  0
VERTEX
  8
1
 10
3.925806
 20
5.937527
 42
-0.316507
  0
VERTEX
  8
1
 10
3.901873
 20
5.906337
 42
-0.330746
  0
VERTEX
  8
1
 10
3.865552
 20
5.921382
 42
-0.413823
  0
VERTEX
  8
1
 10
3.877371
 20
5.965492
 42
-0.441584
  0
VERTEX
  8
1
 10
3.921480
 20
5.953673
 42
-0.131396
  0
SEQEND
  0
POLYLINE
  8
1
 66
1
 70
1
  0
VERTEX
  8
1
 10
4.012043
 20
6.481929
 42
-0.410477
  0
VERTEX
  8
1
 10
3.971354
 20
6.461197
 42
-0.410481
  0
VERTEX
  8
1
 10
3.950623
 20
6.501885
 42
-0.410481
  0
VERTEX
  8
1
 10
3.991311
 20
6.522617
 42
-0.410471
  0
SEQEND
  0
POLYLINE
  8
1
 66
1
 70
1
  0
VERTEX
  8
1
 10
4.262278
 20
6.973032
 42
-0.519691
  0
VERTEX
  8
1
 10
4.211060
 20
6.971691
 42
-0.432986
  0
VERTEX
  8
1
 10
4.215833
 20
7.017106
 42
-0.432986
  0
VERTEX
  8
1
 10
4.261249
 20
7.012333
 42
-0.347630
  0
SEQEND
  0
POLYLINE
  8
1
 66
1
 70
1
  0
VERTEX
  8
1
 10
4.652026
 20
7.362777
 42
-0.435480
  0
VERTEX
  8
1
 10
4.606923
 20
7.369921
 42
-0.435489
  0
VERTEX
  8
1
 10
4.614066
 20
7.415024
 42
-0.435489
  0
VERTEX
  8
1
 10
4.659170
 20
7.407881
 42
-0.435483
  0
SEQEND
  0
POLYLINE
  8
1
 66
1
 70
1
  0
VERTEX
  8
1
 10
5.143135
 20
7.613019
 42
-0.356873
  0
VERTEX
  8
1
 10
5.106075
 20
7.626142
 42
-0.438673
  0
VERTEX
  8
1
 10
5.115570
 20
7.670810
 42
-0.438673
  0
VERTEX
  8
1
 10
5.160237
 20
7.661315
 42
-0.438681
  0
VERTEX
  8
1
 10
5.150743
 20
7.616648
  0
SEQEND
  0
POLYLINE
  8
1
 66
1
 70
1
  0
VERTEX
  8
1
 10
10.499981
 20
3.877079
 42
-0.065459
  0
VERTEX
  8
1
 10
9.966697
 20
3.947304
 42
-0.065439
  0
VERTEX
  8
1
 10
9.469751
 20
4.153142
 42
-0.065452
  0
VERTEX
  8
1
 10
9.043016
 20
4.480587
 42
-0.065447
  0
VERTEX
  8
1
 10
8.715571
 20
4.907322
 42
-0.065448
  0
VERTEX
  8
1
 10
8.509730
 20
5.404266
 42
-0.065448
  0
VERTEX
  8
1
 10
8.439522
 20
5.937552
 42
-0.065448
  0
VERTEX
  8
1
 10
8.509730
 20
6.470838
 42
-0.065448
  0
VERTEX
  8
1
 10
8.715571
 20
6.967782
 42
-0.065448
  0
VERTEX
  8
1
 10
9.043016
 20
7.394517
 42
-0.065448
  0
VERTEX
  8
1
 10
9.469752
 20
7.721962
 42
-0.065448
  0
VERTEX
  8
1
 10
9.966695
 20
7.927803
 42
-0.065448
  0
VERTEX
  8
1
 10
10.499981
 20
7.998012
 42
-0.065448
  0
VERTEX
  8
1
 10
11.033268
 20
7.927803
 42
-0.065448
  0
VERTEX
  8
1
 10
11.530211
 20
7.721962
 42
-0.065448
  0
VERTEX
  8
1
 10
11.956946
 20
7.394517
 42
-0.065448
  0
VERTEX
  8
1
 10
12.284392
 20
6.967782
 42
-0.065448
  0
VERTEX
  8
1
 10
12.490233
 20
6.470838
 42
-0.065448
  0
VERTEX
  8
1
 10
12.560441
 20
5.937552
 42
-0.065448
  0
VERTEX
  8
1
 10
12.490233
 20
5.404266
 42
-0.065448
  0
VERTEX
  8
1
 10
12.284392
 20
4.907322
 42
-0.065445
  0
VERTEX
  8
1
 10
11.956947
 20
4.480586
 42
-0.065458
  0
VERTEX
  8
1
 10
11.530214
 20
4.153140
 42
-0.065436
  0
VERTEX
  8
1
 10
11.033263
 20
3.947316
 42
-0.065448
  0
SEQEND
  0
POLYLINE
  8
1
 66
1
 70
1
  0
VERTEX
  8
1
 10
10.499961
 20
7.699236
 42
-0.316507
  0
VERTEX
  8
1
 10
10.468771
 20
7.723169
 42
-0.330746
  0
VERTEX
  8
1
 10
10.483816
 20
7.759491
 42
-0.413823
  0
VERTEX
  8
1
 10
10.527926
 20
7.747672
 42
-0.441584
  0
VERTEX
  8
1
 10
10.516106
 20
7.703562
 42
-0.131396
  0
SEQEND
  0
POLYLINE
  8
1
 66
1
 70
1
  0
VERTEX
  8
1
 10
11.044355
 20
7.613016
 42
-0.410477
  0
VERTEX
  8
1
 10
11.023623
 20
7.653704
 42
-0.410481
  0
VERTEX
  8
1
 10
11.064311
 20
7.674436
 42
-0.410481
  0
VERTEX
  8
1
 10
11.085043
 20
7.633748
 42
-0.410471
  0
SEQEND
  0
POLYLINE
  8
1
 66
1
 70
1
  0
VERTEX
  8
1
 10
11.535446
 20
7.362780
 42
-0.519691
  0
VERTEX
  8
1
 10
11.534105
 20
7.413998
 42
-0.432986
  0
VERTEX
  8
1
 10
11.579520
 20
7.409225
 42
-0.432986
  0
VERTEX
  8
1
 10
11.574747
 20
7.363810
 42
-0.347630
  0
SEQEND
  0
POLYLINE
  8
1
 66
1
 70
1
  0
VERTEX
  8
1
 10
11.925215
 20
6.973016
 42
-0.435480
  0
VERTEX
  8
1
 10
11.932359
 20
7.018120
 42
-0.435489
  0
VERTEX
  8
1
 10
11.977462
 20
7.010976
 42
-0.435489
  0
VERTEX
  8
1
 10
11.970319
 20
6.965873
 42
-0.435483
  0
SEQEND
  0
POLYLINE
  8
1
 66
1
 70
1
  0
VERTEX
  8
1
 10
12.175445
 20
6.481916
 42
-0.356873
  0
VERTEX
  8
1
 10
12.188568
 20
6.518975
 42
-0.438673
  0
VERTEX
  8
1
 10
12.233236
 20
6.509481
 42
-0.438673
  0
VERTEX
  8
1
 10
12.223741
 20
6.464813
 42
-0.438681
  0
VERTEX
  8
1
 10
12.179074
 20
6.474308
  0
SEQEND
  0
POLYLINE
  8
1
 66
1
 70
1
  0
VERTEX
  8
1
 10
12.261686
 20
5.937526
 42
-0.316507
  0
VERTEX
  8
1
 10
12.285619
 20
5.968716
 42
-0.330746
  0
VERTEX
  8
1
 10
12.321941
 20
5.953671
 42
-0.441584
  0
VERTEX
  8
1
 10
12.310122
 20
5.909562
 42
-0.441584
  0
VERTEX
  8
1
 10
12.266012
 20
5.921381
 42
-0.131396
  0
SEQEND
  0
POLYLINE
  8
1
 66
1
 70
1
  0
VERTEX
  8
1
 10
12.175449
 20
5.393133
 42
-0.410477
  0
VERTEX
  8
1
 10
12.216138
 20
5.413864
 42
-0.410481
  0
VERTEX
  8
1
 10
12.236870
 20
5.373176
 42
-0.410481
  0
VERTEX
  8
1
 10
12.196181
 20
5.352444
 42
-0.410471
  0
SEQEND
  0
POLYLINE
  8
1
 66
1
 70
1
  0
VERTEX
  8
1
 10
11.925214
 20
4.902002
 42
-0.519691
  0
VERTEX
  8
1
 10
11.976432
 20
4.903343
 42
-0.432986
  0
VERTEX
  8
1
 10
11.971659
 20
4.857928
 42
-0.432986
  0
VERTEX
  8
1
 10
11.926244
 20
4.862701
 42
-0.347630
  0
SEQEND
  0
POLYLINE
  8
1
 66
1
 70
1
  0
VERTEX
  8
1
 10
11.535466
 20
4.512272
 42
-0.435480
  0
VERTEX
  8
1
 10
11.580569
 20
4.505128
 42
-0.435489
  0
VERTEX
  8
1
 10
11.573426
 20
4.460025
 42
-0.435489
  0
VERTEX
  8
1
 10
11.528322
 20
4.467169
 42
-0.435483
  0
SEQEND
  0
POLYLINE
  8
1
 66
1
 70
1
  0
VERTEX
  8
1
 10
11.044350
 20
4.262043
 42
-0.356873
  0
VERTEX
  8
1
 10
11.081409
 20
4.248919
 42
-0.438673
  0
VERTEX
  8
1
 10
11.071915
 20
4.204252
 42
-0.438673
  0
VERTEX
  8
1
 10
11.027247
 20
4.213746
 42
-0.438681
  0
VERTEX
  8
1
 10
11.036741
 20
4.258413
  0
SEQEND
  0
POLYLINE
  8
1
 66
1
 70
1
  0
VERTEX
  8
1
 10
10.499960
 20
4.175802
 42
-0.316507
  0
VERTEX
  8
1
 10
10.531150
 20
4.151868
 42
-0.330746
  0
VERTEX
  8
1
 10
10.516105
 20
4.115547
 42
-0.413823
  0
VERTEX
  8
1
 10
10.471996
 20
4.127366
 42
-0.441584
  0
VERTEX
  8
1
 10
10.483815
 20
4.171475
 42
-0.131396
  0
SEQEND
  0
POLYLINE
  8
1
 66
1
 70
1
  0
VERTEX
  8
1
 10
9.955567
 20
4.262038
 42
-0.410477
  0
VERTEX
  8
1
 10
9.976298
 20
4.221350
 42
-0.410481
  0
VERTEX
  8
1
 10
9.935610
 20
4.200618
 42
-0.410481
  0
VERTEX
  8
1
 10
9.914878
 20
4.241306
 42
-0.410471
  0
SEQEND
  0
POLYLINE
  8
1
 66
1
 70
1
  0
VERTEX
  8
1
 10
9.464475
 20
4.512273
 42
-0.519691
  0
VERTEX
  8
1
 10
9.465816
 20
4.461055
 42
-0.432986
  0
VERTEX
  8
1
 10
9.420401
 20
4.465829
 42
-0.432986
  0
VERTEX
  8
1
 10
9.425174
 20
4.511244
 42
-0.347630
  0
SEQEND
  0
POLYLINE
  8
1
 66
1
 70
1
  0
VERTEX
  8
1
 10
9.074706
 20
4.902037
 42
-0.435480
  0
VERTEX
  8
1
 10
9.067562
 20
4.856934
 42
-0.435489
  0
VERTEX
  8
1
 10
9.022459
 20
4.864077
 42
-0.435489
  0
VERTEX
  8
1
 10
9.029603
 20
4.909181
 42
-0.435483
  0
SEQEND
  0
POLYLINE
  8
1
 66
1
 70
1
  0
VERTEX
  8
1
 10
8.824477
 20
5.393138
 42
-0.356873
  0
VERTEX
  8
1
 10
8.811353
 20
5.356079
 42
-0.438673
  0
VERTEX
  8
1
 10
8.766685
 20
5.365573
 42
-0.438673
  0
VERTEX
  8
1
 10
8.776180
 20
5.410240
 42
-0.438681
  0
VERTEX
  8
1
 10
8.820847
 20
5.400746
  0
SEQEND
  0
POLYLINE
  8
1
 66
1
 70
1
  0
VERTEX
  8
1
 10
8.738235
 20
5.937527
 42
-0.316507
  0
VERTEX
  8
1
 10
8.714302
 20
5.906337
 42
-0.330746
  0
VERTEX
  8
1
 10
8.677981
 20
5.921382
 42
-0.441584
  0
VERTEX
  8
1
 10
8.689800
 20
5.965492
 42
-0.441584
  0
VERTEX
  8
1
 10
8.733909
 20
5.953673
 42
-0.131396
  0
SEQEND
  0
POLYLINE
  8
1
 66
1
 70
1
  0
VERTEX
  8
1
 10
8.824472
 20
6.481929
 42
-0.410477
  0
VERTEX
  8
1
 10
8.783783
 20
6.461197
 42
-0.410481
  0
VERTEX
  8
1
 10
8.763052
 20
6.501885
 42
-0.410481
  0
VERTEX
  8
1
 10
8.803740
 20
6.522617
 42
-0.410471
  0
SEQEND
  0
POLYLINE
  8
1
 66
1
 70
1
  0
VERTEX
  8
1
 10
9.074707
 20
6.973032
 42
-0.519691
  0
VERTEX
  8
1
 10
9.023489
 20
6.971691
 42
-0.432986
  0
VERTEX
  8
1
 10
9.028262
 20
7.017106
 42
-0.432986
  0
VERTEX
  8
1
 10
9.073678
 20
7.012333
 42
-0.347630
  0
SEQEND
  0
POLYLINE
  8
1
 66
1
 70
1
  0
VERTEX
  8
1
 10
9.464455
 20
7.362777
 42
-0.435480
  0
VERTEX
  8
1
 10
9.419352
 20
7.369921
 42
-0.435489
  0
VERTEX
  8
1
 10
9.426496
 20
7.415024
 42
-0.435489
  0
VERTEX
  8
1
 10
9.471599
 20
7.407881
 42
-0.435483
  0
SEQEND
  0
POLYLINE
  8
1
 66
1
 70
1
  0
VERTEX
  8
1
 10
9.955564
 20
7.613019
 42
-0.356873
  0
VERTEX
  8
1
 10
9.918504
 20
7.626142
 42
-0.438673
  0
VERTEX
  8
1
 10
9.927999
 20
7.670810
 42
-0.438673
  0
VERTEX
  8
1
 10
9.972666
 20
7.661315
 42
-0.438681
  0
VERTEX
  8
1
 10
9.963172
 20
7.616648
  0
SEQEND
  0
POLYLINE
  8
1
 66
1
 70
1
  0
VERTEX
  8
1
 10
3.312449
 20
0.251977
 42
-0.065459
  0
VERTEX
  8
1
 10
2.779166
 20
0.322203
 42
-0.065439
  0
VERTEX
  8
1
 10
2.282220
 20
0.528040
 42
-0.065452
  0
VERTEX
  8
1
 10
1.855485
 20
0.855485
 42
-0.065447
  0
VERTEX
  8
1
 10
1.528039
 20
1.282221
 42
-0.065448
  0
VERTEX
  8
1
 10
1.322199
 20
1.779164
 42
-0.065448
  0
VERTEX
  8
1
 10
1.251990
 20
2.312450
 42
-0.065448
  0
VERTEX
  8
1
 10
1.322199
 20
2.845737
 42
-0.065448
  0
VERTEX
  8
1
 10
1.528039
 20
3.342680
 42
-0.065448
  0
VERTEX
  8
1
 10
1.855485
 20
3.769415
 42
-0.065448
  0
VERTEX
  8
1
 10
2.282220
 20
4.096861
 42
-0.065448
  0
VERTEX
  8
1
 10
2.779164
 20
4.302702
 42
-0.065448
  0
VERTEX
  8
1
 10
3.312450
 20
4.372910
 42
-0.065448
  0
VERTEX
  8
1
 10
3.845736
 20
4.302702
 42
-0.065448
  0
VERTEX
  8
1
 10
4.342680
 20
4.096861
 42
-0.065448
  0
VERTEX
  8
1
 10
4.769415
 20
3.769415
 42
-0.065448
  0
VERTEX
  8
1
 10
5.096860
 20
3.342680
 42
-0.065448
  0
VERTEX
  8
1
 10
5.302701
 20
2.845737
 42
-0.065448
  0
VERTEX
  8
1
 10
5.372910
 20
2.312450
 42
-0.065448
  0
VERTEX
  8
1
 10
5.302701
 20
1.779164
 42
-0.065448
  0
VERTEX
  8
1
 10
5.096860
 20
1.282221
 42
-0.065445
  0
VERTEX
  8
1
 10
4.769416
 20
0.855484
 42
-0.065458
  0
VERTEX
  8
1
 10
4.342682
 20
0.528038
 42
-0.065436
  0
VERTEX
  8
1
 10
3.845731
 20
0.322215
 42
-0.065448
  0
SEQEND
  0
POLYLINE
  8
1
 66
1
 70
1
  0
VERTEX
  8
1
 10
3.312430
 20
4.074135
 42
-0.316507
  0
VERTEX
  8
1
 10
3.281240
 20
4.098068
 42
-0.330746
  0
VERTEX
  8
1
 10
3.296285
 20
4.134389
 42
-0.413823
  0
VERTEX
  8
1
 10
3.340394
 20
4.122570
 42
-0.441584
  0
VERTEX
  8
1
 10
3.328575
 20
4.078461
 42
-0.131396
  0
SEQEND
  0
POLYLINE
  8
1
 66
1
 70
1
  0
VERTEX
  8
1
 10
3.856823
 20
3.987914
 42
-0.410477
  0
VERTEX
  8
1
 10
3.836092
 20
4.028602
 42
-0.410481
  0
VERTEX
  8
1
 10
3.876780
 20
4.049334
 42
-0.410481
  0
VERTEX
  8
1
 10
3.897512
 20
4.008646
 42
-0.410471
  0
SEQEND
  0
POLYLINE
  8
1
 66
1
 70
1
  0
VERTEX
  8
1
 10
4.347915
 20
3.737679
 42
-0.519691
  0
VERTEX
  8
1
 10
4.346574
 20
3.788897
 42
-0.432986
  0
VERTEX
  8
1
 10
4.391989
 20
3.784123
 42
-0.432986
  0
VERTEX
  8
1
 10
4.387216
 20
3.738708
 42
-0.347630
  0
SEQEND
  0
POLYLINE
  8
1
 66
1
 70
1
  0
VERTEX
  8
1
 10
4.737684
 20
3.347915
 42
-0.435480
  0
VERTEX
  8
1
 10
4.744828
 20
3.393018
 42
-0.435489
  0
VERTEX
  8
1
 10
4.789931
 20
3.385875
 42
-0.435489
  0
VERTEX
  8
1
 10
4.782787
 20
3.340771
 42
-0.435483
  0
SEQEND
  0
POLYLINE
  8
1
 66
1
 70
1
  0
VERTEX
  8
1
 10
4.987913
 20
2.856814
 42
-0.356873
  0
VERTEX
  8
1
 10
5.001037
 20
2.893873
 42
-0.438673
  0
VERTEX
  8
1
 10
5.045704
 20
2.884379
 42
-0.438673
  0
VERTEX
  8
1
 10
5.036210
 20
2.839711
 42
-0.438681
  0
VERTEX
  8
1
 10
4.991543
 20
2.849206
  0
SEQEND
  0
POLYLINE
  8
1
 66
1
 70
1
  0
VERTEX
  8
1
 10
5.074154
 20
2.312425
 42
-0.316507
  0
VERTEX
  8
1
 10
5.098087
 20
2.343615
 42
-0.330746
  0
VERTEX
  8
1
 10
5.134409
 20
2.328570
 42
-0.441584
  0
VERTEX
  8
1
 10
5.122590
 20
2.284460
 42
-0.441584
  0
VERTEX
  8
1
 10
5.078481
 20
2.296279
 42
-0.131396
  0
SEQEND
  0
POLYLINE
  8
1
 66
1
 70
1
  0
VERTEX
  8
1
 10
4.987918
 20
1.768031
 42
-0.410477
  0
VERTEX
  8
1
 10
5.028606
 20
1.788763
 42
-0.410481
  0
VERTEX
  8
1
 10
5.049338
 20
1.748074
 42
-0.410481
  0
VERTEX
  8
1
 10
5.008650
 20
1.727343
 42
-0.410471
  0
SEQEND
  0
POLYLINE
  8
1
 66
1
 70
1
  0
VERTEX
  8
1
 10
4.737683
 20
1.276900
 42
-0.519691
  0
VERTEX
  8
1
 10
4.788901
 20
1.278241
 42
-0.432986
  0
VERTEX
  8
1
 10
4.784127
 20
1.232826
 42
-0.432986
  0
VERTEX
  8
1
 10
4.738712
 20
1.237599
 42
-0.347630
  0
SEQEND
  0
POLYLINE
  8
1
 66
1
 70
1
  0
VERTEX
  8
1
 10
4.347935
 20
0.887171
 42
-0.435480
  0
VERTEX
  8
1
 10
4.393038
 20
0.880027
 42
-0.435489
  0
VERTEX
  8
1
 10
4.385894
 20
0.834924
 42
-0.435489
  0
VERTEX
  8
1
 10
4.340791
 20
0.842067
 42
-0.435483
  0
SEQEND
  0
POLYLINE
  8
1
 66
1
 70
1
  0
VERTEX
  8
1
 10
3.856818
 20
0.636941
 42
-0.356873
  0
VERTEX
  8
1
 10
3.893877
 20
0.623818
 42
-0.438673
  0
VERTEX
  8
1
 10
3.884383
 20
0.579150
 42
-0.438673
  0
VERTEX
  8
1
 10
3.839715
 20
0.588644
 42
-0.438681
  0
VERTEX
  8
1
 10
3.849210
 20
0.633312
  0
SEQEND
  0
POLYLINE
  8
1
 66
1
 70
1
  0
VERTEX
  8
1
 10
3.312429
 20
0.550700
 42
-0.316507
  0
VERTEX
  8
1
 10
3.343619
 20
0.526767
 42
-0.330746
  0
VERTEX
  8
1
 10
3.328574
 20
0.490445
 42
-0.413823
  0
VERTEX
  8
1
 10
3.284464
 20
0.502264
 42
-0.441584
  0
VERTEX
  8
1
 10
3.296283
 20
0.546374
 42
-0.131396
  0
SEQEND
  0
POLYLINE
  8
1
 66
1
 70
1
  0
VERTEX
  8
1
 10
2.768035
 20
0.636936
 42
-0.410477
  0
VERTEX
  8
1
 10
2.788767
 20
0.596248
 42
-0.410481
  0
VERTEX
  8
1
 10
2.748078
 20
0.575516
 42
-0.410481
  0
VERTEX
  8
1
 10
2.727347
 20
0.616204
 42
-0.410471
  0
SEQEND
  0
POLYLINE
  8
1
 66
1
 70
1
  0
VERTEX
  8
1
 10
2.276944
 20
0.887172
 42
-0.519691
  0
VERTEX
  8
1
 10
2.278285
 20
0.835954
 42
-0.432986
  0
VERTEX
  8
1
 10
2.232869
 20
0.840727
 42
-0.432986
  0
VERTEX
  8
1
 10
2.237643
 20
0.886142
 42
-0.347630
  0
SEQEND
  0
POLYLINE
  8
1
 66
1
 70
1
  0
VERTEX
  8
1
 10
1.887175
 20
1.276936
 42
-0.435480
  0
VERTEX
  8
1
 10
1.880031
 20
1.231832
 42
-0.435489
  0
VERTEX
  8
1
 10
1.834928
 20
1.238976
 42
-0.435489
  0
VERTEX
  8
1
 10
1.842071
 20
1.284079
 42
-0.435483
  0
SEQEND
  0
POLYLINE
  8
1
 66
1
 70
1
  0
VERTEX
  8
1
 10
1.636945
 20
1.768036
 42
-0.356873
  0
VERTEX
  8
1
 10
1.623822
 20
1.730977
 42
-0.438673
  0
VERTEX
  8
1
 10
1.579154
 20
1.740471
 42
-0.438673
  0
VERTEX
  8
1
 10
1.588648
 20
1.785139
 42
-0.438681
  0
VERTEX
  8
1
 10
1.633316
 20
1.775644
  0
SEQEND
  0
POLYLINE
  8
1
 66
1
 70
1
  0
VERTEX
  8
1
 10
1.550704
 20
2.312426
 42
-0.316507
  0
VERTEX
  8
1
 10
1.526771
 20
2.281236
 42
-0.330746
  0
VERTEX
  8
1
 10
1.490449
 20
2.296281
 42
-0.413823
  0
VERTEX
  8
1
 10
1.502268
 20
2.340390
 42
-0.441584
  0
VERTEX
  8
1
 10
1.546378
 20
2.328571
 42
-0.131396
  0
SEQEND
  0
POLYLINE
  8
1
 66
1
 70
1
  0
VERTEX
  8
1
 10
1.636940
 20
2.856827
 42
-0.410477
  0
VERTEX
  8
1
 10
1.596252
 20
2.836096
 42
-0.410481
  0
VERTEX
  8
1
 10
1.575520
 20
2.876784
 42
-0.410481
  0
VERTEX
  8
1
 10
1.616208
 20
2.897516
 42
-0.410471
  0
SEQEND
  0
POLYLINE
  8
1
 66
1
 70
1
  0
VERTEX
  8
1
 10
1.887175
 20
3.347930
 42
-0.519691
  0
VERTEX
  8
1
 10
1.835958
 20
3.346589
 42
-0.432986
  0
VERTEX
  8
1
 10
1.840731
 20
3.392005
 42
-0.432986
  0
VERTEX
  8
1
 10
1.886146
 20
3.387231
 42
-0.347630
  0
SEQEND
  0
POLYLINE
  8
1
 66
1
 70
1
  0
VERTEX
  8
1
 10
2.276924
 20
3.737676
 42
-0.435480
  0
VERTEX
  8
1
 10
2.231820
 20
3.744820
 42
-0.435489
  0
VERTEX
  8
1
 10
2.238964
 20
3.789923
 42
-0.435489
  0
VERTEX
  8
1
 10
2.284067
 20
3.782779
 42
-0.435483
  0
SEQEND
  0
POLYLINE
  8
1
 66
1
 70
1
  0
VERTEX
  8
1
 10
2.768032
 20
3.987917
 42
-0.356873
  0
VERTEX
  8
1
 10
2.730973
 20
4.001041
 42
-0.438673
  0
VERTEX
  8
1
 10
2.740467
 20
4.045708
 42
-0.438673
  0
VERTEX
  8
1
 10
2.785135
 20
4.036214
 42
-0.438681
  0
VERTEX
  8
1
 10
2.775640
 20
3.991547
  0
SEQEND
  0
POLYLINE
  8
1
 66
1
 70
1
  0
VERTEX
  8
1
 10
8.062449
 20
0.251977
 42
-0.065459
  0
VERTEX
  8
1
 10
7.529166
 20
0.322203
 42
-0.065439
  0
VERTEX
  8
1
 10
7.032220
 20
0.528040
 42
-0.065452
  0
VERTEX
  8
1
 10
6.605485
 20
0.855485
 42
-0.065447
  0
VERTEX
  8
1
 10
6.278039
 20
1.282221
 42
-0.065448
  0
VERTEX
  8
1
 10
6.072199
 20
1.779164
 42
-0.065448
  0
VERTEX
  8
1
 10
6.001990
 20
2.312450
 42
-0.065448
  0
VERTEX
  8
1
 10
6.072199
 20
2.845737
 42
-0.065448
  0
VERTEX
  8
1
 10
6.278039
 20
3.342680
 42
-0.065448
  0
VERTEX
  8
1
 10
6.605485
 20
3.769415
 42
-0.065448
  0
VERTEX
  8
1
 10
7.032220
 20
4.096861
 42
-0.065448
  0
VERTEX
  8
1
 10
7.529164
 20
4.302702
 42
-0.065448
  0
VERTEX
  8
1
 10
8.062450
 20
4.372910
 42
-0.065448
  0
VERTEX
  8
1
 10
8.595736
 20
4.302702
 42
-0.065448
  0
VERTEX
  8
1
 10
9.092680
 20
4.096861
 42
-0.065448
  0
VERTEX
  8
1
 10
9.519415
 20
3.769415
 42
-0.065448
  0
VERTEX
  8
1
 10
9.846860
 20
3.342680
 42
-0.065448
  0
VERTEX
  8
1
 10
10.052701
 20
2.845737
 42
-0.065448
  0
VERTEX
  8
1
 10
10.122910
 20
2.312450
 42
-0.065448
  0
VERTEX
  8
1
 10
10.052701
 20
1.779164
 42
-0.065448
  0
VERTEX
  8
1
 10
9.846860
 20
1.282221
 42
-0.065445
  0
VERTEX
  8
1
 10
9.519416
 20
0.855484
 42
-0.065458
  0
VERTEX
  8
1
 10
9.092682
 20
0.528038
 42
-0.065436
  0
VERTEX
  8
1
 10
8.595731
 20
0.322215
 42
-0.065448
  0
SEQEND
  0
POLYLINE
  8
1
 66
1
 70
1
  0
VERTEX
  8
1
 10
8.062430
 20
4.074135
 42
-0.316507
  0
VERTEX
  8
1
 10
8.031240
 20
4.098068
 42
-0.330746
  0
VERTEX
  8
1
 10
8.046285
 20
4.134389
 42
-0.413823
  0
VERTEX
  8
1
 10
8.090394
 20
4.122570
 42
-0.441584
  0
VERTEX
  8
1
 10
8.078575
 20
4.078461
 42
-0.131396
  0
SEQEND
  0
POLYLINE
  8
1
 66
1
 70
1
  0
VERTEX
  8
1
 10
8.606823
 20
3.987914
 42
-0.410477
  0
VERTEX
  8
1
 10
8.586092
 20
4.028602
 42
-0.410481
  0
VERTEX
  8
1
 10
8.626780
 20
4.049334
 42
-0.410481
  0
VERTEX
  8
1
 10
8.647512
 20
4.008646
 42
-0.410471
  0
SEQEND
  0
POLYLINE
  8
1
 66
1
 70
1
  0
VERTEX
  8
1
 10
9.097915
 20
3.737679
 42
-0.519691
  0
VERTEX
  8
1
 10
9.096574
 20
3.788897
 42
-0.432986
  0
VERTEX
  8
1
 10
9.141989
 20
3.784123
 42
-0.432986
  0
VERTEX
  8
1
 10
9.137216
 20
3.738708
 42
-0.347630
  0
SEQEND
  0
POLYLINE
  8
1
 66
1
 70
1
  0
VERTEX
  8
1
 10
9.487684
 20
3.347915
 42
-0.435480
  0
VERTEX
  8
1
 10
9.494828
 20
3.393018
 42
-0.435489
  0
VERTEX
  8
1
 10
9.539931
 20
3.385875
 42
-0.435489
  0
VERTEX
  8
1
 10
9.532787
 20
3.340771
 42
-0.435483
  0
SEQEND
  0
POLYLINE
  8
1
 66
1
 70
1
  0
VERTEX
  8
1
 10
9.737913
 20
2.856814
 42
-0.356873
  0
VERTEX
  8
1
 10
9.751037
 20
2.893873
 42
-0.438673
  0
VERTEX
  8
1
 10
9.795704
 20
2.884379
 42
-0.438673
  0
VERTEX
  8
1
 10
9.786210
 20
2.839711
 42
-0.438681
  0
VERTEX
  8
1
 10
9.741543
 20
2.849206
  0
SEQEND
  0
POLYLINE
  8
1
 66
1
 70
1
  0
VERTEX
  8
1
 10
9.824154
 20
2.312425
 42
-0.316507
  0
VERTEX
  8
1
 10
9.848087
 20
2.343615
 42
-0.330746
  0
VERTEX
  8
1
 10
9.884409
 20
2.328570
 42
-0.441584
  0
VERTEX
  8
1
 10
9.872590
 20
2.284460
 42
-0.441584
  0
VERTEX
  8
1
 10
9.828481
 20
2.296279
 42
-0.131396
  0
SEQEND
  0
POLYLINE
  8
1
 66
1
 70
1
  0
VERTEX
  8
1
 10
9.737918
 20
1.768031
 42
-0.410477
  0
VERTEX
  8
1
 10
9.778606
 20
1.788763
 42
-0.410481
  0
VERTEX
  8
1
 10
9.799338
 20
1.748074
 42
-0.410481
  0
VERTEX
  8
1
 10
9.758650
 20
1.727343
 42
-0.410471
  0
SEQEND
  0
POLYLINE
  8
1
 66
1
 70
1
  0
VERTEX
  8
1
 10
9.487683
 20
1.276900
 42
-0.519691
  0
VERTEX
  8
1
 10
9.538901
 20
1.278241
 42
-0.432986
  0
VERTEX
  8
1
 10
9.534127
 20
1.232826
 42
-0.432986
  0
VERTEX
  8
1
 10
9.488712
 20
1.237599
 42
-0.347630
  0
SEQEND
  0
POLYLINE
  8
1
 66
1
 70
1
  0
VERTEX
  8
1
 10
9.097935
 20
0.887171
 42
-0.435480
  0
VERTEX
  8
1
 10
9.143038
 20
0.880027
 42
-0.435489
  0
VERTEX
  8
1
 10
9.135894
 20
0.834924
 42
-0.435489
  0
VERTEX
  8
1
 10
9.090791
 20
0.842067
 42
-0.435483
  0
SEQEND
  0
POLYLINE
  8
1
 66
1
 70
1
  0
VERTEX
  8
1
 10
8.606818
 20
0.636941
 42
-0.356873
  0
VERTEX
  8
1
 10
8.643877
 20
0.623818
 42
-0.438673
  0
VERTEX
  8
1
 10
8.634383
 20
0.579150
 42
-0.438673
  0
VERTEX
  8
1
 10
8.589715
 20
0.588644
 42
-0.438681
  0
VERTEX
  8
1
 10
8.599210
 20
0.633312
  0
SEQEND
  0
POLYLINE
  8
1
 66
1
 70
1
  0
VERTEX
  8
1
 10
8.062429
 20
0.550700
 42
-0.316507
  0
VERTEX
  8
1
 10
8.093619
 20
0.526767
 42
-0.330746
  0
VERTEX
  8
1
 10
8.078574
 20
0.490445
 42
-0.413823
  0
VERTEX
  8
1
 10
8.034464
 20
0.502264
 42
-0.441584
  0
VERTEX
  8
1
 10
8.046283
 20
0.546374
 42
-0.131396
  0
SEQEND
  0
POLYLINE
  8
1
 66
1
 70
1
  0
VERTEX
  8
1
 10
7.518035
 20
0.636936
 42
-0.410477
  0
VERTEX
  8
1
 10
7.538767
 20
0.596248
 42
-0.410481
  0
VERTEX
  8
1
 10
7.498078
 20
0.575516
 42
-0.410481
  0
VERTEX
  8
1
 10
7.477347
 20
0.616204
 42
-0.410471
  0
SEQEND
  0
POLYLINE
  8
1
 66
1
 70
1
  0
VERTEX
  8
1
 10
7.026944
 20
0.887172
 42
-0.519691
  0
VERTEX
  8
1
 10
7.028285
 20
0.835954
 42
-0.432986
  0
VERTEX
  8
1
 10
6.982869
 20
0.840727
 42
-0.432986
  0
VERTEX
  8
1
 10
6.987643
 20
0.886142
 42
-0.347630
  0
SEQEND
  0
POLYLINE
  8
1
 66
1
 70
1
  0
VERTEX
  8
1
 10
6.637175
 20
1.276936
 42
-0.435480
  0
VERTEX
  8
1
 10
6.630031
 20
1.231832
 42
-0.435489
  0
VERTEX
  8
1
 10
6.584928
 20
1.238976
 42
-0.435489
  0
VERTEX
  8
1
 10
6.592071
 20
1.284079
 42
-0.435483
  0
SEQEND
  0
POLYLINE
  8
1
 66
1
 70
1
  0
VERTEX
  8
1
 10
6.386945
 20
1.768036
 42
-0.356873
  0
VERTEX
  8
1
 10
6.373822
 20
1.730977
 42
-0.438673
  0
VERTEX
  8
1
 10
6.329154
 20
1.740471
 42
-0.438673
  0
VERTEX
  8
1
 10
6.338648
 20
1.785139
 42
-0.438681
  0
VERTEX
  8
1
 10
6.383316
 20
1.775644
  0
SEQEND
  0
POLYLINE
  8
1
 66
1
 70
1
  0
VERTEX
  8
1
 10
6.300704
 20
2.312426
 42
-0.316507
  0
VERTEX
  8
1
 10
6.276771
 20
2.281236
 42
-0.330746
  0
VERTEX
  8
1
 10
6.240449
 20
2.296281
 42
-0.441584
  0
VERTEX
  8
1
 10
6.252268
 20
2.340390
 42
-0.441584
  0
VERTEX
  8
1
 10
6.296378
 20
2.328571
 42
-0.131396
  0
SEQEND
  0
POLYLINE
  8
1
 66
1
 70
1
  0
VERTEX
  8
1
 10
6.386940
 20
2.856827
 42
-0.410477
  0
VERTEX
  8
1
 10
6.346252
 20
2.836096
 42
-0.410481
  0
VERTEX
  8
1
 10
6.325520
 20
2.876784
 42
-0.410481
  0
VERTEX
  8
1
 10
6.366208
 20
2.897516
 42
-0.410471
  0
SEQEND
  0
POLYLINE
  8
1
 66
1
 70
1
  0
VERTEX
  8
1
 10
6.637175
 20
3.347930
 42
-0.519691
  0
VERTEX
  8
1
 10
6.585958
 20
3.346589
 42
-0.432986
  0
VERTEX
  8
1
 10
6.590731
 20
3.392005
 42
-0.432986
  0
VERTEX
  8
1
 10
6.636146
 20
3.387231
 42
-0.347630
  0
SEQEND
  0
POLYLINE
  8
1
 66
1
 70
1
  0
VERTEX
  8
1
 10
7.026924
 20
3.737676
 42
-0.435480
  0
VERTEX
  8
1
 10
6.981820
 20
3.744820
 42
-0.435489
  0
VERTEX
  8
1
 10
6.988964
 20
3.789923
 42
-0.435489
  0
VERTEX
  8
1
 10
7.034067
 20
3.782779
 42
-0.435483
  0
SEQEND
  0
POLYLINE
  8
1
 66
1
 70
1
  0
VERTEX
  8
1
 10
7.518032
 20
3.987917
 42
-0.356873
  0
VERTEX
  8
1
 10
7.480973
 20
4.001041
 42
-0.438673
  0
VERTEX
  8
1
 10
7.490467
 20
4.045708
 42
-0.438673
  0
VERTEX
  8
1
 10
7.535135
 20
4.036214
 42
-0.438681
  0
VERTEX
  8
1
 10
7.525640
 20
3.991547
  0
SEQEND
  0
POLYLINE
  8
1
 66
1
 70
1
  0
VERTEX
  8
1
 10
12.999981
 20
0.251977
 42
-0.065459
  0
VERTEX
  8
1
 10
12.466697
 20
0.322203
 42
-0.065439
  0
VERTEX
  8
1
 10
11.969751
 20
0.528040
 42
-0.065452
  0
VERTEX
  8
1
 10
11.543016
 20
0.855485
 42
-0.065447
  0
VERTEX
  8
1
 10
11.215571
 20
1.282221
 42
-0.065448
  0
VERTEX
  8
1
 10
11.009730
 20
1.779164
 42
-0.065448
  0
VERTEX
  8
1
 10
10.939522
 20
2.312450
 42
-0.065448
  0
VERTEX
  8
1
 10
11.009730
 20
2.845737
 42
-0.065448
  0
VERTEX
  8
1
 10
11.215571
 20
3.342680
 42
-0.065448
  0
VERTEX
  8
1
 10
11.543016
 20
3.769415
 42
-0.065448
  0
VERTEX
  8
1
 10
11.969752
 20
4.096861
 42
-0.065448
  0
VERTEX
  8
1
 10
12.466695
 20
4.302702
 42
-0.065448
  0
VERTEX
  8
1
 10
12.999981
 20
4.372910
 42
-0.065448
  0
VERTEX
  8
1
 10
13.533268
 20
4.302702
 42
-0.065448
  0
VERTEX
  8
1
 10
14.030211
 20
4.096861
 42
-0.065448
  0
VERTEX
  8
1
 10
14.456946
 20
3.769415
 42
-0.065448
  0
VERTEX
  8
1
 10
14.784392
 20
3.342680
 42
-0.065448
  0
VERTEX
  8
1
 10
14.990233
 20
2.845737
 42
-0.065448
  0
VERTEX
  8
1
 10
15.060441
 20
2.312450
 42
-0.065448
  0
VERTEX
  8
1
 10
14.990233
 20
1.779164
 42
-0.065448
  0
VERTEX
  8
1
 10
14.784392
 20
1.282221
 42
-0.065445
  0
VERTEX
  8
1
 10
14.456947
 20
0.855484
 42
-0.065458
  0
VERTEX
  8
1
 10
14.030214
 20
0.528038
 42
-0.065436
  0
VERTEX
  8
1
 10
13.533263
 20
0.322215
 42
-0.065448
  0
SEQEND
  0
POLYLINE
  8
1
 66
1
 70
1
  0
VERTEX
  8
1
 10
12.999961
 20
4.074135
 42
-0.316507
  0
VERTEX
  8
1
 10
12.968771
 20
4.098068
 42
-0.330746
  0
VERTEX
  8
1
 10
12.983816
 20
4.134389
 42
-0.413823
  0
VERTEX
  8
1
 10
13.027926
 20
4.122570
 42
-0.441584
  0
VERTEX
  8
1
 10
13.016106
 20
4.078461
 42
-0.131396
  0
SEQEND
  0
POLYLINE
  8
1
 66
1
 70
1
  0
VERTEX
  8
1
 10
13.544355
 20
3.987914
 42
-0.410477
  0
VERTEX
  8
1
 10
13.523623
 20
4.028602
 42
-0.410481
  0
VERTEX
  8
1
 10
13.564311
 20
4.049334
 42
-0.410481
  0
VERTEX
  8
1
 10
13.585043
 20
4.008646
 42
-0.410471
  0
SEQEND
  0
POLYLINE
  8
1
 66
1
 70
1
  0
VERTEX
  8
1
 10
14.035446
 20
3.737679
 42
-0.519691
  0
VERTEX
  8
1
 10
14.034105
 20
3.788897
 42
-0.432986
  0
VERTEX
  8
1
 10
14.079520
 20
3.784123
 42
-0.432986
  0
VERTEX
  8
1
 10
14.074747
 20
3.738708
 42
-0.347630
  0
SEQEND
  0
POLYLINE
  8
1
 66
1
 70
1
  0
VERTEX
  8
1
 10
14.425215
 20
3.347915
 42
-0.435480
  0
VERTEX
  8
1
 10
14.432359
 20
3.393018
 42
-0.435489
  0
VERTEX
  8
1
 10
14.477462
 20
3.385875
 42
-0.435489
  0
VERTEX
  8
1
 10
14.470319
 20
3.340771
 42
-0.435483
  0
SEQEND
  0
POLYLINE
  8
1
 66
1
 70
1
  0
VERTEX
  8
1
 10
14.675445
 20
2.856814
 42
-0.356873
  0
VERTEX
  8
1
 10
14.688568
 20
2.893873
 42
-0.438673
  0
VERTEX
  8
1
 10
14.733236
 20
2.884379
 42
-0.438673
  0
VERTEX
  8
1
 10
14.723741
 20
2.839711
 42
-0.438681
  0
VERTEX
  8
1
 10
14.679074
 20
2.849206
  0
SEQEND
  0
POLYLINE
  8
1
 66
1
 70
1
  0
VERTEX
  8
1
 10
14.761686
 20
2.312425
 42
-0.316507
  0
VERTEX
  8
1
 10
14.785619
 20
2.343615
 42
-0.330746
  0
VERTEX
  8
1
 10
14.821941
 20
2.328570
 42
-0.441584
  0
VERTEX
  8
1
 10
14.810122
 20
2.284460
 42
-0.441584
  0
VERTEX
  8
1
 10
14.766012
 20
2.296279
 42
-0.131396
  0
SEQEND
  0
POLYLINE
  8
1
 66
1
 70
1
  0
VERTEX
  8
1
 10
14.675449
 20
1.768031
 42
-0.410477
  0
VERTEX
  8
1
 10
14.716138
 20
1.788763
 42
-0.410481
  0
VERTEX
  8
1
 10
14.736870
 20
1.748074
 42
-0.410481
  0
VERTEX
  8
1
 10
14.696181
 20
1.727343
 42
-0.410471
  0
SEQEND
  0
POLYLINE
  8
1
 66
1
 70
1
  0
VERTEX
  8
1
 10
14.425214
 20
1.276900
 42
-0.519691
  0
VERTEX
  8
1
 10
14.476432
 20
1.278241
 42
-0.432986
  0
VERTEX
  8
1
 10
14.471659
 20
1.232826
 42
-0.432986
  0
VERTEX
  8
1
 10
14.426244
 20
1.237599
 42
-0.347630
  0
SEQEND
  0
POLYLINE
  8
1
 66
1
 70
1
  0
VERTEX
  8
1
 10
14.035466
 20
0.887171
 42
-0.435480
  0
VERTEX
  8
1
 10
14.080569
 20
0.880027
 42
-0.435489
  0
VERTEX
  8
1
 10
14.073426
 20
0.834924
 42
-0.435489
  0
VERTEX
  8
1
 10
14.028322
 20
0.842067
 42
-0.435483
  0
SEQEND
  0
POLYLINE
  8
1
 66
1
 70
1
  0
VERTEX
  8
1
 10
13.544350
 20
0.636941
 42
-0.356873
  0
VERTEX
  8
1
 10
13.581409
 20
0.623818
 42
-0.438673
  0
VERTEX
  8
1
 10
13.571915
 20
0.579150
 42
-0.438673
  0
VERTEX
  8
1
 10
13.527247
 20
0.588644
 42
-0.438681
  0
VERTEX
  8
1
 10
13.536741
 20
0.633312
  0
SEQEND
  0
POLYLINE
  8
1
 66
1
 70
1
  0
VERTEX
  8
1
 10
12.999960
 20
0.550700
 42
-0.316507
  0
VERTEX
  8
1
 10
13.031150
 20
0.526767
 42
-0.330746
  0
VERTEX
  8
1
 10
13.016105
 20
0.490445
 42
-0.413823
  0
VERTEX
  8
1
 10
12.971996
 20
0.502264
 42
-0.441584
  0
VERTEX
  8
1
 10
12.983815
 20
0.546374
 42
-0.131396
  0
SEQEND
  0
POLYLINE
  8
1
 66
1
 70
1
  0
VERTEX
  8
1
 10
12.455567
 20
0.636936
 42
-0.410477
  0
VERTEX
  8
1
 10
12.476298
 20
0.596248
 42
-0.410481
  0
VERTEX
  8
1
 10
12.435610
 20
0.575516
 42
-0.410481
  0
VERTEX
  8
1
 10
12.414878
 20
0.616204
 42
-0.410471
  0
SEQEND
  0
POLYLINE
  8
1
 66
1
 70
1
  0
VERTEX
  8
1
 10
11.964475
 20
0.887172
 42
-0.519691
  0
VERTEX
  8
1
 10
11.965816
 20
0.835954
 42
-0.432986
  0
VERTEX
  8
1
 10
11.920401
 20
0.840727
 42
-0.432986
  0
VERTEX
  8
1
 10
11.925174
 20
0.886142
 42
-0.347630
  0
SEQEND
  0
POLYLINE
  8
1
 66
1
 70
1
  0
VERTEX
  8
1
 10
11.574706
 20
1.276936
 42
-0.435480
  0
VERTEX
  8
1
 10
11.567562
 20
1.231832
 42
-0.435489
  0
VERTEX
  8
1
 10
11.522459
 20
1.238976
 42
-0.435489
  0
VERTEX
  8
1
 10
11.529603
 20
1.284079
 42
-0.435483
  0
SEQEND
  0
POLYLINE
  8
1
 66
1
 70
1
  0
VERTEX
  8
1
 10
11.324477
 20
1.768036
 42
-0.356873
  0
VERTEX
  8
1
 10
11.311353
 20
1.730977
 42
-0.438673
  0
VERTEX
  8
1
 10
11.266685
 20
1.740471
 42
-0.438673
  0
VERTEX
  8
1
 10
11.276180
 20
1.785139
 42
-0.438681
  0
VERTEX
  8
1
 10
11.320847
 20
1.775644
  0
SEQEND
  0
POLYLINE
  8
1
 66
1
 70
1
  0
VERTEX
  8
1
 10
11.238235
 20
2.312426
 42
-0.316507
  0
VERTEX
  8
1
 10
11.214302
 20
2.281236
 42
-0.330746
  0
VERTEX
  8
1
 10
11.177981
 20
2.296281
 42
-0.441584
  0
VERTEX
  8
1
 10
11.189800
 20
2.340390
 42
-0.441584
  0
VERTEX
  8
1
 10
11.233909
 20
2.328571
 42
-0.131396
  0
SEQEND
  0
POLYLINE
  8
1
 66
1
 70
1
  0
VERTEX
  8
1
 10
11.324472
 20
2.856827
 42
-0.410477
  0
VERTEX
  8
1
 10
11.283783
 20
2.836096
 42
-0.410481
  0
VERTEX
  8
1
 10
11.263052
 20
2.876784
 42
-0.410481
  0
VERTEX
  8
1
 10
11.303740
 20
2.897516
 42
-0.410471
  0
SEQEND
  0
POLYLINE
  8
1
 66
1
 70
1
  0
VERTEX
  8
1
 10
11.574707
 20
3.347930
 42
-0.519691
  0
VERTEX
  8
1
 10
11.523489
 20
3.346589
 42
-0.432986
  0
VERTEX
  8
1
 10
11.528262
 20
3.392005
 42
-0.432986
  0
VERTEX
  8
1
 10
11.573678
 20
3.387231
 42
-0.347630
  0
SEQEND
  0
POLYLINE
  8
1
 66
1
 70
1
  0
VERTEX
  8
1
 10
11.964455
 20
3.737676
 42
-0.435480
  0
VERTEX
  8
1
 10
11.919352
 20
3.744820
 42
-0.435489
  0
VERTEX
  8
1
 10
11.926496
 20
3.789923
 42
-0.435489
  0
VERTEX
  8
1
 10
11.971599
 20
3.782779
 42
-0.435483
  0
SEQEND
  0
POLYLINE
  8
1
 66
1
 70
1
  0
VERTEX
  8
1
 10
12.455564
 20
3.987917
 42
-0.356873
  0
VERTEX
  8
1
 10
12.418504
 20
4.001041
 42
-0.438673
  0
VERTEX
  8
1
 10
12.427999
 20
4.045708
 42
-0.438673
  0
VERTEX
  8
1
 10
12.472666
 20
4.036214
 42
-0.438681
  0
VERTEX
  8
1
 10
12.463172
 20
3.991547
  0
SEQEND
  0
ENDSEC
   0
EOF
