0
SECTION
2
HEADER
9
$ACADVER
1
AC1003
9
$INSBASE
10
0.0
20
0.0
30
0.0
9
$LTSCALE
40
1.0
9
$CLAYER
8
0
0
ENDSEC
0
SECTION
2
TABLES
0
TABLE
2
LTYPE
70
1
0
LTYPE
2
CONTINUOUS
70
64
3
Solid line
72
65
73
0
40
0.000
0
ENDTAB
0
TABLE
2
LAYER
70
1
0
LAYER
2
0
70
64
62
7
6
CONTINUOUS
0
ENDTAB
0
ENDSEC
0
SECTION
2
BLOCKS
0
ENDSEC
0
SECTION
2
ENTITIES
  0
POLYLINE
  8
0
  6
CONTINUOUS
  66
  1
  70
  1
  10
  0.0
  20
  0.0
  30
  0.0
  0
VERTEX
  8
0
  10
28.546875
  20
20.937500
  30
  0.0
  0
VERTEX
  8
0
  10
28.546875
  20
20.937500
  30
  0.0
  0
VERTEX
  8
0
  10
28.540527
  20
20.740234
  30
  0.0
  0
VERTEX
  8
0
  10
28.521484
  20
20.539062
  30
  0.0
  0
VERTEX
  8
0
  10
28.489746
  20
20.333984
  30
  0.0
  0
VERTEX
  8
0
  10
28.445312
  20
20.125000
  30
  0.0
  0
VERTEX
  8
0
  10
28.445312
  20
20.125000
  30
  0.0
  0
VERTEX
  8
0
  10
28.400879
  20
19.925781
  30
  0.0
  0
VERTEX
  8
0
  10
28.369141
  20
19.750000
  30
  0.0
  0
VERTEX
  8
0
  10
28.350098
  20
19.597656
  30
  0.0
  0
VERTEX
  8
0
  10
28.343750
  20
19.468750
  30
  0.0
  0
VERTEX
  8
0
  10
28.343750
  20
19.468750
  30
  0.0
  0
VERTEX
  8
0
  10
28.347656
  20
19.369141
  30
  0.0
  0
VERTEX
  8
0
  10
28.359375
  20
19.242188
  30
  0.0
  0
VERTEX
  8
0
  10
28.378906
  20
19.087891
  30
  0.0
  0
VERTEX
  8
0
  10
28.406250
  20
18.906250
  30
  0.0
  0
VERTEX
  8
0
  10
28.406250
  20
18.906250
  30
  0.0
  0
VERTEX
  8
0
  10
28.433594
  20
18.719727
  30
  0.0
  0
VERTEX
  8
0
  10
28.453125
  20
18.550781
  30
  0.0
  0
VERTEX
  8
0
  10
28.464844
  20
18.399414
  30
  0.0
  0
VERTEX
  8
0
  10
28.468750
  20
18.265625
  30
  0.0
  0
VERTEX
  8
0
  10
28.343750
  20
17.546875
  30
  0.0
  0
VERTEX
  8
0
  10
27.578125
  20
18.156250
  30
  0.0
  0
VERTEX
  8
0
  10
28.343750
  20
17.546875
  30
  0.0
  0
VERTEX
  8
0
  10
28.343750
  20
17.546875
  30
  0.0
  0
VERTEX
  8
0
  10
28.350586
  20
17.348633
  30
  0.0
  0
VERTEX
  8
0
  10
28.355469
  20
17.207031
  30
  0.0
  0
VERTEX
  8
0
  10
28.358398
  20
17.122070
  30
  0.0
  0
VERTEX
  8
0
  10
28.359375
  20
17.093750
  30
  0.0
  0
VERTEX
  8
0
  10
28.359375
  20
17.093750
  30
  0.0
  0
VERTEX
  8
0
  10
28.351562
  20
16.915039
  30
  0.0
  0
VERTEX
  8
0
  10
28.328125
  20
16.738281
  30
  0.0
  0
VERTEX
  8
0
  10
28.289062
  20
16.563477
  30
  0.0
  0
VERTEX
  8
0
  10
28.234375
  20
16.390625
  30
  0.0
  0
VERTEX
  8
0
  10
28.234375
  20
16.390625
  30
  0.0
  0
VERTEX
  8
0
  10
28.171875
  20
16.240234
  30
  0.0
  0
VERTEX
  8
0
  10
28.109375
  20
16.132812
  30
  0.0
  0
VERTEX
  8
0
  10
28.046875
  20
16.068359
  30
  0.0
  0
VERTEX
  8
0
  10
27.984375
  20
16.046875
  30
  0.0
  0
VERTEX
  8
0
  10
27.984375
  20
16.046875
  30
  0.0
  0
VERTEX
  8
0
  10
27.925293
  20
16.055176
  30
  0.0
  0
VERTEX
  8
0
  10
27.857422
  20
16.080078
  30
  0.0
  0
VERTEX
  8
0
  10
27.780762
  20
16.121582
  30
  0.0
  0
VERTEX
  8
0
  10
27.695312
  20
16.179688
  30
  0.0
  0
VERTEX
  8
0
  10
27.695312
  20
16.179688
  30
  0.0
  0
VERTEX
  8
0
  10
27.609863
  20
16.237793
  30
  0.0
  0
VERTEX
  8
0
  10
27.533203
  20
16.279297
  30
  0.0
  0
VERTEX
  8
0
  10
27.465332
  20
16.304199
  30
  0.0
  0
VERTEX
  8
0
  10
27.406250
  20
16.312500
  30
  0.0
  0
VERTEX
  8
0
  10
27.406250
  20
16.312500
  30
  0.0
  0
VERTEX
  8
0
  10
27.327637
  20
16.300781
  30
  0.0
  0
VERTEX
  8
0
  10
27.232422
  20
16.265625
  30
  0.0
  0
VERTEX
  8
0
  10
27.120605
  20
16.207031
  30
  0.0
  0
VERTEX
  8
0
  10
26.992188
  20
16.125000
  30
  0.0
  0
VERTEX
  8
0
  10
26.992188
  20
16.125000
  30
  0.0
  0
VERTEX
  8
0
  10
26.863770
  20
16.042969
  30
  0.0
  0
VERTEX
  8
0
  10
26.751953
  20
15.984375
  30
  0.0
  0
VERTEX
  8
0
  10
26.656738
  20
15.949219
  30
  0.0
  0
VERTEX
  8
0
  10
26.578125
  20
15.937500
  30
  0.0
  0
VERTEX
  8
0
  10
26.578125
  20
15.937500
  30
  0.0
  0
VERTEX
  8
0
  10
26.397461
  20
15.980469
  30
  0.0
  0
VERTEX
  8
0
  10
26.183594
  20
16.109375
  30
  0.0
  0
VERTEX
  8
0
  10
25.936523
  20
16.324219
  30
  0.0
  0
VERTEX
  8
0
  10
25.656250
  20
16.625000
  30
  0.0
  0
VERTEX
  8
0
  10
25.656250
  20
16.625000
  30
  0.0
  0
VERTEX
  8
0
  10
25.375977
  20
16.925781
  30
  0.0
  0
VERTEX
  8
0
  10
25.128906
  20
17.140625
  30
  0.0
  0
VERTEX
  8
0
  10
24.915039
  20
17.269531
  30
  0.0
  0
VERTEX
  8
0
  10
24.734375
  20
17.312500
  30
  0.0
  0
VERTEX
  8
0
  10
24.734375
  20
17.312500
  30
  0.0
  0
VERTEX
  8
0
  10
24.674805
  20
17.396484
  30
  0.0
  0
VERTEX
  8
0
  10
24.589844
  20
17.648438
  30
  0.0
  0
VERTEX
  8
0
  10
24.479492
  20
18.068359
  30
  0.0
  0
VERTEX
  8
0
  10
24.343750
  20
18.656250
  30
  0.0
  0
VERTEX
  8
0
  10
24.687500
  20
19.406250
  30
  0.0
  0
VERTEX
  8
0
  10
24.687500
  20
19.406250
  30
  0.0
  0
VERTEX
  8
0
  10
24.723633
  20
19.385742
  30
  0.0
  0
VERTEX
  8
0
  10
24.753906
  20
19.324219
  30
  0.0
  0
VERTEX
  8
0
  10
24.778320
  20
19.221680
  30
  0.0
  0
VERTEX
  8
0
  10
24.796875
  20
19.078125
  30
  0.0
  0
VERTEX
  8
0
  10
24.796875
  20
19.078125
  30
  0.0
  0
VERTEX
  8
0
  10
24.816406
  20
18.934570
  30
  0.0
  0
VERTEX
  8
0
  10
24.843750
  20
18.832031
  30
  0.0
  0
VERTEX
  8
0
  10
24.878906
  20
18.770508
  30
  0.0
  0
VERTEX
  8
0
  10
24.921875
  20
18.750000
  30
  0.0
  0
VERTEX
  8
0
  10
24.921875
  20
18.750000
  30
  0.0
  0
VERTEX
  8
0
  10
24.947266
  20
18.762207
  30
  0.0
  0
VERTEX
  8
0
  10
24.976562
  20
18.798828
  30
  0.0
  0
VERTEX
  8
0
  10
25.009766
  20
18.859863
  30
  0.0
  0
VERTEX
  8
0
  10
25.046875
  20
18.945312
  30
  0.0
  0
VERTEX
  8
0
  10
25.046875
  20
18.945312
  30
  0.0
  0
VERTEX
  8
0
  10
25.082031
  20
19.030762
  30
  0.0
  0
VERTEX
  8
0
  10
25.109375
  20
19.091797
  30
  0.0
  0
VERTEX
  8
0
  10
25.128906
  20
19.128418
  30
  0.0
  0
VERTEX
  8
0
  10
25.140625
  20
19.140625
  30
  0.0
  0
VERTEX
  8
0
  10
25.140625
  20
19.140625
  30
  0.0
  0
VERTEX
  8
0
  10
25.177734
  20
19.122070
  30
  0.0
  0
VERTEX
  8
0
  10
25.210938
  20
19.066406
  30
  0.0
  0
VERTEX
  8
0
  10
25.240234
  20
18.973633
  30
  0.0
  0
VERTEX
  8
0
  10
25.265625
  20
18.843750
  30
  0.0
  0
VERTEX
  8
0
  10
25.265625
  20
18.843750
  30
  0.0
  0
VERTEX
  8
0
  10
25.288086
  20
18.709961
  30
  0.0
  0
VERTEX
  8
0
  10
25.308594
  20
18.605469
  30
  0.0
  0
VERTEX
  8
0
  10
25.327148
  20
18.530273
  30
  0.0
  0
VERTEX
  8
0
  10
25.343750
  20
18.484375
  30
  0.0
  0
VERTEX
  8
0
  10
25.375000
  20
18.484375
  30
  0.0
  0
VERTEX
  8
0
  10
25.375000
  20
18.484375
  30
  0.0
  0
VERTEX
  8
0
  10
25.400391
  20
18.496582
  30
  0.0
  0
VERTEX
  8
0
  10
25.429688
  20
18.533203
  30
  0.0
  0
VERTEX
  8
0
  10
25.462891
  20
18.594238
  30
  0.0
  0
VERTEX
  8
0
  10
25.500000
  20
18.679688
  30
  0.0
  0
VERTEX
  8
0
  10
25.500000
  20
18.679688
  30
  0.0
  0
VERTEX
  8
0
  10
25.538086
  20
18.765137
  30
  0.0
  0
VERTEX
  8
0
  10
25.574219
  20
18.826172
  30
  0.0
  0
VERTEX
  8
0
  10
25.608398
  20
18.862793
  30
  0.0
  0
VERTEX
  8
0
  10
25.640625
  20
18.875000
  30
  0.0
  0
VERTEX
  8
0
  10
25.640625
  20
18.875000
  30
  0.0
  0
VERTEX
  8
0
  10
25.658691
  20
18.853516
  30
  0.0
  0
VERTEX
  8
0
  10
25.681641
  20
18.789062
  30
  0.0
  0
VERTEX
  8
0
  10
25.709473
  20
18.681641
  30
  0.0
  0
VERTEX
  8
0
  10
25.742188
  20
18.531250
  30
  0.0
  0
VERTEX
  8
0
  10
25.742188
  20
18.531250
  30
  0.0
  0
VERTEX
  8
0
  10
25.778809
  20
18.380859
  30
  0.0
  0
VERTEX
  8
0
  10
25.818359
  20
18.273438
  30
  0.0
  0
VERTEX
  8
0
  10
25.860840
  20
18.208984
  30
  0.0
  0
VERTEX
  8
0
  10
25.906250
  20
18.187500
  30
  0.0
  0
VERTEX
  8
0
  10
25.906250
  20
18.187500
  30
  0.0
  0
VERTEX
  8
0
  10
25.958008
  20
18.306641
  30
  0.0
  0
VERTEX
  8
0
  10
26.019531
  20
18.429688
  30
  0.0
  0
VERTEX
  8
0
  10
26.090820
  20
18.556641
  30
  0.0
  0
VERTEX
  8
0
  10
26.171875
  20
18.687500
  30
  0.0
  0
VERTEX
  8
0
  10
26.375000
  20
18.421875
  30
  0.0
  0
VERTEX
  8
0
  10
26.375000
  20
18.421875
  30
  0.0
  0
VERTEX
  8
0
  10
26.416016
  20
18.428711
  30
  0.0
  0
VERTEX
  8
0
  10
26.445312
  20
18.480469
  30
  0.0
  0
VERTEX
  8
0
  10
26.462891
  20
18.577148
  30
  0.0
  0
VERTEX
  8
0
  10
26.468750
  20
18.718750
  30
  0.0
  0
VERTEX
  8
0
  10
26.468750
  20
18.718750
  30
  0.0
  0
VERTEX
  8
0
  10
26.464355
  20
18.823242
  30
  0.0
  0
VERTEX
  8
0
  10
26.451172
  20
18.949219
  30
  0.0
  0
VERTEX
  8
0
  10
26.429199
  20
19.096680
  30
  0.0
  0
VERTEX
  8
0
  10
26.398438
  20
19.265625
  30
  0.0
  0
VERTEX
  8
0
  10
26.398438
  20
19.265625
  30
  0.0
  0
VERTEX
  8
0
  10
26.363770
  20
19.424805
  30
  0.0
  0
VERTEX
  8
0
  10
26.330078
  20
19.542969
  30
  0.0
  0
VERTEX
  8
0
  10
26.297363
  20
19.620117
  30
  0.0
  0
VERTEX
  8
0
  10
26.265625
  20
19.656250
  30
  0.0
  0
VERTEX
  8
0
  10
26.062500
  20
19.312500
  30
  0.0
  0
VERTEX
  8
0
  10
26.062500
  20
19.312500
  30
  0.0
  0
VERTEX
  8
0
  10
26.019531
  20
19.332031
  30
  0.0
  0
VERTEX
  8
0
  10
25.984375
  20
19.390625
  30
  0.0
  0
VERTEX
  8
0
  10
25.957031
  20
19.488281
  30
  0.0
  0
VERTEX
  8
0
  10
25.937500
  20
19.625000
  30
  0.0
  0
VERTEX
  8
0
  10
25.937500
  20
19.625000
  30
  0.0
  0
VERTEX
  8
0
  10
25.909180
  20
19.818359
  30
  0.0
  0
VERTEX
  8
0
  10
25.886719
  20
19.960938
  30
  0.0
  0
VERTEX
  8
0
  10
25.870117
  20
20.052734
  30
  0.0
  0
VERTEX
  8
0
  10
25.859375
  20
20.093750
  30
  0.0
  0
VERTEX
  8
0
  10
25.843750
  20
20.125000
  30
  0.0
  0
VERTEX
  8
0
  10
25.843750
  20
20.125000
  30
  0.0
  0
VERTEX
  8
0
  10
25.805176
  20
20.107422
  30
  0.0
  0
VERTEX
  8
0
  10
25.767578
  20
20.054688
  30
  0.0
  0
VERTEX
  8
0
  10
25.730957
  20
19.966797
  30
  0.0
  0
VERTEX
  8
0
  10
25.695312
  20
19.843750
  30
  0.0
  0
VERTEX
  8
0
  10
25.695312
  20
19.843750
  30
  0.0
  0
VERTEX
  8
0
  10
25.659668
  20
19.720703
  30
  0.0
  0
VERTEX
  8
0
  10
25.623047
  20
19.632812
  30
  0.0
  0
VERTEX
  8
0
  10
25.585449
  20
19.580078
  30
  0.0
  0
VERTEX
  8
0
  10
25.546875
  20
19.562500
  30
  0.0
  0
VERTEX
  8
0
  10
25.546875
  20
19.562500
  30
  0.0
  0
VERTEX
  8
0
  10
25.518066
  20
19.586914
  30
  0.0
  0
VERTEX
  8
0
  10
25.494141
  20
19.660156
  30
  0.0
  0
VERTEX
  8
0
  10
25.475098
  20
19.782227
  30
  0.0
  0
VERTEX
  8
0
  10
25.460938
  20
19.953125
  30
  0.0
  0
VERTEX
  8
0
  10
25.460938
  20
19.953125
  30
  0.0
  0
VERTEX
  8
0
  10
25.444824
  20
20.124023
  30
  0.0
  0
VERTEX
  8
0
  10
25.419922
  20
20.246094
  30
  0.0
  0
VERTEX
  8
0
  10
25.386230
  20
20.319336
  30
  0.0
  0
VERTEX
  8
0
  10
25.343750
  20
20.343750
  30
  0.0
  0
VERTEX
  8
0
  10
25.343750
  20
20.343750
  30
  0.0
  0
VERTEX
  8
0
  10
25.312500
  20
20.328613
  30
  0.0
  0
VERTEX
  8
0
  10
25.281250
  20
20.283203
  30
  0.0
  0
VERTEX
  8
0
  10
25.250000
  20
20.207520
  30
  0.0
  0
VERTEX
  8
0
  10
25.218750
  20
20.101562
  30
  0.0
  0
VERTEX
  8
0
  10
25.218750
  20
20.101562
  30
  0.0
  0
VERTEX
  8
0
  10
25.187500
  20
19.995605
  30
  0.0
  0
VERTEX
  8
0
  10
25.156250
  20
19.919922
  30
  0.0
  0
VERTEX
  8
0
  10
25.125000
  20
19.874512
  30
  0.0
  0
VERTEX
  8
0
  10
25.093750
  20
19.859375
  30
  0.0
  0
VERTEX
  8
0
  10
25.093750
  20
19.859375
  30
  0.0
  0
VERTEX
  8
0
  10
25.057617
  20
19.879883
  30
  0.0
  0
VERTEX
  8
0
  10
25.027344
  20
19.941406
  30
  0.0
  0
VERTEX
  8
0
  10
25.002930
  20
20.043945
  30
  0.0
  0
VERTEX
  8
0
  10
24.984375
  20
20.187500
  30
  0.0
  0
VERTEX
  8
0
  10
24.984375
  20
20.187500
  30
  0.0
  0
VERTEX
  8
0
  10
24.961914
  20
20.311523
  30
  0.0
  0
VERTEX
  8
0
  10
24.941406
  20
20.433594
  30
  0.0
  0
VERTEX
  8
0
  10
24.922852
  20
20.553711
  30
  0.0
  0
VERTEX
  8
0
  10
24.906250
  20
20.671875
  30
  0.0
  0
VERTEX
  8
0
  10
24.890625
  20
20.703125
  30
  0.0
  0
VERTEX
  8
0
  10
24.890625
  20
20.703125
  30
  0.0
  0
VERTEX
  8
0
  10
24.857422
  20
20.692871
  30
  0.0
  0
VERTEX
  8
0
  10
24.820312
  20
20.662109
  30
  0.0
  0
VERTEX
  8
0
  10
24.779297
  20
20.610840
  30
  0.0
  0
VERTEX
  8
0
  10
24.734375
  20
20.539062
  30
  0.0
  0
VERTEX
  8
0
  10
24.734375
  20
20.539062
  30
  0.0
  0
VERTEX
  8
0
  10
24.689453
  20
20.467285
  30
  0.0
  0
VERTEX
  8
0
  10
24.648438
  20
20.416016
  30
  0.0
  0
VERTEX
  8
0
  10
24.611328
  20
20.385254
  30
  0.0
  0
VERTEX
  8
0
  10
24.578125
  20
20.375000
  30
  0.0
  0
VERTEX
  8
0
  10
24.562500
  20
20.375000
  30
  0.0
  0
VERTEX
  8
0
  10
24.390625
  20
21.906250
  30
  0.0
  0
VERTEX
  8
0
  10
24.390625
  20
21.906250
  30
  0.0
  0
VERTEX
  8
0
  10
24.412598
  20
22.016602
  30
  0.0
  0
VERTEX
  8
0
  10
24.478516
  20
22.207031
  30
  0.0
  0
VERTEX
  8
0
  10
24.588379
  20
22.477539
  30
  0.0
  0
VERTEX
  8
0
  10
24.742188
  20
22.828125
  30
  0.0
  0
VERTEX
  8
0
  10
24.742188
  20
22.828125
  30
  0.0
  0
VERTEX
  8
0
  10
24.901855
  20
23.169922
  30
  0.0
  0
VERTEX
  8
0
  10
25.029297
  20
23.414062
  30
  0.0
  0
VERTEX
  8
0
  10
25.124512
  20
23.560547
  30
  0.0
  0
VERTEX
  8
0
  10
25.187500
  20
23.609375
  30
  0.0
  0
VERTEX
  8
0
  10
25.187500
  20
23.609375
  30
  0.0
  0
VERTEX
  8
0
  10
25.275879
  20
23.595215
  30
  0.0
  0
VERTEX
  8
0
  10
25.384766
  20
23.552734
  30
  0.0
  0
VERTEX
  8
0
  10
25.514160
  20
23.481934
  30
  0.0
  0
VERTEX
  8
0
  10
25.664062
  20
23.382812
  30
  0.0
  0
VERTEX
  8
0
  10
25.664062
  20
23.382812
  30
  0.0
  0
VERTEX
  8
0
  10
25.814941
  20
23.283691
  30
  0.0
  0
VERTEX
  8
0
  10
25.947266
  20
23.212891
  30
  0.0
  0
VERTEX
  8
0
  10
26.061035
  20
23.170410
  30
  0.0
  0
VERTEX
  8
0
  10
26.156250
  20
23.156250
  30
  0.0
  0
VERTEX
  8
0
  10
26.156250
  20
23.156250
  30
  0.0
  0
VERTEX
  8
0
  10
26.227051
  20
23.167480
  30
  0.0
  0
VERTEX
  8
0
  10
26.314453
  20
23.201172
  30
  0.0
  0
VERTEX
  8
0
  10
26.418457
  20
23.257324
  30
  0.0
  0
VERTEX
  8
0
  10
26.539062
  20
23.335938
  30
  0.0
  0
VERTEX
  8
0
  10
26.539062
  20
23.335938
  30
  0.0
  0
VERTEX
  8
0
  10
26.659668
  20
23.414551
  30
  0.0
  0
VERTEX
  8
0
  10
26.763672
  20
23.470703
  30
  0.0
  0
VERTEX
  8
0
  10
26.851074
  20
23.504395
  30
  0.0
  0
VERTEX
  8
0
  10
26.921875
  20
23.515625
  30
  0.0
  0
VERTEX
  8
0
  10
26.921875
  20
23.515625
  30
  0.0
  0
VERTEX
  8
0
  10
26.962891
  20
23.511230
  30
  0.0
  0
VERTEX
  8
0
  10
27.007812
  20
23.498047
  30
  0.0
  0
VERTEX
  8
0
  10
27.056641
  20
23.476074
  30
  0.0
  0
VERTEX
  8
0
  10
27.109375
  20
23.445312
  30
  0.0
  0
VERTEX
  8
0
  10
27.109375
  20
23.445312
  30
  0.0
  0
VERTEX
  8
0
  10
27.161133
  20
23.414551
  30
  0.0
  0
VERTEX
  8
0
  10
27.207031
  20
23.392578
  30
  0.0
  0
VERTEX
  8
0
  10
27.247070
  20
23.379395
  30
  0.0
  0
VERTEX
  8
0
  10
27.281250
  20
23.375000
  30
  0.0
  0
VERTEX
  8
0
  10
27.281250
  20
23.375000
  30
  0.0
  0
VERTEX
  8
0
  10
27.323242
  20
23.385254
  30
  0.0
  0
VERTEX
  8
0
  10
27.371094
  20
23.416016
  30
  0.0
  0
VERTEX
  8
0
  10
27.424805
  20
23.467285
  30
  0.0
  0
VERTEX
  8
0
  10
27.484375
  20
23.539062
  30
  0.0
  0
VERTEX
  8
0
  10
27.484375
  20
23.539062
  30
  0.0
  0
VERTEX
  8
0
  10
27.543945
  20
23.610840
  30
  0.0
  0
VERTEX
  8
0
  10
27.597656
  20
23.662109
  30
  0.0
  0
VERTEX
  8
0
  10
27.645508
  20
23.692871
  30
  0.0
  0
VERTEX
  8
0
  10
27.687500
  20
23.703125
  30
  0.0
  0
VERTEX
  8
0
  10
27.687500
  20
23.703125
  30
  0.0
  0
VERTEX
  8
0
  10
27.828613
  20
23.642090
  30
  0.0
  0
VERTEX
  8
0
  10
27.970703
  20
23.458984
  30
  0.0
  0
VERTEX
  8
0
  10
28.113770
  20
23.153809
  30
  0.0
  0
VERTEX
  8
0
  10
28.257812
  20
22.726562
  30
  0.0
  0
VERTEX
  8
0
  10
28.257812
  20
22.726562
  30
  0.0
  0
VERTEX
  8
0
  10
28.384277
  20
22.248535
  30
  0.0
  0
VERTEX
  8
0
  10
28.474609
  20
21.791016
  30
  0.0
  0
VERTEX
  8
0
  10
28.528809
  20
21.354004
  30
  0.0
  0
VERTEX
  8
0
  10
28.546875
  20
20.937500
  30
  0.0
  0
SEQEND
  0
POLYLINE
  8
0
  6
CONTINUOUS
  66
  1
  70
  1
  10
  0.0
  20
  0.0
  30
  0.0
  0
VERTEX
  8
0
  10
26.015625
  20
14.015625
  30
  0.0
  0
VERTEX
  8
0
  10
26.015625
  20
14.015625
  30
  0.0
  0
VERTEX
  8
0
  10
26.012207
  20
13.872070
  30
  0.0
  0
VERTEX
  8
0
  10
26.001953
  20
13.722656
  30
  0.0
  0
VERTEX
  8
0
  10
25.984863
  20
13.567383
  30
  0.0
  0
VERTEX
  8
0
  10
25.960938
  20
13.406250
  30
  0.0
  0
VERTEX
  8
0
  10
25.960938
  20
13.406250
  30
  0.0
  0
VERTEX
  8
0
  10
25.931152
  20
13.262695
  30
  0.0
  0
VERTEX
  8
0
  10
25.896484
  20
13.160156
  30
  0.0
  0
VERTEX
  8
0
  10
25.856934
  20
13.098633
  30
  0.0
  0
VERTEX
  8
0
  10
25.812500
  20
13.078125
  30
  0.0
  0
VERTEX
  8
0
  10
25.187500
  20
13.078125
  30
  0.0
  0
VERTEX
  8
0
  10
25.187500
  20
13.078125
  30
  0.0
  0
VERTEX
  8
0
  10
25.098633
  20
13.338867
  30
  0.0
  0
VERTEX
  8
0
  10
25.035156
  20
13.605469
  30
  0.0
  0
VERTEX
  8
0
  10
24.997070
  20
13.877930
  30
  0.0
  0
VERTEX
  8
0
  10
24.984375
  20
14.156250
  30
  0.0
  0
VERTEX
  8
0
  10
25.421875
  20
14.187500
  30
  0.0
  0
VERTEX
  8
0
  10
24.984375
  20
14.156250
  30
  0.0
  0
VERTEX
  8
0
  10
24.984375
  20
14.156250
  30
  0.0
  0
VERTEX
  8
0
  10
24.761719
  20
14.180664
  30
  0.0
  0
VERTEX
  8
0
  10
24.500000
  20
14.285156
  30
  0.0
  0
VERTEX
  8
0
  10
24.199219
  20
14.469727
  30
  0.0
  0
VERTEX
  8
0
  10
23.859375
  20
14.734375
  30
  0.0
  0
VERTEX
  8
0
  10
23.859375
  20
14.734375
  30
  0.0
  0
VERTEX
  8
0
  10
23.483398
  20
15.101562
  30
  0.0
  0
VERTEX
  8
0
  10
23.214844
  20
15.484375
  30
  0.0
  0
VERTEX
  8
0
  10
23.053711
  20
15.882812
  30
  0.0
  0
VERTEX
  8
0
  10
23.000000
  20
16.296875
  30
  0.0
  0
VERTEX
  8
0
  10
23.000000
  20
16.296875
  30
  0.0
  0
VERTEX
  8
0
  10
23.020996
  20
16.432129
  30
  0.0
  0
VERTEX
  8
0
  10
23.083984
  20
16.666016
  30
  0.0
  0
VERTEX
  8
0
  10
23.188965
  20
16.998535
  30
  0.0
  0
VERTEX
  8
0
  10
23.335938
  20
17.429688
  30
  0.0
  0
VERTEX
  8
0
  10
23.335938
  20
17.429688
  30
  0.0
  0
VERTEX
  8
0
  10
23.482910
  20
17.885254
  30
  0.0
  0
VERTEX
  8
0
  10
23.587891
  20
18.291016
  30
  0.0
  0
VERTEX
  8
0
  10
23.650879
  20
18.646973
  30
  0.0
  0
VERTEX
  8
0
  10
23.671875
  20
18.953125
  30
  0.0
  0
VERTEX
  8
0
  10
23.671875
  20
18.953125
  30
  0.0
  0
VERTEX
  8
0
  10
23.664551
  20
19.139160
  30
  0.0
  0
VERTEX
  8
0
  10
23.642578
  20
19.306641
  30
  0.0
  0
VERTEX
  8
0
  10
23.605957
  20
19.455566
  30
  0.0
  0
VERTEX
  8
0
  10
23.554688
  20
19.585938
  30
  0.0
  0
VERTEX
  8
0
  10
23.554688
  20
19.585938
  30
  0.0
  0
VERTEX
  8
0
  10
23.503418
  20
19.699707
  30
  0.0
  0
VERTEX
  8
0
  10
23.466797
  20
19.798828
  30
  0.0
  0
VERTEX
  8
0
  10
23.444824
  20
19.883301
  30
  0.0
  0
VERTEX
  8
0
  10
23.437500
  20
19.953125
  30
  0.0
  0
VERTEX
  8
0
  10
23.562500
  20
20.218750
  30
  0.0
  0
VERTEX
  8
0
  10
23.562500
  20
20.218750
  30
  0.0
  0
VERTEX
  8
0
  10
23.595215
  20
20.203613
  30
  0.0
  0
VERTEX
  8
0
  10
23.630859
  20
20.158203
  30
  0.0
  0
VERTEX
  8
0
  10
23.669434
  20
20.082520
  30
  0.0
  0
VERTEX
  8
0
  10
23.710938
  20
19.976562
  30
  0.0
  0
VERTEX
  8
0
  10
23.710938
  20
19.976562
  30
  0.0
  0
VERTEX
  8
0
  10
23.751465
  20
19.870605
  30
  0.0
  0
VERTEX
  8
0
  10
23.787109
  20
19.794922
  30
  0.0
  0
VERTEX
  8
0
  10
23.817871
  20
19.749512
  30
  0.0
  0
VERTEX
  8
0
  10
23.843750
  20
19.734375
  30
  0.0
  0
VERTEX
  8
0
  10
23.843750
  20
19.734375
  30
  0.0
  0
VERTEX
  8
0
  10
23.912109
  20
19.764648
  30
  0.0
  0
VERTEX
  8
0
  10
23.960938
  20
19.855469
  30
  0.0
  0
VERTEX
  8
0
  10
23.990234
  20
20.006836
  30
  0.0
  0
VERTEX
  8
0
  10
24.000000
  20
20.218750
  30
  0.0
  0
VERTEX
  8
0
  10
24.000000
  20
20.218750
  30
  0.0
  0
VERTEX
  8
0
  10
23.979492
  20
20.596680
  30
  0.0
  0
VERTEX
  8
0
  10
23.917969
  20
20.917969
  30
  0.0
  0
VERTEX
  8
0
  10
23.815430
  20
21.182617
  30
  0.0
  0
VERTEX
  8
0
  10
23.671875
  20
21.390625
  30
  0.0
  0
VERTEX
  8
0
  10
23.671875
  20
21.562500
  30
  0.0
  0
VERTEX
  8
0
  10
23.765625
  20
21.750000
  30
  0.0
  0
VERTEX
  8
0
  10
23.765625
  20
21.750000
  30
  0.0
  0
VERTEX
  8
0
  10
23.864746
  20
21.717285
  30
  0.0
  0
VERTEX
  8
0
  10
23.958984
  20
21.619141
  30
  0.0
  0
VERTEX
  8
0
  10
24.048340
  20
21.455566
  30
  0.0
  0
VERTEX
  8
0
  10
24.132812
  20
21.226562
  30
  0.0
  0
VERTEX
  8
0
  10
24.132812
  20
21.226562
  30
  0.0
  0
VERTEX
  8
0
  10
24.204590
  20
20.961426
  30
  0.0
  0
VERTEX
  8
0
  10
24.255859
  20
20.689453
  30
  0.0
  0
VERTEX
  8
0
  10
24.286621
  20
20.410645
  30
  0.0
  0
VERTEX
  8
0
  10
24.296875
  20
20.125000
  30
  0.0
  0
VERTEX
  8
0
  10
24.296875
  20
20.125000
  30
  0.0
  0
VERTEX
  8
0
  10
24.276367
  20
19.751465
  30
  0.0
  0
VERTEX
  8
0
  10
24.214844
  20
19.287109
  30
  0.0
  0
VERTEX
  8
0
  10
24.112305
  20
18.731934
  30
  0.0
  0
VERTEX
  8
0
  10
23.968750
  20
18.085938
  30
  0.0
  0
VERTEX
  8
0
  10
23.968750
  20
18.085938
  30
  0.0
  0
VERTEX
  8
0
  10
23.825195
  20
17.472168
  30
  0.0
  0
VERTEX
  8
0
  10
23.722656
  20
17.013672
  30
  0.0
  0
VERTEX
  8
0
  10
23.661133
  20
16.710449
  30
  0.0
  0
VERTEX
  8
0
  10
23.640625
  20
16.562500
  30
  0.0
  0
VERTEX
  8
0
  10
23.640625
  20
16.562500
  30
  0.0
  0
VERTEX
  8
0
  10
23.774414
  20
16.166016
  30
  0.0
  0
VERTEX
  8
0
  10
24.175781
  20
15.882812
  30
  0.0
  0
VERTEX
  8
0
  10
24.844727
  20
15.712891
  30
  0.0
  0
VERTEX
  8
0
  10
25.781250
  20
15.656250
  30
  0.0
  0
VERTEX
  8
0
  10
25.781250
  20
15.656250
  30
  0.0
  0
VERTEX
  8
0
  10
25.883789
  20
15.553711
  30
  0.0
  0
VERTEX
  8
0
  10
25.957031
  20
15.246094
  30
  0.0
  0
VERTEX
  8
0
  10
26.000977
  20
14.733398
  30
  0.0
  0
VERTEX
  8
0
  10
26.015625
  20
14.015625
  30
  0.0
  0
SEQEND
  0
POLYLINE
  8
0
  6
CONTINUOUS
  66
  1
  70
  1
  10
  0.0
  20
  0.0
  30
  0.0
  0
VERTEX
  8
0
  10
28.609375
  20
13.921875
  30
  0.0
  0
VERTEX
  8
0
  10
28.609375
  20
13.921875
  30
  0.0
  0
VERTEX
  8
0
  10
28.599121
  20
13.736328
  30
  0.0
  0
VERTEX
  8
0
  10
28.568359
  20
13.476562
  30
  0.0
  0
VERTEX
  8
0
  10
28.517090
  20
13.142578
  30
  0.0
  0
VERTEX
  8
0
  10
28.445312
  20
12.734375
  30
  0.0
  0
VERTEX
  8
0
  10
28.445312
  20
12.734375
  30
  0.0
  0
VERTEX
  8
0
  10
28.371582
  20
12.307617
  30
  0.0
  0
VERTEX
  8
0
  10
28.314453
  20
11.917969
  30
  0.0
  0
VERTEX
  8
0
  10
28.273926
  20
11.565430
  30
  0.0
  0
VERTEX
  8
0
  10
28.250000
  20
11.250000
  30
  0.0
  0
VERTEX
  8
0
  10
27.046875
  20
11.375000
  30
  0.0
  0
VERTEX
  8
0
  10
28.250000
  20
11.250000
  30
  0.0
  0
VERTEX
  8
0
  10
28.250000
  20
11.250000
  30
  0.0
  0
VERTEX
  8
0
  10
28.263672
  20
11.012695
  30
  0.0
  0
VERTEX
  8
0
  10
28.273438
  20
10.753906
  30
  0.0
  0
VERTEX
  8
0
  10
28.279297
  20
10.473633
  30
  0.0
  0
VERTEX
  8
0
  10
28.281250
  20
10.171875
  30
  0.0
  0
VERTEX
  8
0
  10
28.281250
  20
10.171875
  30
  0.0
  0
VERTEX
  8
0
  10
28.289062
  20
10.024414
  30
  0.0
  0
VERTEX
  8
0
  10
28.312500
  20
9.847656
  30
  0.0
  0
VERTEX
  8
0
  10
28.351562
  20
9.641602
  30
  0.0
  0
VERTEX
  8
0
  10
28.406250
  20
9.406250
  30
  0.0
  0
VERTEX
  8
0
  10
28.406250
  20
9.406250
  30
  0.0
  0
VERTEX
  8
0
  10
28.460938
  20
9.165039
  30
  0.0
  0
VERTEX
  8
0
  10
28.500000
  20
8.941406
  30
  0.0
  0
VERTEX
  8
0
  10
28.523438
  20
8.735352
  30
  0.0
  0
VERTEX
  8
0
  10
28.531250
  20
8.546875
  30
  0.0
  0
VERTEX
  8
0
  10
28.531250
  20
8.546875
  30
  0.0
  0
VERTEX
  8
0
  10
28.523438
  20
8.287109
  30
  0.0
  0
VERTEX
  8
0
  10
28.500000
  20
8.039062
  30
  0.0
  0
VERTEX
  8
0
  10
28.460938
  20
7.802734
  30
  0.0
  0
VERTEX
  8
0
  10
28.406250
  20
7.578125
  30
  0.0
  0
VERTEX
  8
0
  10
28.406250
  20
7.578125
  30
  0.0
  0
VERTEX
  8
0
  10
28.339844
  20
7.386719
  30
  0.0
  0
VERTEX
  8
0
  10
28.265625
  20
7.250000
  30
  0.0
  0
VERTEX
  8
0
  10
28.183594
  20
7.167969
  30
  0.0
  0
VERTEX
  8
0
  10
28.093750
  20
7.140625
  30
  0.0
  0
VERTEX
  8
0
  10
28.093750
  20
7.140625
  30
  0.0
  0
VERTEX
  8
0
  10
27.389648
  20
7.226562
  30
  0.0
  0
VERTEX
  8
0
  10
26.886719
  20
7.484375
  30
  0.0
  0
VERTEX
  8
0
  10
26.584961
  20
7.914062
  30
  0.0
  0
VERTEX
  8
0
  10
26.484375
  20
8.515625
  30
  0.0
  0
VERTEX
  8
0
  10
26.484375
  20
8.515625
  30
  0.0
  0
VERTEX
  8
0
  10
26.488281
  20
8.639648
  30
  0.0
  0
VERTEX
  8
0
  10
26.500000
  20
8.792969
  30
  0.0
  0
VERTEX
  8
0
  10
26.519531
  20
8.975586
  30
  0.0
  0
VERTEX
  8
0
  10
26.546875
  20
9.187500
  30
  0.0
  0
VERTEX
  8
0
  10
26.546875
  20
9.187500
  30
  0.0
  0
VERTEX
  8
0
  10
26.546875
  20
9.187500
  30
  0.0
  0
VERTEX
  8
0
  10
26.531250
  20
9.379883
  30
  0.0
  0
VERTEX
  8
0
  10
26.500000
  20
9.597656
  30
  0.0
  0
VERTEX
  8
0
  10
26.453125
  20
9.840820
  30
  0.0
  0
VERTEX
  8
0
  10
26.390625
  20
10.109375
  30
  0.0
  0
VERTEX
  8
0
  10
26.390625
  20
10.109375
  30
  0.0
  0
VERTEX
  8
0
  10
26.293945
  20
10.192383
  30
  0.0
  0
VERTEX
  8
0
  10
26.082031
  20
10.285156
  30
  0.0
  0
VERTEX
  8
0
  10
25.754883
  20
10.387695
  30
  0.0
  0
VERTEX
  8
0
  10
25.312500
  20
10.500000
  30
  0.0
  0
VERTEX
  8
0
  10
25.312500
  20
10.500000
  30
  0.0
  0
VERTEX
  8
0
  10
24.922852
  20
10.644531
  30
  0.0
  0
VERTEX
  8
0
  10
24.644531
  20
10.843750
  30
  0.0
  0
VERTEX
  8
0
  10
24.477539
  20
11.097656
  30
  0.0
  0
VERTEX
  8
0
  10
24.421875
  20
11.406250
  30
  0.0
  0
VERTEX
  8
0
  10
24.421875
  20
11.406250
  30
  0.0
  0
VERTEX
  8
0
  10
24.447266
  20
11.685547
  30
  0.0
  0
VERTEX
  8
0
  10
24.523438
  20
11.898438
  30
  0.0
  0
VERTEX
  8
0
  10
24.650391
  20
12.044922
  30
  0.0
  0
VERTEX
  8
0
  10
24.828125
  20
12.125000
  30
  0.0
  0
VERTEX
  8
0
  10
24.828125
  20
12.125000
  30
  0.0
  0
VERTEX
  8
0
  10
25.112305
  20
12.190430
  30
  0.0
  0
VERTEX
  8
0
  10
25.464844
  20
12.277344
  30
  0.0
  0
VERTEX
  8
0
  10
25.885742
  20
12.385742
  30
  0.0
  0
VERTEX
  8
0
  10
26.375000
  20
12.515625
  30
  0.0
  0
VERTEX
  8
0
  10
26.375000
  20
12.515625
  30
  0.0
  0
VERTEX
  8
0
  10
26.453125
  20
12.717773
  30
  0.0
  0
VERTEX
  8
0
  10
26.500000
  20
12.964844
  30
  0.0
  0
VERTEX
  8
0
  10
26.515625
  20
13.256836
  30
  0.0
  0
VERTEX
  8
0
  10
26.500000
  20
13.593750
  30
  0.0
  0
VERTEX
  8
0
  10
26.500000
  20
13.593750
  30
  0.0
  0
VERTEX
  8
0
  10
26.500000
  20
13.593750
  30
  0.0
  0
VERTEX
  8
0
  10
26.486328
  20
13.826172
  30
  0.0
  0
VERTEX
  8
0
  10
26.476562
  20
13.992188
  30
  0.0
  0
VERTEX
  8
0
  10
26.470703
  20
14.091797
  30
  0.0
  0
VERTEX
  8
0
  10
26.468750
  20
14.125000
  30
  0.0
  0
VERTEX
  8
0
  10
26.468750
  20
14.125000
  30
  0.0
  0
VERTEX
  8
0
  10
26.558594
  20
14.651367
  30
  0.0
  0
VERTEX
  8
0
  10
26.828125
  20
15.027344
  30
  0.0
  0
VERTEX
  8
0
  10
27.277344
  20
15.252930
  30
  0.0
  0
VERTEX
  8
0
  10
27.906250
  20
15.328125
  30
  0.0
  0
VERTEX
  8
0
  10
27.906250
  20
15.328125
  30
  0.0
  0
VERTEX
  8
0
  10
28.213867
  20
15.240234
  30
  0.0
  0
VERTEX
  8
0
  10
28.433594
  20
14.976562
  30
  0.0
  0
VERTEX
  8
0
  10
28.565430
  20
14.537109
  30
  0.0
  0
VERTEX
  8
0
  10
28.609375
  20
13.921875
  30
  0.0
  0
SEQEND
  0
POLYLINE
  8
0
  6
CONTINUOUS
  66
  1
  70
  1
  10
  0.0
  20
  0.0
  30
  0.0
  0
VERTEX
  8
0
  10
23.515625
  20
22.312500
  30
  0.0
  0
VERTEX
  8
0
  10
23.515625
  20
22.312500
  30
  0.0
  0
VERTEX
  8
0
  10
23.505859
  20
22.197754
  30
  0.0
  0
VERTEX
  8
0
  10
23.476562
  20
22.025391
  30
  0.0
  0
VERTEX
  8
0
  10
23.427734
  20
21.795410
  30
  0.0
  0
VERTEX
  8
0
  10
23.359375
  20
21.507812
  30
  0.0
  0
VERTEX
  8
0
  10
23.359375
  20
21.507812
  30
  0.0
  0
VERTEX
  8
0
  10
23.291016
  20
21.204590
  30
  0.0
  0
VERTEX
  8
0
  10
23.242188
  20
20.927734
  30
  0.0
  0
VERTEX
  8
0
  10
23.212891
  20
20.677246
  30
  0.0
  0
VERTEX
  8
0
  10
23.203125
  20
20.453125
  30
  0.0
  0
VERTEX
  8
0
  10
23.203125
  20
20.453125
  30
  0.0
  0
VERTEX
  8
0
  10
23.204590
  20
20.357422
  30
  0.0
  0
VERTEX
  8
0
  10
23.208984
  20
20.242188
  30
  0.0
  0
VERTEX
  8
0
  10
23.216309
  20
20.107422
  30
  0.0
  0
VERTEX
  8
0
  10
23.226562
  20
19.953125
  30
  0.0
  0
VERTEX
  8
0
  10
23.226562
  20
19.953125
  30
  0.0
  0
VERTEX
  8
0
  10
23.236816
  20
19.799805
  30
  0.0
  0
VERTEX
  8
0
  10
23.244141
  20
19.667969
  30
  0.0
  0
VERTEX
  8
0
  10
23.248535
  20
19.557617
  30
  0.0
  0
VERTEX
  8
0
  10
23.250000
  20
19.468750
  30
  0.0
  0
VERTEX
  8
0
  10
23.250000
  20
19.468750
  30
  0.0
  0
VERTEX
  8
0
  10
23.236328
  20
19.140625
  30
  0.0
  0
VERTEX
  8
0
  10
23.195312
  20
18.906250
  30
  0.0
  0
VERTEX
  8
0
  10
23.126953
  20
18.765625
  30
  0.0
  0
VERTEX
  8
0
  10
23.031250
  20
18.718750
  30
  0.0
  0
VERTEX
  8
0
  10
23.031250
  20
18.718750
  30
  0.0
  0
VERTEX
  8
0
  10
22.988770
  20
18.735840
  30
  0.0
  0
VERTEX
  8
0
  10
22.939453
  20
18.787109
  30
  0.0
  0
VERTEX
  8
0
  10
22.883301
  20
18.872559
  30
  0.0
  0
VERTEX
  8
0
  10
22.820312
  20
18.992188
  30
  0.0
  0
VERTEX
  8
0
  10
22.820312
  20
18.992188
  30
  0.0
  0
VERTEX
  8
0
  10
22.755371
  20
19.111816
  30
  0.0
  0
VERTEX
  8
0
  10
22.693359
  20
19.197266
  30
  0.0
  0
VERTEX
  8
0
  10
22.634277
  20
19.248535
  30
  0.0
  0
VERTEX
  8
0
  10
22.578125
  20
19.265625
  30
  0.0
  0
VERTEX
  8
0
  10
22.578125
  20
19.265625
  30
  0.0
  0
VERTEX
  8
0
  10
22.467773
  20
19.199707
  30
  0.0
  0
VERTEX
  8
0
  10
22.386719
  20
19.001953
  30
  0.0
  0
VERTEX
  8
0
  10
22.334961
  20
18.672363
  30
  0.0
  0
VERTEX
  8
0
  10
22.312500
  20
18.210938
  30
  0.0
  0
VERTEX
  8
0
  10
22.312500
  20
18.210938
  30
  0.0
  0
VERTEX
  8
0
  10
22.289062
  20
17.749512
  30
  0.0
  0
VERTEX
  8
0
  10
22.234375
  20
17.419922
  30
  0.0
  0
VERTEX
  8
0
  10
22.148438
  20
17.222168
  30
  0.0
  0
VERTEX
  8
0
  10
22.031250
  20
17.156250
  30
  0.0
  0
VERTEX
  8
0
  10
22.031250
  20
17.156250
  30
  0.0
  0
VERTEX
  8
0
  10
22.016602
  20
17.164062
  30
  0.0
  0
VERTEX
  8
0
  10
21.972656
  20
17.187500
  30
  0.0
  0
VERTEX
  8
0
  10
21.899414
  20
17.226562
  30
  0.0
  0
VERTEX
  8
0
  10
21.796875
  20
17.281250
  30
  0.0
  0
VERTEX
  8
0
  10
21.859375
  20
18.687500
  30
  0.0
  0
VERTEX
  8
0
  10
21.796875
  20
17.281250
  30
  0.0
  0
VERTEX
  8
0
  10
21.796875
  20
17.281250
  30
  0.0
  0
VERTEX
  8
0
  10
21.711914
  20
17.338379
  30
  0.0
  0
VERTEX
  8
0
  10
21.613281
  20
17.509766
  30
  0.0
  0
VERTEX
  8
0
  10
21.500977
  20
17.795410
  30
  0.0
  0
VERTEX
  8
0
  10
21.375000
  20
18.195312
  30
  0.0
  0
VERTEX
  8
0
  10
21.375000
  20
18.195312
  30
  0.0
  0
VERTEX
  8
0
  10
21.244141
  20
18.595215
  30
  0.0
  0
VERTEX
  8
0
  10
21.117188
  20
18.880859
  30
  0.0
  0
VERTEX
  8
0
  10
20.994141
  20
19.052246
  30
  0.0
  0
VERTEX
  8
0
  10
20.875000
  20
19.109375
  30
  0.0
  0
VERTEX
  8
0
  10
20.875000
  20
19.109375
  30
  0.0
  0
VERTEX
  8
0
  10
20.831055
  20
19.101074
  30
  0.0
  0
VERTEX
  8
0
  10
20.777344
  20
19.076172
  30
  0.0
  0
VERTEX
  8
0
  10
20.713867
  20
19.034668
  30
  0.0
  0
VERTEX
  8
0
  10
20.640625
  20
18.976562
  30
  0.0
  0
VERTEX
  8
0
  10
20.640625
  20
18.976562
  30
  0.0
  0
VERTEX
  8
0
  10
20.568359
  20
18.918457
  30
  0.0
  0
VERTEX
  8
0
  10
20.507812
  20
18.876953
  30
  0.0
  0
VERTEX
  8
0
  10
20.458984
  20
18.852051
  30
  0.0
  0
VERTEX
  8
0
  10
20.421875
  20
18.843750
  30
  0.0
  0
VERTEX
  8
0
  10
20.421875
  20
18.843750
  30
  0.0
  0
VERTEX
  8
0
  10
20.360840
  20
18.862305
  30
  0.0
  0
VERTEX
  8
0
  10
20.302734
  20
18.917969
  30
  0.0
  0
VERTEX
  8
0
  10
20.247559
  20
19.010742
  30
  0.0
  0
VERTEX
  8
0
  10
20.195312
  20
19.140625
  30
  0.0
  0
VERTEX
  8
0
  10
20.195312
  20
19.140625
  30
  0.0
  0
VERTEX
  8
0
  10
20.150879
  20
19.292969
  30
  0.0
  0
VERTEX
  8
0
  10
20.119141
  20
19.453125
  30
  0.0
  0
VERTEX
  8
0
  10
20.100098
  20
19.621094
  30
  0.0
  0
VERTEX
  8
0
  10
20.093750
  20
19.796875
  30
  0.0
  0
VERTEX
  8
0
  10
20.093750
  20
19.796875
  30
  0.0
  0
VERTEX
  8
0
  10
20.096680
  20
19.833008
  30
  0.0
  0
VERTEX
  8
0
  10
20.105469
  20
19.941406
  30
  0.0
  0
VERTEX
  8
0
  10
20.120117
  20
20.122070
  30
  0.0
  0
VERTEX
  8
0
  10
20.140625
  20
20.375000
  30
  0.0
  0
VERTEX
  8
0
  10
21.562500
  20
20.406250
  30
  0.0
  0
VERTEX
  8
0
  10
20.140625
  20
20.375000
  30
  0.0
  0
VERTEX
  8
0
  10
20.140625
  20
20.375000
  30
  0.0
  0
VERTEX
  8
0
  10
20.120117
  20
20.478516
  30
  0.0
  0
VERTEX
  8
0
  10
20.105469
  20
20.648438
  30
  0.0
  0
VERTEX
  8
0
  10
20.096680
  20
20.884766
  30
  0.0
  0
VERTEX
  8
0
  10
20.093750
  20
21.187500
  30
  0.0
  0
VERTEX
  8
0
  10
20.093750
  20
21.187500
  30
  0.0
  0
VERTEX
  8
0
  10
20.151367
  20
21.951172
  30
  0.0
  0
VERTEX
  8
0
  10
20.324219
  20
22.570312
  30
  0.0
  0
VERTEX
  8
0
  10
20.612305
  20
23.044922
  30
  0.0
  0
VERTEX
  8
0
  10
21.015625
  20
23.375000
  30
  0.0
  0
VERTEX
  8
0
  10
21.015625
  20
23.375000
  30
  0.0
  0
VERTEX
  8
0
  10
21.262695
  20
23.477539
  30
  0.0
  0
VERTEX
  8
0
  10
21.582031
  20
23.550781
  30
  0.0
  0
VERTEX
  8
0
  10
21.973633
  20
23.594727
  30
  0.0
  0
VERTEX
  8
0
  10
22.437500
  20
23.609375
  30
  0.0
  0
VERTEX
  8
0
  10
22.437500
  20
23.609375
  30
  0.0
  0
VERTEX
  8
0
  10
22.909180
  20
23.528320
  30
  0.0
  0
VERTEX
  8
0
  10
23.246094
  20
23.285156
  30
  0.0
  0
VERTEX
  8
0
  10
23.448242
  20
22.879883
  30
  0.0
  0
VERTEX
  8
0
  10
23.515625
  20
22.312500
  30
  0.0
  0
SEQEND
  0
POLYLINE
  8
0
  6
CONTINUOUS
  66
  1
  70
  1
  10
  0.0
  20
  0.0
  30
  0.0
  0
VERTEX
  8
0
  10
28.593750
  20
4.046875
  30
  0.0
  0
VERTEX
  8
0
  10
28.593750
  20
4.046875
  30
  0.0
  0
VERTEX
  8
0
  10
28.589844
  20
3.807617
  30
  0.0
  0
VERTEX
  8
0
  10
28.578125
  20
3.574219
  30
  0.0
  0
VERTEX
  8
0
  10
28.558594
  20
3.346680
  30
  0.0
  0
VERTEX
  8
0
  10
28.531250
  20
3.125000
  30
  0.0
  0
VERTEX
  8
0
  10
27.125000
  20
3.484375
  30
  0.0
  0
VERTEX
  8
0
  10
28.531250
  20
3.125000
  30
  0.0
  0
VERTEX
  8
0
  10
28.531250
  20
3.125000
  30
  0.0
  0
VERTEX
  8
0
  10
28.524414
  20
2.947266
  30
  0.0
  0
VERTEX
  8
0
  10
28.503906
  20
2.742188
  30
  0.0
  0
VERTEX
  8
0
  10
28.469727
  20
2.509766
  30
  0.0
  0
VERTEX
  8
0
  10
28.421875
  20
2.250000
  30
  0.0
  0
VERTEX
  8
0
  10
28.421875
  20
2.250000
  30
  0.0
  0
VERTEX
  8
0
  10
28.366211
  20
2.010742
  30
  0.0
  0
VERTEX
  8
0
  10
28.308594
  20
1.839844
  30
  0.0
  0
VERTEX
  8
0
  10
28.249023
  20
1.737305
  30
  0.0
  0
VERTEX
  8
0
  10
28.187500
  20
1.703125
  30
  0.0
  0
VERTEX
  8
0
  10
28.187500
  20
1.703125
  30
  0.0
  0
VERTEX
  8
0
  10
28.143066
  20
1.717285
  30
  0.0
  0
VERTEX
  8
0
  10
28.087891
  20
1.759766
  30
  0.0
  0
VERTEX
  8
0
  10
28.021973
  20
1.830566
  30
  0.0
  0
VERTEX
  8
0
  10
27.945312
  20
1.929688
  30
  0.0
  0
VERTEX
  8
0
  10
27.945312
  20
1.929688
  30
  0.0
  0
VERTEX
  8
0
  10
27.867676
  20
2.028809
  30
  0.0
  0
VERTEX
  8
0
  10
27.798828
  20
2.099609
  30
  0.0
  0
VERTEX
  8
0
  10
27.738770
  20
2.142090
  30
  0.0
  0
VERTEX
  8
0
  10
27.687500
  20
2.156250
  30
  0.0
  0
VERTEX
  8
0
  10
27.687500
  20
2.156250
  30
  0.0
  0
VERTEX
  8
0
  10
27.574707
  20
2.104980
  30
  0.0
  0
VERTEX
  8
0
  10
27.470703
  20
1.951172
  30
  0.0
  0
VERTEX
  8
0
  10
27.375488
  20
1.694824
  30
  0.0
  0
VERTEX
  8
0
  10
27.289062
  20
1.335938
  30
  0.0
  0
VERTEX
  8
0
  10
27.289062
  20
1.335938
  30
  0.0
  0
VERTEX
  8
0
  10
27.211426
  20
0.977051
  30
  0.0
  0
VERTEX
  8
0
  10
27.142578
  20
0.720703
  30
  0.0
  0
VERTEX
  8
0
  10
27.082520
  20
0.566895
  30
  0.0
  0
VERTEX
  8
0
  10
27.031250
  20
0.515625
  30
  0.0
  0
VERTEX
  8
0
  10
27.031250
  20
0.515625
  30
  0.0
  0
VERTEX
  8
0
  10
27.012695
  20
0.522461
  30
  0.0
  0
VERTEX
  8
0
  10
26.957031
  20
0.542969
  30
  0.0
  0
VERTEX
  8
0
  10
26.864258
  20
0.577148
  30
  0.0
  0
VERTEX
  8
0
  10
26.734375
  20
0.625000
  30
  0.0
  0
VERTEX
  8
0
  10
26.765625
  20
1.984375
  30
  0.0
  0
VERTEX
  8
0
  10
26.734375
  20
0.625000
  30
  0.0
  0
VERTEX
  8
0
  10
26.734375
  20
0.625000
  30
  0.0
  0
VERTEX
  8
0
  10
26.618164
  20
0.611328
  30
  0.0
  0
VERTEX
  8
0
  10
26.535156
  20
0.601562
  30
  0.0
  0
VERTEX
  8
0
  10
26.485352
  20
0.595703
  30
  0.0
  0
VERTEX
  8
0
  10
26.468750
  20
0.593750
  30
  0.0
  0
VERTEX
  8
0
  10
26.468750
  20
0.593750
  30
  0.0
  0
VERTEX
  8
0
  10
26.372559
  20
0.659668
  30
  0.0
  0
VERTEX
  8
0
  10
26.302734
  20
0.857422
  30
  0.0
  0
VERTEX
  8
0
  10
26.259277
  20
1.187012
  30
  0.0
  0
VERTEX
  8
0
  10
26.242188
  20
1.648438
  30
  0.0
  0
VERTEX
  8
0
  10
26.242188
  20
1.648438
  30
  0.0
  0
VERTEX
  8
0
  10
26.221191
  20
2.109863
  30
  0.0
  0
VERTEX
  8
0
  10
26.166016
  20
2.439453
  30
  0.0
  0
VERTEX
  8
0
  10
26.076660
  20
2.637207
  30
  0.0
  0
VERTEX
  8
0
  10
25.953125
  20
2.703125
  30
  0.0
  0
VERTEX
  8
0
  10
25.953125
  20
2.703125
  30
  0.0
  0
VERTEX
  8
0
  10
25.911133
  20
2.689941
  30
  0.0
  0
VERTEX
  8
0
  10
25.863281
  20
2.650391
  30
  0.0
  0
VERTEX
  8
0
  10
25.809570
  20
2.584473
  30
  0.0
  0
VERTEX
  8
0
  10
25.750000
  20
2.492188
  30
  0.0
  0
VERTEX
  8
0
  10
25.750000
  20
2.492188
  30
  0.0
  0
VERTEX
  8
0
  10
25.692383
  20
2.399902
  30
  0.0
  0
VERTEX
  8
0
  10
25.644531
  20
2.333984
  30
  0.0
  0
VERTEX
  8
0
  10
25.606445
  20
2.294434
  30
  0.0
  0
VERTEX
  8
0
  10
25.578125
  20
2.281250
  30
  0.0
  0
VERTEX
  8
0
  10
25.578125
  20
2.281250
  30
  0.0
  0
VERTEX
  8
0
  10
25.539062
  20
2.297852
  30
  0.0
  0
VERTEX
  8
0
  10
25.500000
  20
2.347656
  30
  0.0
  0
VERTEX
  8
0
  10
25.460938
  20
2.430664
  30
  0.0
  0
VERTEX
  8
0
  10
25.421875
  20
2.546875
  30
  0.0
  0
VERTEX
  8
0
  10
25.421875
  20
2.546875
  30
  0.0
  0
VERTEX
  8
0
  10
25.387695
  20
2.678711
  30
  0.0
  0
VERTEX
  8
0
  10
25.363281
  20
2.808594
  30
  0.0
  0
VERTEX
  8
0
  10
25.348633
  20
2.936523
  30
  0.0
  0
VERTEX
  8
0
  10
25.343750
  20
3.062500
  30
  0.0
  0
VERTEX
  8
0
  10
25.343750
  20
3.062500
  30
  0.0
  0
VERTEX
  8
0
  10
25.398438
  20
3.416992
  30
  0.0
  0
VERTEX
  8
0
  10
25.437500
  20
3.730469
  30
  0.0
  0
VERTEX
  8
0
  10
25.460938
  20
4.002930
  30
  0.0
  0
VERTEX
  8
0
  10
25.468750
  20
4.234375
  30
  0.0
  0
VERTEX
  8
0
  10
25.468750
  20
4.234375
  30
  0.0
  0
VERTEX
  8
0
  10
25.459961
  20
4.438965
  30
  0.0
  0
VERTEX
  8
0
  10
25.433594
  20
4.662109
  30
  0.0
  0
VERTEX
  8
0
  10
25.389648
  20
4.903809
  30
  0.0
  0
VERTEX
  8
0
  10
25.328125
  20
5.164062
  30
  0.0
  0
VERTEX
  8
0
  10
25.328125
  20
5.164062
  30
  0.0
  0
VERTEX
  8
0
  10
25.266602
  20
5.418457
  30
  0.0
  0
VERTEX
  8
0
  10
25.222656
  20
5.642578
  30
  0.0
  0
VERTEX
  8
0
  10
25.196289
  20
5.836426
  30
  0.0
  0
VERTEX
  8
0
  10
25.187500
  20
6.000000
  30
  0.0
  0
VERTEX
  8
0
  10
25.187500
  20
6.000000
  30
  0.0
  0
VERTEX
  8
0
  10
25.216797
  20
6.444336
  30
  0.0
  0
VERTEX
  8
0
  10
25.304688
  20
6.761719
  30
  0.0
  0
VERTEX
  8
0
  10
25.451172
  20
6.952148
  30
  0.0
  0
VERTEX
  8
0
  10
25.656250
  20
7.015625
  30
  0.0
  0
VERTEX
  8
0
  10
25.656250
  20
7.015625
  30
  0.0
  0
VERTEX
  8
0
  10
25.839355
  20
7.000000
  30
  0.0
  0
VERTEX
  8
0
  10
26.091797
  20
6.953125
  30
  0.0
  0
VERTEX
  8
0
  10
26.413574
  20
6.875000
  30
  0.0
  0
VERTEX
  8
0
  10
26.804688
  20
6.765625
  30
  0.0
  0
VERTEX
  8
0
  10
26.804688
  20
6.765625
  30
  0.0
  0
VERTEX
  8
0
  10
27.194824
  20
6.638672
  30
  0.0
  0
VERTEX
  8
0
  10
27.513672
  20
6.507812
  30
  0.0
  0
VERTEX
  8
0
  10
27.761230
  20
6.373047
  30
  0.0
  0
VERTEX
  8
0
  10
27.937500
  20
6.234375
  30
  0.0
  0
VERTEX
  8
0
  10
27.937500
  20
6.234375
  30
  0.0
  0
VERTEX
  8
0
  10
28.224609
  20
5.863281
  30
  0.0
  0
VERTEX
  8
0
  10
28.429688
  20
5.375000
  30
  0.0
  0
VERTEX
  8
0
  10
28.552734
  20
4.769531
  30
  0.0
  0
VERTEX
  8
0
  10
28.593750
  20
4.046875
  30
  0.0
  0
SEQEND
  0
POLYLINE
  8
0
  6
CONTINUOUS
  66
  1
  70
  1
  10
  0.0
  20
  0.0
  30
  0.0
  0
VERTEX
  8
0
  10
24.265625
  20
10.734375
  30
  0.0
  0
VERTEX
  8
0
  10
24.265625
  20
10.734375
  30
  0.0
  0
VERTEX
  8
0
  10
24.258301
  20
10.531250
  30
  0.0
  0
VERTEX
  8
0
  10
24.236328
  20
10.343750
  30
  0.0
  0
VERTEX
  8
0
  10
24.199707
  20
10.171875
  30
  0.0
  0
VERTEX
  8
0
  10
24.148438
  20
10.015625
  30
  0.0
  0
VERTEX
  8
0
  10
24.148438
  20
10.015625
  30
  0.0
  0
VERTEX
  8
0
  10
24.087402
  20
9.885742
  30
  0.0
  0
VERTEX
  8
0
  10
24.021484
  20
9.792969
  30
  0.0
  0
VERTEX
  8
0
  10
23.950684
  20
9.737305
  30
  0.0
  0
VERTEX
  8
0
  10
23.875000
  20
9.718750
  30
  0.0
  0
VERTEX
  8
0
  10
23.875000
  20
9.718750
  30
  0.0
  0
VERTEX
  8
0
  10
23.823730
  20
9.725586
  30
  0.0
  0
VERTEX
  8
0
  10
23.763672
  20
9.746094
  30
  0.0
  0
VERTEX
  8
0
  10
23.694824
  20
9.780273
  30
  0.0
  0
VERTEX
  8
0
  10
23.617188
  20
9.828125
  30
  0.0
  0
VERTEX
  8
0
  10
23.617188
  20
9.828125
  30
  0.0
  0
VERTEX
  8
0
  10
23.540527
  20
9.875977
  30
  0.0
  0
VERTEX
  8
0
  10
23.474609
  20
9.910156
  30
  0.0
  0
VERTEX
  8
0
  10
23.419434
  20
9.930664
  30
  0.0
  0
VERTEX
  8
0
  10
23.375000
  20
9.937500
  30
  0.0
  0
VERTEX
  8
0
  10
23.375000
  20
9.937500
  30
  0.0
  0
VERTEX
  8
0
  10
23.320312
  20
9.881836
  30
  0.0
  0
VERTEX
  8
0
  10
23.281250
  20
9.714844
  30
  0.0
  0
VERTEX
  8
0
  10
23.257812
  20
9.436523
  30
  0.0
  0
VERTEX
  8
0
  10
23.250000
  20
9.046875
  30
  0.0
  0
VERTEX
  8
0
  10
23.250000
  20
9.046875
  30
  0.0
  0
VERTEX
  8
0
  10
23.241211
  20
8.657227
  30
  0.0
  0
VERTEX
  8
0
  10
23.214844
  20
8.378906
  30
  0.0
  0
VERTEX
  8
0
  10
23.170898
  20
8.211914
  30
  0.0
  0
VERTEX
  8
0
  10
23.109375
  20
8.156250
  30
  0.0
  0
VERTEX
  8
0
  10
23.109375
  20
8.156250
  30
  0.0
  0
VERTEX
  8
0
  10
23.008789
  20
8.173828
  30
  0.0
  0
VERTEX
  8
0
  10
22.894531
  20
8.226562
  30
  0.0
  0
VERTEX
  8
0
  10
22.766602
  20
8.314453
  30
  0.0
  0
VERTEX
  8
0
  10
22.625000
  20
8.437500
  30
  0.0
  0
VERTEX
  8
0
  10
22.625000
  20
8.437500
  30
  0.0
  0
VERTEX
  8
0
  10
22.460938
  20
8.603516
  30
  0.0
  0
VERTEX
  8
0
  10
22.343750
  20
8.773438
  30
  0.0
  0
VERTEX
  8
0
  10
22.273438
  20
8.947266
  30
  0.0
  0
VERTEX
  8
0
  10
22.250000
  20
9.125000
  30
  0.0
  0
VERTEX
  8
0
  10
22.250000
  20
9.125000
  30
  0.0
  0
VERTEX
  8
0
  10
22.279297
  20
9.369141
  30
  0.0
  0
VERTEX
  8
0
  10
22.367188
  20
9.773438
  30
  0.0
  0
VERTEX
  8
0
  10
22.513672
  20
10.337891
  30
  0.0
  0
VERTEX
  8
0
  10
22.718750
  20
11.062500
  30
  0.0
  0
VERTEX
  8
0
  10
22.718750
  20
11.062500
  30
  0.0
  0
VERTEX
  8
0
  10
22.794922
  20
11.313477
  30
  0.0
  0
VERTEX
  8
0
  10
22.851562
  20
11.488281
  30
  0.0
  0
VERTEX
  8
0
  10
22.888672
  20
11.586914
  30
  0.0
  0
VERTEX
  8
0
  10
22.906250
  20
11.609375
  30
  0.0
  0
VERTEX
  8
0
  10
23.250000
  20
11.312500
  30
  0.0
  0
VERTEX
  8
0
  10
22.906250
  20
11.609375
  30
  0.0
  0
VERTEX
  8
0
  10
22.906250
  20
11.609375
  30
  0.0
  0
VERTEX
  8
0
  10
22.837891
  20
12.399414
  30
  0.0
  0
VERTEX
  8
0
  10
22.789062
  20
13.113281
  30
  0.0
  0
VERTEX
  8
0
  10
22.759766
  20
13.750977
  30
  0.0
  0
VERTEX
  8
0
  10
22.750000
  20
14.312500
  30
  0.0
  0
VERTEX
  8
0
  10
22.750000
  20
14.312500
  30
  0.0
  0
VERTEX
  8
0
  10
22.760742
  20
14.524414
  30
  0.0
  0
VERTEX
  8
0
  10
22.792969
  20
14.675781
  30
  0.0
  0
VERTEX
  8
0
  10
22.846680
  20
14.766602
  30
  0.0
  0
VERTEX
  8
0
  10
22.921875
  20
14.796875
  30
  0.0
  0
VERTEX
  8
0
  10
22.921875
  20
14.796875
  30
  0.0
  0
VERTEX
  8
0
  10
23.250000
  20
14.725586
  30
  0.0
  0
VERTEX
  8
0
  10
23.500000
  20
14.511719
  30
  0.0
  0
VERTEX
  8
0
  10
23.671875
  20
14.155273
  30
  0.0
  0
VERTEX
  8
0
  10
23.765625
  20
13.656250
  30
  0.0
  0
VERTEX
  8
0
  10
23.765625
  20
13.656250
  30
  0.0
  0
VERTEX
  8
0
  10
23.722656
  20
13.494141
  30
  0.0
  0
VERTEX
  8
0
  10
23.671875
  20
13.289062
  30
  0.0
  0
VERTEX
  8
0
  10
23.613281
  20
13.041016
  30
  0.0
  0
VERTEX
  8
0
  10
23.546875
  20
12.750000
  30
  0.0
  0
VERTEX
  8
0
  10
23.546875
  20
12.546875
  30
  0.0
  0
VERTEX
  8
0
  10
23.546875
  20
12.546875
  30
  0.0
  0
VERTEX
  8
0
  10
23.569336
  20
12.315918
  30
  0.0
  0
VERTEX
  8
0
  10
23.636719
  20
12.107422
  30
  0.0
  0
VERTEX
  8
0
  10
23.749023
  20
11.921387
  30
  0.0
  0
VERTEX
  8
0
  10
23.906250
  20
11.757812
  30
  0.0
  0
VERTEX
  8
0
  10
23.906250
  20
11.757812
  30
  0.0
  0
VERTEX
  8
0
  10
24.063477
  20
11.579590
  30
  0.0
  0
VERTEX
  8
0
  10
24.175781
  20
11.349609
  30
  0.0
  0
VERTEX
  8
0
  10
24.243164
  20
11.067871
  30
  0.0
  0
VERTEX
  8
0
  10
24.265625
  20
10.734375
  30
  0.0
  0
SEQEND
  0
POLYLINE
  8
0
  6
CONTINUOUS
  66
  1
  70
  1
  10
  0.0
  20
  0.0
  30
  0.0
  0
VERTEX
  8
0
  10
22.781250
  20
15.984375
  30
  0.0
  0
VERTEX
  8
0
  10
22.781250
  20
15.984375
  30
  0.0
  0
VERTEX
  8
0
  10
22.768555
  20
15.718750
  30
  0.0
  0
VERTEX
  8
0
  10
22.730469
  20
15.421875
  30
  0.0
  0
VERTEX
  8
0
  10
22.666992
  20
15.093750
  30
  0.0
  0
VERTEX
  8
0
  10
22.578125
  20
14.734375
  30
  0.0
  0
VERTEX
  8
0
  10
22.578125
  20
14.734375
  30
  0.0
  0
VERTEX
  8
0
  10
22.489258
  20
14.383789
  30
  0.0
  0
VERTEX
  8
0
  10
22.425781
  20
14.082031
  30
  0.0
  0
VERTEX
  8
0
  10
22.387695
  20
13.829102
  30
  0.0
  0
VERTEX
  8
0
  10
22.375000
  20
13.625000
  30
  0.0
  0
VERTEX
  8
0
  10
22.375000
  20
13.625000
  30
  0.0
  0
VERTEX
  8
0
  10
22.378418
  20
13.472168
  30
  0.0
  0
VERTEX
  8
0
  10
22.388672
  20
13.294922
  30
  0.0
  0
VERTEX
  8
0
  10
22.405762
  20
13.093262
  30
  0.0
  0
VERTEX
  8
0
  10
22.429688
  20
12.867188
  30
  0.0
  0
VERTEX
  8
0
  10
22.429688
  20
12.867188
  30
  0.0
  0
VERTEX
  8
0
  10
22.453613
  20
12.642090
  30
  0.0
  0
VERTEX
  8
0
  10
22.470703
  20
12.443359
  30
  0.0
  0
VERTEX
  8
0
  10
22.480957
  20
12.270996
  30
  0.0
  0
VERTEX
  8
0
  10
22.484375
  20
12.125000
  30
  0.0
  0
VERTEX
  8
0
  10
22.484375
  20
12.125000
  30
  0.0
  0
VERTEX
  8
0
  10
22.452637
  20
11.468262
  30
  0.0
  0
VERTEX
  8
0
  10
22.357422
  20
10.826172
  30
  0.0
  0
VERTEX
  8
0
  10
22.198730
  20
10.198730
  30
  0.0
  0
VERTEX
  8
0
  10
21.976562
  20
9.585938
  30
  0.0
  0
VERTEX
  8
0
  10
21.976562
  20
9.585938
  30
  0.0
  0
VERTEX
  8
0
  10
21.726074
  20
9.056152
  30
  0.0
  0
VERTEX
  8
0
  10
21.482422
  20
8.677734
  30
  0.0
  0
VERTEX
  8
0
  10
21.245605
  20
8.450684
  30
  0.0
  0
VERTEX
  8
0
  10
21.015625
  20
8.375000
  30
  0.0
  0
VERTEX
  8
0
  10
21.015625
  20
8.375000
  30
  0.0
  0
VERTEX
  8
0
  10
20.970703
  20
8.397461
  30
  0.0
  0
VERTEX
  8
0
  10
20.929688
  20
8.464844
  30
  0.0
  0
VERTEX
  8
0
  10
20.892578
  20
8.577148
  30
  0.0
  0
VERTEX
  8
0
  10
20.859375
  20
8.734375
  30
  0.0
  0
VERTEX
  8
0
  10
20.859375
  20
8.734375
  30
  0.0
  0
VERTEX
  8
0
  10
20.898438
  20
8.879883
  30
  0.0
  0
VERTEX
  8
0
  10
21.000000
  20
9.113281
  30
  0.0
  0
VERTEX
  8
0
  10
21.164062
  20
9.434570
  30
  0.0
  0
VERTEX
  8
0
  10
21.390625
  20
9.843750
  30
  0.0
  0
VERTEX
  8
0
  10
21.390625
  20
9.843750
  30
  0.0
  0
VERTEX
  8
0
  10
21.595703
  20
10.272461
  30
  0.0
  0
VERTEX
  8
0
  10
21.742188
  20
10.714844
  30
  0.0
  0
VERTEX
  8
0
  10
21.830078
  20
11.170898
  30
  0.0
  0
VERTEX
  8
0
  10
21.859375
  20
11.640625
  30
  0.0
  0
VERTEX
  8
0
  10
21.859375
  20
11.640625
  30
  0.0
  0
VERTEX
  8
0
  10
21.841797
  20
12.048828
  30
  0.0
  0
VERTEX
  8
0
  10
21.789062
  20
12.429688
  30
  0.0
  0
VERTEX
  8
0
  10
21.701172
  20
12.783203
  30
  0.0
  0
VERTEX
  8
0
  10
21.578125
  20
13.109375
  30
  0.0
  0
VERTEX
  8
0
  10
21.828125
  20
13.984375
  30
  0.0
  0
VERTEX
  8
0
  10
21.578125
  20
13.109375
  30
  0.0
  0
VERTEX
  8
0
  10
21.578125
  20
13.109375
  30
  0.0
  0
VERTEX
  8
0
  10
21.508789
  20
13.225586
  30
  0.0
  0
VERTEX
  8
0
  10
21.441406
  20
13.339844
  30
  0.0
  0
VERTEX
  8
0
  10
21.375977
  20
13.452148
  30
  0.0
  0
VERTEX
  8
0
  10
21.312500
  20
13.562500
  30
  0.0
  0
VERTEX
  8
0
  10
21.312500
  20
13.562500
  30
  0.0
  0
VERTEX
  8
0
  10
21.237305
  20
13.692383
  30
  0.0
  0
VERTEX
  8
0
  10
21.167969
  20
13.785156
  30
  0.0
  0
VERTEX
  8
0
  10
21.104492
  20
13.840820
  30
  0.0
  0
VERTEX
  8
0
  10
21.046875
  20
13.859375
  30
  0.0
  0
VERTEX
  8
0
  10
21.046875
  20
13.859375
  30
  0.0
  0
VERTEX
  8
0
  10
20.912109
  20
13.808594
  30
  0.0
  0
VERTEX
  8
0
  10
20.789062
  20
13.656250
  30
  0.0
  0
VERTEX
  8
0
  10
20.677734
  20
13.402344
  30
  0.0
  0
VERTEX
  8
0
  10
20.578125
  20
13.046875
  30
  0.0
  0
VERTEX
  8
0
  10
20.578125
  20
13.046875
  30
  0.0
  0
VERTEX
  8
0
  10
20.521484
  20
12.796875
  30
  0.0
  0
VERTEX
  8
0
  10
20.460938
  20
12.468750
  30
  0.0
  0
VERTEX
  8
0
  10
20.396484
  20
12.062500
  30
  0.0
  0
VERTEX
  8
0
  10
20.328125
  20
11.578125
  30
  0.0
  0
VERTEX
  8
0
  10
20.328125
  20
11.578125
  30
  0.0
  0
VERTEX
  8
0
  10
20.276367
  20
11.222656
  30
  0.0
  0
VERTEX
  8
0
  10
20.230469
  20
10.968750
  30
  0.0
  0
VERTEX
  8
0
  10
20.190430
  20
10.816406
  30
  0.0
  0
VERTEX
  8
0
  10
20.156250
  20
10.765625
  30
  0.0
  0
VERTEX
  8
0
  10
20.156250
  20
10.765625
  30
  0.0
  0
VERTEX
  8
0
  10
20.087891
  20
10.790039
  30
  0.0
  0
VERTEX
  8
0
  10
20.039062
  20
10.863281
  30
  0.0
  0
VERTEX
  8
0
  10
20.009766
  20
10.985352
  30
  0.0
  0
VERTEX
  8
0
  10
20.000000
  20
11.156250
  30
  0.0
  0
VERTEX
  8
0
  10
20.000000
  20
11.156250
  30
  0.0
  0
VERTEX
  8
0
  10
20.021484
  20
11.890625
  30
  0.0
  0
VERTEX
  8
0
  10
20.085938
  20
12.625000
  30
  0.0
  0
VERTEX
  8
0
  10
20.193359
  20
13.359375
  30
  0.0
  0
VERTEX
  8
0
  10
20.343750
  20
14.093750
  30
  0.0
  0
VERTEX
  8
0
  10
20.343750
  20
14.093750
  30
  0.0
  0
VERTEX
  8
0
  10
20.538086
  20
14.818359
  30
  0.0
  0
VERTEX
  8
0
  10
20.746094
  20
15.335938
  30
  0.0
  0
VERTEX
  8
0
  10
20.967773
  20
15.646484
  30
  0.0
  0
VERTEX
  8
0
  10
21.203125
  20
15.750000
  30
  0.0
  0
VERTEX
  8
0
  10
21.203125
  20
15.750000
  30
  0.0
  0
VERTEX
  8
0
  10
21.245605
  20
15.743652
  30
  0.0
  0
VERTEX
  8
0
  10
21.294922
  20
15.724609
  30
  0.0
  0
VERTEX
  8
0
  10
21.351074
  20
15.692871
  30
  0.0
  0
VERTEX
  8
0
  10
21.414062
  20
15.648438
  30
  0.0
  0
VERTEX
  8
0
  10
21.414062
  20
15.648438
  30
  0.0
  0
VERTEX
  8
0
  10
21.477051
  20
15.604004
  30
  0.0
  0
VERTEX
  8
0
  10
21.533203
  20
15.572266
  30
  0.0
  0
VERTEX
  8
0
  10
21.582520
  20
15.553223
  30
  0.0
  0
VERTEX
  8
0
  10
21.625000
  20
15.546875
  30
  0.0
  0
VERTEX
  8
0
  10
21.625000
  20
15.546875
  30
  0.0
  0
VERTEX
  8
0
  10
21.702148
  20
15.590820
  30
  0.0
  0
VERTEX
  8
0
  10
21.792969
  20
15.722656
  30
  0.0
  0
VERTEX
  8
0
  10
21.897461
  20
15.942383
  30
  0.0
  0
VERTEX
  8
0
  10
22.015625
  20
16.250000
  30
  0.0
  0
VERTEX
  8
0
  10
22.015625
  20
16.250000
  30
  0.0
  0
VERTEX
  8
0
  10
22.134766
  20
16.557617
  30
  0.0
  0
VERTEX
  8
0
  10
22.242188
  20
16.777344
  30
  0.0
  0
VERTEX
  8
0
  10
22.337891
  20
16.909180
  30
  0.0
  0
VERTEX
  8
0
  10
22.421875
  20
16.953125
  30
  0.0
  0
VERTEX
  8
0
  10
22.421875
  20
16.953125
  30
  0.0
  0
VERTEX
  8
0
  10
22.490234
  20
16.933105
  30
  0.0
  0
VERTEX
  8
0
  10
22.554688
  20
16.873047
  30
  0.0
  0
VERTEX
  8
0
  10
22.615234
  20
16.772949
  30
  0.0
  0
VERTEX
  8
0
  10
22.671875
  20
16.632812
  30
  0.0
  0
VERTEX
  8
0
  10
22.671875
  20
16.632812
  30
  0.0
  0
VERTEX
  8
0
  10
22.719727
  20
16.472168
  30
  0.0
  0
VERTEX
  8
0
  10
22.753906
  20
16.310547
  30
  0.0
  0
VERTEX
  8
0
  10
22.774414
  20
16.147949
  30
  0.0
  0
VERTEX
  8
0
  10
22.781250
  20
15.984375
  30
  0.0
  0
SEQEND
  0
POLYLINE
  8
0
  6
CONTINUOUS
  66
  1
  70
  1
  10
  0.0
  20
  0.0
  30
  0.0
  0
VERTEX
  8
0
  10
25.562500
  20
9.093750
  30
  0.0
  0
VERTEX
  8
0
  10
25.562500
  20
9.093750
  30
  0.0
  0
VERTEX
  8
0
  10
25.558105
  20
8.979980
  30
  0.0
  0
VERTEX
  8
0
  10
25.544922
  20
8.888672
  30
  0.0
  0
VERTEX
  8
0
  10
25.522949
  20
8.819824
  30
  0.0
  0
VERTEX
  8
0
  10
25.492188
  20
8.773438
  30
  0.0
  0
VERTEX
  8
0
  10
25.492188
  20
8.773438
  30
  0.0
  0
VERTEX
  8
0
  10
25.456543
  20
8.738770
  30
  0.0
  0
VERTEX
  8
0
  10
25.419922
  20
8.705078
  30
  0.0
  0
VERTEX
  8
0
  10
25.382324
  20
8.672363
  30
  0.0
  0
VERTEX
  8
0
  10
25.343750
  20
8.640625
  30
  0.0
  0
VERTEX
  8
0
  10
25.343750
  20
8.640625
  30
  0.0
  0
VERTEX
  8
0
  10
25.218750
  20
8.414062
  30
  0.0
  0
VERTEX
  8
0
  10
25.109375
  20
8.062500
  30
  0.0
  0
VERTEX
  8
0
  10
25.015625
  20
7.585938
  30
  0.0
  0
VERTEX
  8
0
  10
24.937500
  20
6.984375
  30
  0.0
  0
VERTEX
  8
0
  10
24.937500
  20
6.984375
  30
  0.0
  0
VERTEX
  8
0
  10
24.889648
  20
6.486328
  30
  0.0
  0
VERTEX
  8
0
  10
24.855469
  20
5.976562
  30
  0.0
  0
VERTEX
  8
0
  10
24.834961
  20
5.455078
  30
  0.0
  0
VERTEX
  8
0
  10
24.828125
  20
4.921875
  30
  0.0
  0
VERTEX
  8
0
  10
24.828125
  20
4.921875
  30
  0.0
  0
VERTEX
  8
0
  10
24.836426
  20
4.627930
  30
  0.0
  0
VERTEX
  8
0
  10
24.861328
  20
4.324219
  30
  0.0
  0
VERTEX
  8
0
  10
24.902832
  20
4.010742
  30
  0.0
  0
VERTEX
  8
0
  10
24.960938
  20
3.687500
  30
  0.0
  0
VERTEX
  8
0
  10
24.960938
  20
3.687500
  30
  0.0
  0
VERTEX
  8
0
  10
25.019043
  20
3.398438
  30
  0.0
  0
VERTEX
  8
0
  10
25.060547
  20
3.187500
  30
  0.0
  0
VERTEX
  8
0
  10
25.085449
  20
3.054688
  30
  0.0
  0
VERTEX
  8
0
  10
25.093750
  20
3.000000
  30
  0.0
  0
VERTEX
  8
0
  10
25.093750
  20
3.000000
  30
  0.0
  0
VERTEX
  8
0
  10
25.078125
  20
2.836914
  30
  0.0
  0
VERTEX
  8
0
  10
25.031250
  20
2.675781
  30
  0.0
  0
VERTEX
  8
0
  10
24.953125
  20
2.516602
  30
  0.0
  0
VERTEX
  8
0
  10
24.843750
  20
2.359375
  30
  0.0
  0
VERTEX
  8
0
  10
24.843750
  20
2.359375
  30
  0.0
  0
VERTEX
  8
0
  10
24.734375
  20
2.171875
  30
  0.0
  0
VERTEX
  8
0
  10
24.656250
  20
1.921875
  30
  0.0
  0
VERTEX
  8
0
  10
24.609375
  20
1.609375
  30
  0.0
  0
VERTEX
  8
0
  10
24.593750
  20
1.234375
  30
  0.0
  0
VERTEX
  8
0
  10
23.906250
  20
1.203125
  30
  0.0
  0
VERTEX
  8
0
  10
23.906250
  20
4.109375
  30
  0.0
  0
VERTEX
  8
0
  10
23.906250
  20
1.203125
  30
  0.0
  0
VERTEX
  8
0
  10
23.906250
  20
1.203125
  30
  0.0
  0
VERTEX
  8
0
  10
23.790039
  20
1.201172
  30
  0.0
  0
VERTEX
  8
0
  10
23.644531
  20
1.195312
  30
  0.0
  0
VERTEX
  8
0
  10
23.469727
  20
1.185547
  30
  0.0
  0
VERTEX
  8
0
  10
23.265625
  20
1.171875
  30
  0.0
  0
VERTEX
  8
0
  10
23.265625
  20
1.171875
  30
  0.0
  0
VERTEX
  8
0
  10
23.251953
  20
1.277344
  30
  0.0
  0
VERTEX
  8
0
  10
23.242188
  20
1.421875
  30
  0.0
  0
VERTEX
  8
0
  10
23.236328
  20
1.605469
  30
  0.0
  0
VERTEX
  8
0
  10
23.234375
  20
1.828125
  30
  0.0
  0
VERTEX
  8
0
  10
23.234375
  20
1.828125
  30
  0.0
  0
VERTEX
  8
0
  10
23.221191
  20
2.141113
  30
  0.0
  0
VERTEX
  8
0
  10
23.181641
  20
2.392578
  30
  0.0
  0
VERTEX
  8
0
  10
23.115723
  20
2.582520
  30
  0.0
  0
VERTEX
  8
0
  10
23.023438
  20
2.710938
  30
  0.0
  0
VERTEX
  8
0
  10
23.023438
  20
2.710938
  30
  0.0
  0
VERTEX
  8
0
  10
22.931152
  20
2.820801
  30
  0.0
  0
VERTEX
  8
0
  10
22.865234
  20
2.955078
  30
  0.0
  0
VERTEX
  8
0
  10
22.825684
  20
3.113770
  30
  0.0
  0
VERTEX
  8
0
  10
22.812500
  20
3.296875
  30
  0.0
  0
VERTEX
  8
0
  10
22.812500
  20
3.296875
  30
  0.0
  0
VERTEX
  8
0
  10
22.815430
  20
3.359375
  30
  0.0
  0
VERTEX
  8
0
  10
22.824219
  20
3.453125
  30
  0.0
  0
VERTEX
  8
0
  10
22.838867
  20
3.578125
  30
  0.0
  0
VERTEX
  8
0
  10
22.859375
  20
3.734375
  30
  0.0
  0
VERTEX
  8
0
  10
22.859375
  20
3.734375
  30
  0.0
  0
VERTEX
  8
0
  10
22.879883
  20
3.890625
  30
  0.0
  0
VERTEX
  8
0
  10
22.894531
  20
4.015625
  30
  0.0
  0
VERTEX
  8
0
  10
22.903320
  20
4.109375
  30
  0.0
  0
VERTEX
  8
0
  10
22.906250
  20
4.171875
  30
  0.0
  0
VERTEX
  8
0
  10
22.906250
  20
4.171875
  30
  0.0
  0
VERTEX
  8
0
  10
22.857422
  20
4.344238
  30
  0.0
  0
VERTEX
  8
0
  10
22.710938
  20
4.595703
  30
  0.0
  0
VERTEX
  8
0
  10
22.466797
  20
4.926270
  30
  0.0
  0
VERTEX
  8
0
  10
22.125000
  20
5.335938
  30
  0.0
  0
VERTEX
  8
0
  10
22.125000
  20
5.335938
  30
  0.0
  0
VERTEX
  8
0
  10
21.783203
  20
5.773926
  30
  0.0
  0
VERTEX
  8
0
  10
21.539062
  20
6.189453
  30
  0.0
  0
VERTEX
  8
0
  10
21.392578
  20
6.582520
  30
  0.0
  0
VERTEX
  8
0
  10
21.343750
  20
6.953125
  30
  0.0
  0
VERTEX
  8
0
  10
21.343750
  20
6.953125
  30
  0.0
  0
VERTEX
  8
0
  10
21.351562
  20
7.071289
  30
  0.0
  0
VERTEX
  8
0
  10
21.375000
  20
7.175781
  30
  0.0
  0
VERTEX
  8
0
  10
21.414062
  20
7.266602
  30
  0.0
  0
VERTEX
  8
0
  10
21.468750
  20
7.343750
  30
  0.0
  0
VERTEX
  8
0
  10
21.468750
  20
7.343750
  30
  0.0
  0
VERTEX
  8
0
  10
21.801758
  20
6.872070
  30
  0.0
  0
VERTEX
  8
0
  10
22.191406
  20
6.535156
  30
  0.0
  0
VERTEX
  8
0
  10
22.637695
  20
6.333008
  30
  0.0
  0
VERTEX
  8
0
  10
23.140625
  20
6.265625
  30
  0.0
  0
VERTEX
  8
0
  10
23.140625
  20
6.265625
  30
  0.0
  0
VERTEX
  8
0
  10
23.177734
  20
6.228027
  30
  0.0
  0
VERTEX
  8
0
  10
23.210938
  20
6.115234
  30
  0.0
  0
VERTEX
  8
0
  10
23.240234
  20
5.927246
  30
  0.0
  0
VERTEX
  8
0
  10
23.265625
  20
5.664062
  30
  0.0
  0
VERTEX
  8
0
  10
23.265625
  20
5.664062
  30
  0.0
  0
VERTEX
  8
0
  10
23.296875
  20
5.400879
  30
  0.0
  0
VERTEX
  8
0
  10
23.343750
  20
5.212891
  30
  0.0
  0
VERTEX
  8
0
  10
23.406250
  20
5.100098
  30
  0.0
  0
VERTEX
  8
0
  10
23.484375
  20
5.062500
  30
  0.0
  0
VERTEX
  8
0
  10
23.484375
  20
5.062500
  30
  0.0
  0
VERTEX
  8
0
  10
23.533203
  20
5.083496
  30
  0.0
  0
VERTEX
  8
0
  10
23.585938
  20
5.146484
  30
  0.0
  0
VERTEX
  8
0
  10
23.642578
  20
5.251465
  30
  0.0
  0
VERTEX
  8
0
  10
23.703125
  20
5.398438
  30
  0.0
  0
VERTEX
  8
0
  10
23.703125
  20
5.398438
  30
  0.0
  0
VERTEX
  8
0
  10
23.762695
  20
5.545410
  30
  0.0
  0
VERTEX
  8
0
  10
23.816406
  20
5.650391
  30
  0.0
  0
VERTEX
  8
0
  10
23.864258
  20
5.713379
  30
  0.0
  0
VERTEX
  8
0
  10
23.906250
  20
5.734375
  30
  0.0
  0
VERTEX
  8
0
  10
23.906250
  20
5.734375
  30
  0.0
  0
VERTEX
  8
0
  10
23.967285
  20
5.710938
  30
  0.0
  0
VERTEX
  8
0
  10
24.025391
  20
5.640625
  30
  0.0
  0
VERTEX
  8
0
  10
24.080566
  20
5.523438
  30
  0.0
  0
VERTEX
  8
0
  10
24.132812
  20
5.359375
  30
  0.0
  0
VERTEX
  8
0
  10
24.132812
  20
5.359375
  30
  0.0
  0
VERTEX
  8
0
  10
24.181152
  20
5.195312
  30
  0.0
  0
VERTEX
  8
0
  10
24.224609
  20
5.078125
  30
  0.0
  0
VERTEX
  8
0
  10
24.263184
  20
5.007812
  30
  0.0
  0
VERTEX
  8
0
  10
24.296875
  20
4.984375
  30
  0.0
  0
VERTEX
  8
0
  10
24.296875
  20
4.984375
  30
  0.0
  0
VERTEX
  8
0
  10
24.372070
  20
5.068359
  30
  0.0
  0
VERTEX
  8
0
  10
24.425781
  20
5.320312
  30
  0.0
  0
VERTEX
  8
0
  10
24.458008
  20
5.740234
  30
  0.0
  0
VERTEX
  8
0
  10
24.468750
  20
6.328125
  30
  0.0
  0
VERTEX
  8
0
  10
24.468750
  20
6.328125
  30
  0.0
  0
VERTEX
  8
0
  10
24.459961
  20
7.165039
  30
  0.0
  0
VERTEX
  8
0
  10
24.433594
  20
7.785156
  30
  0.0
  0
VERTEX
  8
0
  10
24.389648
  20
8.188477
  30
  0.0
  0
VERTEX
  8
0
  10
24.328125
  20
8.375000
  30
  0.0
  0
VERTEX
  8
0
  10
24.328125
  20
8.375000
  30
  0.0
  0
VERTEX
  8
0
  10
24.288574
  20
8.408691
  30
  0.0
  0
VERTEX
  8
0
  10
24.248047
  20
8.447266
  30
  0.0
  0
VERTEX
  8
0
  10
24.206543
  20
8.490723
  30
  0.0
  0
VERTEX
  8
0
  10
24.164062
  20
8.539062
  30
  0.0
  0
VERTEX
  8
0
  10
24.164062
  20
8.539062
  30
  0.0
  0
VERTEX
  8
0
  10
24.126465
  20
8.598145
  30
  0.0
  0
VERTEX
  8
0
  10
24.099609
  20
8.673828
  30
  0.0
  0
VERTEX
  8
0
  10
24.083496
  20
8.766113
  30
  0.0
  0
VERTEX
  8
0
  10
24.078125
  20
8.875000
  30
  0.0
  0
VERTEX
  8
0
  10
24.078125
  20
8.875000
  30
  0.0
  0
VERTEX
  8
0
  10
24.125977
  20
9.216797
  30
  0.0
  0
VERTEX
  8
0
  10
24.269531
  20
9.460938
  30
  0.0
  0
VERTEX
  8
0
  10
24.508789
  20
9.607422
  30
  0.0
  0
VERTEX
  8
0
  10
24.843750
  20
9.656250
  30
  0.0
  0
VERTEX
  8
0
  10
24.843750
  20
9.656250
  30
  0.0
  0
VERTEX
  8
0
  10
25.158203
  20
9.621094
  30
  0.0
  0
VERTEX
  8
0
  10
25.382812
  20
9.515625
  30
  0.0
  0
VERTEX
  8
0
  10
25.517578
  20
9.339844
  30
  0.0
  0
VERTEX
  8
0
  10
25.562500
  20
9.093750
  30
  0.0
  0
SEQEND
  0
POLYLINE
  8
0
  6
CONTINUOUS
  66
  1
  70
  1
  10
  0.0
  20
  0.0
  30
  0.0
  0
VERTEX
  8
0
  10
19.968750
  20
18.421875
  30
  0.0
  0
VERTEX
  8
0
  10
19.968750
  20
18.421875
  30
  0.0
  0
VERTEX
  8
0
  10
19.960938
  20
18.340820
  30
  0.0
  0
VERTEX
  8
0
  10
19.937500
  20
18.253906
  30
  0.0
  0
VERTEX
  8
0
  10
19.898438
  20
18.161133
  30
  0.0
  0
VERTEX
  8
0
  10
19.843750
  20
18.062500
  30
  0.0
  0
VERTEX
  8
0
  10
19.843750
  20
18.062500
  30
  0.0
  0
VERTEX
  8
0
  10
19.819336
  20
17.991211
  30
  0.0
  0
VERTEX
  8
0
  10
19.792969
  20
17.871094
  30
  0.0
  0
VERTEX
  8
0
  10
19.764648
  20
17.702148
  30
  0.0
  0
VERTEX
  8
0
  10
19.734375
  20
17.484375
  30
  0.0
  0
VERTEX
  8
0
  10
19.734375
  20
17.484375
  30
  0.0
  0
VERTEX
  8
0
  10
19.697266
  20
17.368164
  30
  0.0
  0
VERTEX
  8
0
  10
19.617188
  20
17.285156
  30
  0.0
  0
VERTEX
  8
0
  10
19.494141
  20
17.235352
  30
  0.0
  0
VERTEX
  8
0
  10
19.328125
  20
17.218750
  30
  0.0
  0
VERTEX
  8
0
  10
19.328125
  20
17.218750
  30
  0.0
  0
VERTEX
  8
0
  10
19.214844
  20
17.169922
  30
  0.0
  0
VERTEX
  8
0
  10
19.062500
  20
17.023438
  30
  0.0
  0
VERTEX
  8
0
  10
18.871094
  20
16.779297
  30
  0.0
  0
VERTEX
  8
0
  10
18.640625
  20
16.437500
  30
  0.0
  0
VERTEX
  8
0
  10
18.640625
  20
16.437500
  30
  0.0
  0
VERTEX
  8
0
  10
18.401367
  20
16.095703
  30
  0.0
  0
VERTEX
  8
0
  10
18.183594
  20
15.851562
  30
  0.0
  0
VERTEX
  8
0
  10
17.987305
  20
15.705078
  30
  0.0
  0
VERTEX
  8
0
  10
17.812500
  20
15.656250
  30
  0.0
  0
VERTEX
  8
0
  10
17.812500
  20
15.656250
  30
  0.0
  0
VERTEX
  8
0
  10
17.725586
  20
15.671387
  30
  0.0
  0
VERTEX
  8
0
  10
17.621094
  20
15.716797
  30
  0.0
  0
VERTEX
  8
0
  10
17.499023
  20
15.792480
  30
  0.0
  0
VERTEX
  8
0
  10
17.359375
  20
15.898438
  30
  0.0
  0
VERTEX
  8
0
  10
17.359375
  20
15.898438
  30
  0.0
  0
VERTEX
  8
0
  10
17.220703
  20
16.004395
  30
  0.0
  0
VERTEX
  8
0
  10
17.101562
  20
16.080078
  30
  0.0
  0
VERTEX
  8
0
  10
17.001953
  20
16.125488
  30
  0.0
  0
VERTEX
  8
0
  10
16.921875
  20
16.140625
  30
  0.0
  0
VERTEX
  8
0
  10
16.921875
  20
16.140625
  30
  0.0
  0
VERTEX
  8
0
  10
16.861816
  20
16.129395
  30
  0.0
  0
VERTEX
  8
0
  10
16.791016
  20
16.095703
  30
  0.0
  0
VERTEX
  8
0
  10
16.709473
  20
16.039551
  30
  0.0
  0
VERTEX
  8
0
  10
16.617188
  20
15.960938
  30
  0.0
  0
VERTEX
  8
0
  10
16.617188
  20
15.960938
  30
  0.0
  0
VERTEX
  8
0
  10
16.525879
  20
15.882324
  30
  0.0
  0
VERTEX
  8
0
  10
16.447266
  20
15.826172
  30
  0.0
  0
VERTEX
  8
0
  10
16.381348
  20
15.792480
  30
  0.0
  0
VERTEX
  8
0
  10
16.328125
  20
15.781250
  30
  0.0
  0
VERTEX
  8
0
  10
16.328125
  20
15.781250
  30
  0.0
  0
VERTEX
  8
0
  10
16.244141
  20
15.814941
  30
  0.0
  0
VERTEX
  8
0
  10
16.164062
  20
15.916016
  30
  0.0
  0
VERTEX
  8
0
  10
16.087891
  20
16.084473
  30
  0.0
  0
VERTEX
  8
0
  10
16.015625
  20
16.320312
  30
  0.0
  0
VERTEX
  8
0
  10
16.015625
  20
16.320312
  30
  0.0
  0
VERTEX
  8
0
  10
15.954102
  20
16.586426
  30
  0.0
  0
VERTEX
  8
0
  10
15.910156
  20
16.845703
  30
  0.0
  0
VERTEX
  8
0
  10
15.883789
  20
17.098145
  30
  0.0
  0
VERTEX
  8
0
  10
15.875000
  20
17.343750
  30
  0.0
  0
VERTEX
  8
0
  10
16.734375
  20
17.906250
  30
  0.0
  0
VERTEX
  8
0
  10
15.875000
  20
17.343750
  30
  0.0
  0
VERTEX
  8
0
  10
15.875000
  20
17.343750
  30
  0.0
  0
VERTEX
  8
0
  10
15.840820
  20
17.599609
  30
  0.0
  0
VERTEX
  8
0
  10
15.816406
  20
17.804688
  30
  0.0
  0
VERTEX
  8
0
  10
15.801758
  20
17.958984
  30
  0.0
  0
VERTEX
  8
0
  10
15.796875
  20
18.062500
  30
  0.0
  0
VERTEX
  8
0
  10
15.796875
  20
18.062500
  30
  0.0
  0
VERTEX
  8
0
  10
15.799805
  20
18.193359
  30
  0.0
  0
VERTEX
  8
0
  10
15.808594
  20
18.351562
  30
  0.0
  0
VERTEX
  8
0
  10
15.823242
  20
18.537109
  30
  0.0
  0
VERTEX
  8
0
  10
15.843750
  20
18.750000
  30
  0.0
  0
VERTEX
  8
0
  10
15.843750
  20
18.750000
  30
  0.0
  0
VERTEX
  8
0
  10
15.864258
  20
18.962891
  30
  0.0
  0
VERTEX
  8
0
  10
15.878906
  20
19.148438
  30
  0.0
  0
VERTEX
  8
0
  10
15.887695
  20
19.306641
  30
  0.0
  0
VERTEX
  8
0
  10
15.890625
  20
19.437500
  30
  0.0
  0
VERTEX
  8
0
  10
15.890625
  20
19.437500
  30
  0.0
  0
VERTEX
  8
0
  10
15.885254
  20
19.599121
  30
  0.0
  0
VERTEX
  8
0
  10
15.869141
  20
19.755859
  30
  0.0
  0
VERTEX
  8
0
  10
15.842285
  20
19.907715
  30
  0.0
  0
VERTEX
  8
0
  10
15.804688
  20
20.054688
  30
  0.0
  0
VERTEX
  8
0
  10
15.804688
  20
20.054688
  30
  0.0
  0
VERTEX
  8
0
  10
15.767090
  20
20.197754
  30
  0.0
  0
VERTEX
  8
0
  10
15.740234
  20
20.337891
  30
  0.0
  0
VERTEX
  8
0
  10
15.724121
  20
20.475098
  30
  0.0
  0
VERTEX
  8
0
  10
15.718750
  20
20.609375
  30
  0.0
  0
VERTEX
  8
0
  10
15.718750
  20
20.609375
  30
  0.0
  0
VERTEX
  8
0
  10
15.738770
  20
21.059570
  30
  0.0
  0
VERTEX
  8
0
  10
15.798828
  20
21.535156
  30
  0.0
  0
VERTEX
  8
0
  10
15.898926
  20
22.036133
  30
  0.0
  0
VERTEX
  8
0
  10
16.039062
  20
22.562500
  30
  0.0
  0
VERTEX
  8
0
  10
16.039062
  20
22.562500
  30
  0.0
  0
VERTEX
  8
0
  10
16.197754
  20
23.034180
  30
  0.0
  0
VERTEX
  8
0
  10
16.353516
  20
23.371094
  30
  0.0
  0
VERTEX
  8
0
  10
16.506348
  20
23.573242
  30
  0.0
  0
VERTEX
  8
0
  10
16.656250
  20
23.640625
  30
  0.0
  0
VERTEX
  8
0
  10
16.656250
  20
23.640625
  30
  0.0
  0
VERTEX
  8
0
  10
16.685059
  20
23.630371
  30
  0.0
  0
VERTEX
  8
0
  10
16.724609
  20
23.599609
  30
  0.0
  0
VERTEX
  8
0
  10
16.774902
  20
23.548340
  30
  0.0
  0
VERTEX
  8
0
  10
16.835938
  20
23.476562
  30
  0.0
  0
VERTEX
  8
0
  10
16.835938
  20
23.476562
  30
  0.0
  0
VERTEX
  8
0
  10
16.897949
  20
23.404785
  30
  0.0
  0
VERTEX
  8
0
  10
16.951172
  20
23.353516
  30
  0.0
  0
VERTEX
  8
0
  10
16.995605
  20
23.322754
  30
  0.0
  0
VERTEX
  8
0
  10
17.031250
  20
23.312500
  30
  0.0
  0
VERTEX
  8
0
  10
17.031250
  20
23.312500
  30
  0.0
  0
VERTEX
  8
0
  10
17.071777
  20
23.317871
  30
  0.0
  0
VERTEX
  8
0
  10
17.115234
  20
23.333984
  30
  0.0
  0
VERTEX
  8
0
  10
17.161621
  20
23.360840
  30
  0.0
  0
VERTEX
  8
0
  10
17.210938
  20
23.398438
  30
  0.0
  0
VERTEX
  8
0
  10
17.210938
  20
23.398438
  30
  0.0
  0
VERTEX
  8
0
  10
17.259277
  20
23.436035
  30
  0.0
  0
VERTEX
  8
0
  10
17.302734
  20
23.462891
  30
  0.0
  0
VERTEX
  8
0
  10
17.341309
  20
23.479004
  30
  0.0
  0
VERTEX
  8
0
  10
17.375000
  20
23.484375
  30
  0.0
  0
VERTEX
  8
0
  10
17.375000
  20
23.484375
  30
  0.0
  0
VERTEX
  8
0
  10
17.452637
  20
23.472168
  30
  0.0
  0
VERTEX
  8
0
  10
17.544922
  20
23.435547
  30
  0.0
  0
VERTEX
  8
0
  10
17.651855
  20
23.374512
  30
  0.0
  0
VERTEX
  8
0
  10
17.773438
  20
23.289062
  30
  0.0
  0
VERTEX
  8
0
  10
17.773438
  20
23.289062
  30
  0.0
  0
VERTEX
  8
0
  10
17.895020
  20
23.203613
  30
  0.0
  0
VERTEX
  8
0
  10
18.001953
  20
23.142578
  30
  0.0
  0
VERTEX
  8
0
  10
18.094238
  20
23.105957
  30
  0.0
  0
VERTEX
  8
0
  10
18.171875
  20
23.093750
  30
  0.0
  0
VERTEX
  8
0
  10
18.171875
  20
23.093750
  30
  0.0
  0
VERTEX
  8
0
  10
18.265625
  20
23.109863
  30
  0.0
  0
VERTEX
  8
0
  10
18.375000
  20
23.158203
  30
  0.0
  0
VERTEX
  8
0
  10
18.500000
  20
23.238770
  30
  0.0
  0
VERTEX
  8
0
  10
18.640625
  20
23.351562
  30
  0.0
  0
VERTEX
  8
0
  10
18.640625
  20
23.351562
  30
  0.0
  0
VERTEX
  8
0
  10
18.780273
  20
23.464355
  30
  0.0
  0
VERTEX
  8
0
  10
18.902344
  20
23.544922
  30
  0.0
  0
VERTEX
  8
0
  10
19.006836
  20
23.593262
  30
  0.0
  0
VERTEX
  8
0
  10
19.093750
  20
23.609375
  30
  0.0
  0
VERTEX
  8
0
  10
19.093750
  20
23.609375
  30
  0.0
  0
VERTEX
  8
0
  10
19.176758
  20
23.562500
  30
  0.0
  0
VERTEX
  8
0
  10
19.285156
  20
23.421875
  30
  0.0
  0
VERTEX
  8
0
  10
19.418945
  20
23.187500
  30
  0.0
  0
VERTEX
  8
0
  10
19.578125
  20
22.859375
  30
  0.0
  0
VERTEX
  8
0
  10
19.578125
  20
22.859375
  30
  0.0
  0
VERTEX
  8
0
  10
19.729492
  20
22.508789
  30
  0.0
  0
VERTEX
  8
0
  10
19.839844
  20
22.207031
  30
  0.0
  0
VERTEX
  8
0
  10
19.909180
  20
21.954102
  30
  0.0
  0
VERTEX
  8
0
  10
19.937500
  20
21.750000
  30
  0.0
  0
VERTEX
  8
0
  10
19.937500
  20
21.750000
  30
  0.0
  0
VERTEX
  8
0
  10
19.901367
  20
21.493164
  30
  0.0
  0
VERTEX
  8
0
  10
19.871094
  20
21.207031
  30
  0.0
  0
VERTEX
  8
0
  10
19.846680
  20
20.891602
  30
  0.0
  0
VERTEX
  8
0
  10
19.828125
  20
20.546875
  30
  0.0
  0
VERTEX
  8
0
  10
19.718750
  20
20.343750
  30
  0.0
  0
VERTEX
  8
0
  10
19.500000
  20
20.734375
  30
  0.0
  0
VERTEX
  8
0
  10
19.500000
  20
20.734375
  30
  0.0
  0
VERTEX
  8
0
  10
19.456543
  20
20.707031
  30
  0.0
  0
VERTEX
  8
0
  10
19.419922
  20
20.625000
  30
  0.0
  0
VERTEX
  8
0
  10
19.390137
  20
20.488281
  30
  0.0
  0
VERTEX
  8
0
  10
19.367188
  20
20.296875
  30
  0.0
  0
VERTEX
  8
0
  10
19.367188
  20
20.296875
  30
  0.0
  0
VERTEX
  8
0
  10
19.344238
  20
20.105469
  30
  0.0
  0
VERTEX
  8
0
  10
19.314453
  20
19.968750
  30
  0.0
  0
VERTEX
  8
0
  10
19.277832
  20
19.886719
  30
  0.0
  0
VERTEX
  8
0
  10
19.234375
  20
19.859375
  30
  0.0
  0
VERTEX
  8
0
  10
19.234375
  20
19.859375
  30
  0.0
  0
VERTEX
  8
0
  10
19.204102
  20
19.875488
  30
  0.0
  0
VERTEX
  8
0
  10
19.175781
  20
19.923828
  30
  0.0
  0
VERTEX
  8
0
  10
19.149414
  20
20.004395
  30
  0.0
  0
VERTEX
  8
0
  10
19.125000
  20
20.117188
  30
  0.0
  0
VERTEX
  8
0
  10
19.125000
  20
20.117188
  30
  0.0
  0
VERTEX
  8
0
  10
19.100586
  20
20.229980
  30
  0.0
  0
VERTEX
  8
0
  10
19.074219
  20
20.310547
  30
  0.0
  0
VERTEX
  8
0
  10
19.045898
  20
20.358887
  30
  0.0
  0
VERTEX
  8
0
  10
19.015625
  20
20.375000
  30
  0.0
  0
VERTEX
  8
0
  10
19.015625
  20
20.375000
  30
  0.0
  0
VERTEX
  8
0
  10
18.972168
  20
20.348633
  30
  0.0
  0
VERTEX
  8
0
  10
18.935547
  20
20.269531
  30
  0.0
  0
VERTEX
  8
0
  10
18.905762
  20
20.137695
  30
  0.0
  0
VERTEX
  8
0
  10
18.882812
  20
19.953125
  30
  0.0
  0
VERTEX
  8
0
  10
18.882812
  20
19.953125
  30
  0.0
  0
VERTEX
  8
0
  10
18.860840
  20
19.768555
  30
  0.0
  0
VERTEX
  8
0
  10
18.833984
  20
19.636719
  30
  0.0
  0
VERTEX
  8
0
  10
18.802246
  20
19.557617
  30
  0.0
  0
VERTEX
  8
0
  10
18.765625
  20
19.531250
  30
  0.0
  0
VERTEX
  8
0
  10
18.765625
  20
19.531250
  30
  0.0
  0
VERTEX
  8
0
  10
18.741211
  20
19.545410
  30
  0.0
  0
VERTEX
  8
0
  10
18.714844
  20
19.587891
  30
  0.0
  0
VERTEX
  8
0
  10
18.686523
  20
19.658691
  30
  0.0
  0
VERTEX
  8
0
  10
18.656250
  20
19.757812
  30
  0.0
  0
VERTEX
  8
0
  10
18.656250
  20
19.757812
  30
  0.0
  0
VERTEX
  8
0
  10
18.625977
  20
19.856934
  30
  0.0
  0
VERTEX
  8
0
  10
18.597656
  20
19.927734
  30
  0.0
  0
VERTEX
  8
0
  10
18.571289
  20
19.970215
  30
  0.0
  0
VERTEX
  8
0
  10
18.546875
  20
19.984375
  30
  0.0
  0
VERTEX
  8
0
  10
18.546875
  20
19.984375
  30
  0.0
  0
VERTEX
  8
0
  10
18.509766
  20
19.959961
  30
  0.0
  0
VERTEX
  8
0
  10
18.476562
  20
19.886719
  30
  0.0
  0
VERTEX
  8
0
  10
18.447266
  20
19.764648
  30
  0.0
  0
VERTEX
  8
0
  10
18.421875
  20
19.593750
  30
  0.0
  0
VERTEX
  8
0
  10
18.421875
  20
19.593750
  30
  0.0
  0
VERTEX
  8
0
  10
18.396484
  20
19.422852
  30
  0.0
  0
VERTEX
  8
0
  10
18.367188
  20
19.300781
  30
  0.0
  0
VERTEX
  8
0
  10
18.333984
  20
19.227539
  30
  0.0
  0
VERTEX
  8
0
  10
18.296875
  20
19.203125
  30
  0.0
  0
VERTEX
  8
0
  10
18.078125
  20
19.562500
  30
  0.0
  0
VERTEX
  8
0
  10
18.078125
  20
19.562500
  30
  0.0
  0
VERTEX
  8
0
  10
18.035156
  20
19.490234
  30
  0.0
  0
VERTEX
  8
0
  10
17.984375
  20
19.304688
  30
  0.0
  0
VERTEX
  8
0
  10
17.925781
  20
19.005859
  30
  0.0
  0
VERTEX
  8
0
  10
17.859375
  20
18.593750
  30
  0.0
  0
VERTEX
  8
0
  10
17.859375
  20
18.593750
  30
  0.0
  0
VERTEX
  8
0
  10
17.865234
  20
18.487305
  30
  0.0
  0
VERTEX
  8
0
  10
17.882812
  20
18.402344
  30
  0.0
  0
VERTEX
  8
0
  10
17.912109
  20
18.338867
  30
  0.0
  0
VERTEX
  8
0
  10
17.953125
  20
18.296875
  30
  0.0
  0
VERTEX
  8
0
  10
18.187500
  20
18.515625
  30
  0.0
  0
VERTEX
  8
0
  10
18.453125
  20
18.156250
  30
  0.0
  0
VERTEX
  8
0
  10
18.453125
  20
18.156250
  30
  0.0
  0
VERTEX
  8
0
  10
18.490234
  20
18.166016
  30
  0.0
  0
VERTEX
  8
0
  10
18.523438
  20
18.226562
  30
  0.0
  0
VERTEX
  8
0
  10
18.552734
  20
18.337891
  30
  0.0
  0
VERTEX
  8
0
  10
18.578125
  20
18.500000
  30
  0.0
  0
VERTEX
  8
0
  10
18.578125
  20
18.500000
  30
  0.0
  0
VERTEX
  8
0
  10
18.604492
  20
18.664062
  30
  0.0
  0
VERTEX
  8
0
  10
18.636719
  20
18.781250
  30
  0.0
  0
VERTEX
  8
0
  10
18.674805
  20
18.851562
  30
  0.0
  0
VERTEX
  8
0
  10
18.718750
  20
18.875000
  30
  0.0
  0
VERTEX
  8
0
  10
18.718750
  20
18.875000
  30
  0.0
  0
VERTEX
  8
0
  10
18.742676
  20
18.858887
  30
  0.0
  0
VERTEX
  8
0
  10
18.767578
  20
18.810547
  30
  0.0
  0
VERTEX
  8
0
  10
18.793457
  20
18.729980
  30
  0.0
  0
VERTEX
  8
0
  10
18.820312
  20
18.617188
  30
  0.0
  0
VERTEX
  8
0
  10
18.820312
  20
18.617188
  30
  0.0
  0
VERTEX
  8
0
  10
18.848145
  20
18.504395
  30
  0.0
  0
VERTEX
  8
0
  10
18.876953
  20
18.423828
  30
  0.0
  0
VERTEX
  8
0
  10
18.906738
  20
18.375488
  30
  0.0
  0
VERTEX
  8
0
  10
18.937500
  20
18.359375
  30
  0.0
  0
VERTEX
  8
0
  10
18.937500
  20
18.359375
  30
  0.0
  0
VERTEX
  8
0
  10
18.975098
  20
18.382812
  30
  0.0
  0
VERTEX
  8
0
  10
19.009766
  20
18.453125
  30
  0.0
  0
VERTEX
  8
0
  10
19.041504
  20
18.570312
  30
  0.0
  0
VERTEX
  8
0
  10
19.070312
  20
18.734375
  30
  0.0
  0
VERTEX
  8
0
  10
19.070312
  20
18.734375
  30
  0.0
  0
VERTEX
  8
0
  10
19.098145
  20
18.898438
  30
  0.0
  0
VERTEX
  8
0
  10
19.126953
  20
19.015625
  30
  0.0
  0
VERTEX
  8
0
  10
19.156738
  20
19.085938
  30
  0.0
  0
VERTEX
  8
0
  10
19.187500
  20
19.109375
  30
  0.0
  0
VERTEX
  8
0
  10
19.187500
  20
19.109375
  30
  0.0
  0
VERTEX
  8
0
  10
19.241211
  20
18.938477
  30
  0.0
  0
VERTEX
  8
0
  10
19.292969
  20
18.816406
  30
  0.0
  0
VERTEX
  8
0
  10
19.342773
  20
18.743164
  30
  0.0
  0
VERTEX
  8
0
  10
19.390625
  20
18.718750
  30
  0.0
  0
VERTEX
  8
0
  10
19.390625
  20
18.718750
  30
  0.0
  0
VERTEX
  8
0
  10
19.427734
  20
18.739258
  30
  0.0
  0
VERTEX
  8
0
  10
19.460938
  20
18.800781
  30
  0.0
  0
VERTEX
  8
0
  10
19.490234
  20
18.903320
  30
  0.0
  0
VERTEX
  8
0
  10
19.515625
  20
19.046875
  30
  0.0
  0
VERTEX
  8
0
  10
19.515625
  20
19.046875
  30
  0.0
  0
VERTEX
  8
0
  10
19.541016
  20
19.190430
  30
  0.0
  0
VERTEX
  8
0
  10
19.570312
  20
19.292969
  30
  0.0
  0
VERTEX
  8
0
  10
19.603516
  20
19.354492
  30
  0.0
  0
VERTEX
  8
0
  10
19.640625
  20
19.375000
  30
  0.0
  0
SEQEND
  0
POLYLINE
  8
0
  6
CONTINUOUS
  66
  1
  70
  1
  10
  0.0
  20
  0.0
  30
  0.0
  0
VERTEX
  8
0
  10
28.609375
  20
-0.265625
  30
  0.0
  0
VERTEX
  8
0
  10
28.609375
  20
-0.265625
  30
  0.0
  0
VERTEX
  8
0
  10
28.534180
  20
-0.729492
  30
  0.0
  0
VERTEX
  8
0
  10
28.480469
  20
-1.121094
  30
  0.0
  0
VERTEX
  8
0
  10
28.448242
  20
-1.440430
  30
  0.0
  0
VERTEX
  8
0
  10
28.437500
  20
-1.687500
  30
  0.0
  0
VERTEX
  8
0
  10
28.437500
  20
-1.687500
  30
  0.0
  0
VERTEX
  8
0
  10
28.444336
  20
-1.861328
  30
  0.0
  0
VERTEX
  8
0
  10
28.464844
  20
-2.023438
  30
  0.0
  0
VERTEX
  8
0
  10
28.499023
  20
-2.173828
  30
  0.0
  0
VERTEX
  8
0
  10
28.546875
  20
-2.312500
  30
  0.0
  0
VERTEX
  8
0
  10
28.546875
  20
-2.312500
  30
  0.0
  0
VERTEX
  8
0
  10
28.471680
  20
-2.866211
  30
  0.0
  0
VERTEX
  8
0
  10
28.402344
  20
-3.355469
  30
  0.0
  0
VERTEX
  8
0
  10
28.338867
  20
-3.780273
  30
  0.0
  0
VERTEX
  8
0
  10
28.281250
  20
-4.140625
  30
  0.0
  0
VERTEX
  8
0
  10
27.515625
  20
-3.156250
  30
  0.0
  0
VERTEX
  8
0
  10
28.281250
  20
-4.140625
  30
  0.0
  0
VERTEX
  8
0
  10
28.281250
  20
-4.140625
  30
  0.0
  0
VERTEX
  8
0
  10
28.237305
  20
-4.410156
  30
  0.0
  0
VERTEX
  8
0
  10
28.183594
  20
-4.734375
  30
  0.0
  0
VERTEX
  8
0
  10
28.120117
  20
-5.113281
  30
  0.0
  0
VERTEX
  8
0
  10
28.046875
  20
-5.546875
  30
  0.0
  0
VERTEX
  8
0
  10
28.046875
  20
-5.546875
  30
  0.0
  0
VERTEX
  8
0
  10
27.778320
  20
-5.143555
  30
  0.0
  0
VERTEX
  8
0
  10
27.566406
  20
-4.855469
  30
  0.0
  0
VERTEX
  8
0
  10
27.411133
  20
-4.682617
  30
  0.0
  0
VERTEX
  8
0
  10
27.312500
  20
-4.625000
  30
  0.0
  0
VERTEX
  8
0
  10
27.312500
  20
-4.625000
  30
  0.0
  0
VERTEX
  8
0
  10
27.226562
  20
-4.652344
  30
  0.0
  0
VERTEX
  8
0
  10
27.156250
  20
-4.734375
  30
  0.0
  0
VERTEX
  8
0
  10
27.101562
  20
-4.871094
  30
  0.0
  0
VERTEX
  8
0
  10
27.062500
  20
-5.062500
  30
  0.0
  0
VERTEX
  8
0
  10
27.062500
  20
-5.062500
  30
  0.0
  0
VERTEX
  8
0
  10
26.972168
  20
-5.023438
  30
  0.0
  0
VERTEX
  8
0
  10
26.904297
  20
-4.906250
  30
  0.0
  0
VERTEX
  8
0
  10
26.858887
  20
-4.710938
  30
  0.0
  0
VERTEX
  8
0
  10
26.835938
  20
-4.437500
  30
  0.0
  0
VERTEX
  8
0
  10
26.835938
  20
-4.437500
  30
  0.0
  0
VERTEX
  8
0
  10
26.816895
  20
-4.164062
  30
  0.0
  0
VERTEX
  8
0
  10
26.783203
  20
-3.968750
  30
  0.0
  0
VERTEX
  8
0
  10
26.734863
  20
-3.851562
  30
  0.0
  0
VERTEX
  8
0
  10
26.671875
  20
-3.812500
  30
  0.0
  0
VERTEX
  8
0
  10
26.671875
  20
-3.812500
  30
  0.0
  0
VERTEX
  8
0
  10
26.633789
  20
-3.835938
  30
  0.0
  0
VERTEX
  8
0
  10
26.597656
  20
-3.906250
  30
  0.0
  0
VERTEX
  8
0
  10
26.563477
  20
-4.023438
  30
  0.0
  0
VERTEX
  8
0
  10
26.531250
  20
-4.187500
  30
  0.0
  0
VERTEX
  8
0
  10
26.531250
  20
-4.187500
  30
  0.0
  0
VERTEX
  8
0
  10
26.499023
  20
-4.351562
  30
  0.0
  0
VERTEX
  8
0
  10
26.464844
  20
-4.468750
  30
  0.0
  0
VERTEX
  8
0
  10
26.428711
  20
-4.539062
  30
  0.0
  0
VERTEX
  8
0
  10
26.390625
  20
-4.562500
  30
  0.0
  0
VERTEX
  8
0
  10
26.390625
  20
-4.562500
  30
  0.0
  0
VERTEX
  8
0
  10
26.328613
  20
-4.527832
  30
  0.0
  0
VERTEX
  8
0
  10
26.283203
  20
-4.423828
  30
  0.0
  0
VERTEX
  8
0
  10
26.254395
  20
-4.250488
  30
  0.0
  0
VERTEX
  8
0
  10
26.242188
  20
-4.007812
  30
  0.0
  0
VERTEX
  8
0
  10
26.242188
  20
-4.007812
  30
  0.0
  0
VERTEX
  8
0
  10
26.230957
  20
-3.765137
  30
  0.0
  0
VERTEX
  8
0
  10
26.205078
  20
-3.591797
  30
  0.0
  0
VERTEX
  8
0
  10
26.164551
  20
-3.487793
  30
  0.0
  0
VERTEX
  8
0
  10
26.109375
  20
-3.453125
  30
  0.0
  0
VERTEX
  8
0
  10
26.109375
  20
-3.453125
  30
  0.0
  0
VERTEX
  8
0
  10
26.063477
  20
-3.477539
  30
  0.0
  0
VERTEX
  8
0
  10
26.019531
  20
-3.550781
  30
  0.0
  0
VERTEX
  8
0
  10
25.977539
  20
-3.672852
  30
  0.0
  0
VERTEX
  8
0
  10
25.937500
  20
-3.843750
  30
  0.0
  0
VERTEX
  8
0
  10
25.937500
  20
-3.843750
  30
  0.0
  0
VERTEX
  8
0
  10
25.899414
  20
-4.014648
  30
  0.0
  0
VERTEX
  8
0
  10
25.863281
  20
-4.136719
  30
  0.0
  0
VERTEX
  8
0
  10
25.829102
  20
-4.209961
  30
  0.0
  0
VERTEX
  8
0
  10
25.796875
  20
-4.234375
  30
  0.0
  0
VERTEX
  8
0
  10
25.796875
  20
-4.234375
  30
  0.0
  0
VERTEX
  8
0
  10
25.739258
  20
-4.199707
  30
  0.0
  0
VERTEX
  8
0
  10
25.691406
  20
-4.095703
  30
  0.0
  0
VERTEX
  8
0
  10
25.653320
  20
-3.922363
  30
  0.0
  0
VERTEX
  8
0
  10
25.625000
  20
-3.679688
  30
  0.0
  0
VERTEX
  8
0
  10
25.625000
  20
-3.679688
  30
  0.0
  0
VERTEX
  8
0
  10
25.597656
  20
-3.437012
  30
  0.0
  0
VERTEX
  8
0
  10
25.562500
  20
-3.263672
  30
  0.0
  0
VERTEX
  8
0
  10
25.519531
  20
-3.159668
  30
  0.0
  0
VERTEX
  8
0
  10
25.468750
  20
-3.125000
  30
  0.0
  0
VERTEX
  8
0
  10
25.468750
  20
-3.125000
  30
  0.0
  0
VERTEX
  8
0
  10
25.394531
  20
-3.167969
  30
  0.0
  0
VERTEX
  8
0
  10
25.343750
  20
-3.296875
  30
  0.0
  0
VERTEX
  8
0
  10
25.316406
  20
-3.511719
  30
  0.0
  0
VERTEX
  8
0
  10
25.312500
  20
-3.812500
  30
  0.0
  0
VERTEX
  8
0
  10
25.312500
  20
-3.812500
  30
  0.0
  0
VERTEX
  8
0
  10
25.295898
  20
-3.814453
  30
  0.0
  0
VERTEX
  8
0
  10
25.277344
  20
-3.820312
  30
  0.0
  0
VERTEX
  8
0
  10
25.256836
  20
-3.830078
  30
  0.0
  0
VERTEX
  8
0
  10
25.234375
  20
-3.843750
  30
  0.0
  0
VERTEX
  8
0
  10
25.234375
  20
-3.843750
  30
  0.0
  0
VERTEX
  8
0
  10
25.211914
  20
-3.857422
  30
  0.0
  0
VERTEX
  8
0
  10
25.191406
  20
-3.867188
  30
  0.0
  0
VERTEX
  8
0
  10
25.172852
  20
-3.873047
  30
  0.0
  0
VERTEX
  8
0
  10
25.156250
  20
-3.875000
  30
  0.0
  0
VERTEX
  8
0
  10
25.156250
  20
-3.875000
  30
  0.0
  0
VERTEX
  8
0
  10
25.118164
  20
-3.847656
  30
  0.0
  0
VERTEX
  8
0
  10
25.082031
  20
-3.765625
  30
  0.0
  0
VERTEX
  8
0
  10
25.047852
  20
-3.628906
  30
  0.0
  0
VERTEX
  8
0
  10
25.015625
  20
-3.437500
  30
  0.0
  0
VERTEX
  8
0
  10
25.015625
  20
-3.437500
  30
  0.0
  0
VERTEX
  8
0
  10
24.983398
  20
-3.246094
  30
  0.0
  0
VERTEX
  8
0
  10
24.949219
  20
-3.109375
  30
  0.0
  0
VERTEX
  8
0
  10
24.913086
  20
-3.027344
  30
  0.0
  0
VERTEX
  8
0
  10
24.875000
  20
-3.000000
  30
  0.0
  0
VERTEX
  8
0
  10
24.875000
  20
-3.000000
  30
  0.0
  0
VERTEX
  8
0
  10
24.817383
  20
-3.025391
  30
  0.0
  0
VERTEX
  8
0
  10
24.769531
  20
-3.101562
  30
  0.0
  0
VERTEX
  8
0
  10
24.731445
  20
-3.228516
  30
  0.0
  0
VERTEX
  8
0
  10
24.703125
  20
-3.406250
  30
  0.0
  0
VERTEX
  8
0
  10
24.703125
  20
-3.406250
  30
  0.0
  0
VERTEX
  8
0
  10
24.676758
  20
-3.583984
  30
  0.0
  0
VERTEX
  8
0
  10
24.644531
  20
-3.710938
  30
  0.0
  0
VERTEX
  8
0
  10
24.606445
  20
-3.787109
  30
  0.0
  0
VERTEX
  8
0
  10
24.562500
  20
-3.812500
  30
  0.0
  0
VERTEX
  8
0
  10
24.562500
  20
-3.812500
  30
  0.0
  0
VERTEX
  8
0
  10
24.517090
  20
-3.785156
  30
  0.0
  0
VERTEX
  8
0
  10
24.474609
  20
-3.703125
  30
  0.0
  0
VERTEX
  8
0
  10
24.435059
  20
-3.566406
  30
  0.0
  0
VERTEX
  8
0
  10
24.398438
  20
-3.375000
  30
  0.0
  0
VERTEX
  8
0
  10
24.398438
  20
-3.375000
  30
  0.0
  0
VERTEX
  8
0
  10
24.362793
  20
-3.183594
  30
  0.0
  0
VERTEX
  8
0
  10
24.326172
  20
-3.046875
  30
  0.0
  0
VERTEX
  8
0
  10
24.288574
  20
-2.964844
  30
  0.0
  0
VERTEX
  8
0
  10
24.250000
  20
-2.937500
  30
  0.0
  0
VERTEX
  8
0
  10
24.250000
  20
-2.937500
  30
  0.0
  0
VERTEX
  8
0
  10
24.192383
  20
-2.965820
  30
  0.0
  0
VERTEX
  8
0
  10
24.144531
  20
-3.050781
  30
  0.0
  0
VERTEX
  8
0
  10
24.106445
  20
-3.192383
  30
  0.0
  0
VERTEX
  8
0
  10
24.078125
  20
-3.390625
  30
  0.0
  0
VERTEX
  8
0
  10
24.078125
  20
-3.390625
  30
  0.0
  0
VERTEX
  8
0
  10
24.051758
  20
-3.588867
  30
  0.0
  0
VERTEX
  8
0
  10
24.019531
  20
-3.730469
  30
  0.0
  0
VERTEX
  8
0
  10
23.981445
  20
-3.815430
  30
  0.0
  0
VERTEX
  8
0
  10
23.937500
  20
-3.843750
  30
  0.0
  0
VERTEX
  8
0
  10
23.937500
  20
-3.843750
  30
  0.0
  0
VERTEX
  8
0
  10
23.903320
  20
-3.840820
  30
  0.0
  0
VERTEX
  8
0
  10
23.863281
  20
-3.832031
  30
  0.0
  0
VERTEX
  8
0
  10
23.817383
  20
-3.817383
  30
  0.0
  0
VERTEX
  8
0
  10
23.765625
  20
-3.796875
  30
  0.0
  0
VERTEX
  8
0
  10
23.765625
  20
-3.796875
  30
  0.0
  0
VERTEX
  8
0
  10
23.713867
  20
-3.776367
  30
  0.0
  0
VERTEX
  8
0
  10
23.667969
  20
-3.761719
  30
  0.0
  0
VERTEX
  8
0
  10
23.627930
  20
-3.752930
  30
  0.0
  0
VERTEX
  8
0
  10
23.593750
  20
-3.750000
  30
  0.0
  0
VERTEX
  8
0
  10
23.593750
  20
-3.750000
  30
  0.0
  0
VERTEX
  8
0
  10
23.575195
  20
-3.755859
  30
  0.0
  0
VERTEX
  8
0
  10
23.535156
  20
-3.773438
  30
  0.0
  0
VERTEX
  8
0
  10
23.473633
  20
-3.802734
  30
  0.0
  0
VERTEX
  8
0
  10
23.390625
  20
-3.843750
  30
  0.0
  0
VERTEX
  8
0
  10
23.390625
  20
-3.843750
  30
  0.0
  0
VERTEX
  8
0
  10
23.324219
  20
-3.618164
  30
  0.0
  0
VERTEX
  8
0
  10
23.234375
  20
-3.457031
  30
  0.0
  0
VERTEX
  8
0
  10
23.121094
  20
-3.360352
  30
  0.0
  0
VERTEX
  8
0
  10
22.984375
  20
-3.328125
  30
  0.0
  0
VERTEX
  8
0
  10
22.984375
  20
-3.328125
  30
  0.0
  0
VERTEX
  8
0
  10
22.953125
  20
-3.339844
  30
  0.0
  0
VERTEX
  8
0
  10
22.921875
  20
-3.375000
  30
  0.0
  0
VERTEX
  8
0
  10
22.890625
  20
-3.433594
  30
  0.0
  0
VERTEX
  8
0
  10
22.859375
  20
-3.515625
  30
  0.0
  0
VERTEX
  8
0
  10
22.875000
  20
-4.343750
  30
  0.0
  0
VERTEX
  8
0
  10
22.875000
  20
-4.343750
  30
  0.0
  0
VERTEX
  8
0
  10
22.874023
  20
-4.842773
  30
  0.0
  0
VERTEX
  8
0
  10
22.855469
  20
-5.199219
  30
  0.0
  0
VERTEX
  8
0
  10
22.819336
  20
-5.413086
  30
  0.0
  0
VERTEX
  8
0
  10
22.765625
  20
-5.484375
  30
  0.0
  0
VERTEX
  8
0
  10
22.765625
  20
-5.484375
  30
  0.0
  0
VERTEX
  8
0
  10
22.686523
  20
-5.415039
  30
  0.0
  0
VERTEX
  8
0
  10
22.621094
  20
-5.207031
  30
  0.0
  0
VERTEX
  8
0
  10
22.569336
  20
-4.860352
  30
  0.0
  0
VERTEX
  8
0
  10
22.531250
  20
-4.375000
  30
  0.0
  0
VERTEX
  8
0
  10
22.531250
  20
-4.375000
  30
  0.0
  0
VERTEX
  8
0
  10
22.493164
  20
-3.884766
  30
  0.0
  0
VERTEX
  8
0
  10
22.441406
  20
-3.523438
  30
  0.0
  0
VERTEX
  8
0
  10
22.375977
  20
-3.291016
  30
  0.0
  0
VERTEX
  8
0
  10
22.296875
  20
-3.187500
  30
  0.0
  0
VERTEX
  8
0
  10
22.296875
  20
-3.187500
  30
  0.0
  0
VERTEX
  8
0
  10
22.267578
  20
-3.395508
  30
  0.0
  0
VERTEX
  8
0
  10
22.242188
  20
-3.644531
  30
  0.0
  0
VERTEX
  8
0
  10
22.220703
  20
-3.934570
  30
  0.0
  0
VERTEX
  8
0
  10
22.203125
  20
-4.265625
  30
  0.0
  0
VERTEX
  8
0
  10
22.203125
  20
-4.265625
  30
  0.0
  0
VERTEX
  8
0
  10
22.193359
  20
-4.633789
  30
  0.0
  0
VERTEX
  8
0
  10
22.179688
  20
-4.941406
  30
  0.0
  0
VERTEX
  8
0
  10
22.162109
  20
-5.188477
  30
  0.0
  0
VERTEX
  8
0
  10
22.140625
  20
-5.375000
  30
  0.0
  0
VERTEX
  8
0
  10
22.000000
  20
-5.578125
  30
  0.0
  0
VERTEX
  8
0
  10
22.000000
  20
-5.578125
  30
  0.0
  0
VERTEX
  8
0
  10
21.931641
  20
-5.510742
  30
  0.0
  0
VERTEX
  8
0
  10
21.882812
  20
-5.308594
  30
  0.0
  0
VERTEX
  8
0
  10
21.853516
  20
-4.971680
  30
  0.0
  0
VERTEX
  8
0
  10
21.843750
  20
-4.500000
  30
  0.0
  0
VERTEX
  8
0
  10
21.843750
  20
-4.500000
  30
  0.0
  0
VERTEX
  8
0
  10
21.844727
  20
-4.354492
  30
  0.0
  0
VERTEX
  8
0
  10
21.847656
  20
-4.183594
  30
  0.0
  0
VERTEX
  8
0
  10
21.852539
  20
-3.987305
  30
  0.0
  0
VERTEX
  8
0
  10
21.859375
  20
-3.765625
  30
  0.0
  0
VERTEX
  8
0
  10
21.859375
  20
-3.765625
  30
  0.0
  0
VERTEX
  8
0
  10
21.866211
  20
-3.556641
  30
  0.0
  0
VERTEX
  8
0
  10
21.871094
  20
-3.398438
  30
  0.0
  0
VERTEX
  8
0
  10
21.874023
  20
-3.291016
  30
  0.0
  0
VERTEX
  8
0
  10
21.875000
  20
-3.234375
  30
  0.0
  0
VERTEX
  8
0
  10
21.875000
  20
-3.234375
  30
  0.0
  0
VERTEX
  8
0
  10
21.853516
  20
-2.605469
  30
  0.0
  0
VERTEX
  8
0
  10
21.789062
  20
-2.156250
  30
  0.0
  0
VERTEX
  8
0
  10
21.681641
  20
-1.886719
  30
  0.0
  0
VERTEX
  8
0
  10
21.531250
  20
-1.796875
  30
  0.0
  0
VERTEX
  8
0
  10
21.531250
  20
-1.796875
  30
  0.0
  0
VERTEX
  8
0
  10
21.441895
  20
-1.844727
  30
  0.0
  0
VERTEX
  8
0
  10
21.345703
  20
-1.988281
  30
  0.0
  0
VERTEX
  8
0
  10
21.242676
  20
-2.227539
  30
  0.0
  0
VERTEX
  8
0
  10
21.132812
  20
-2.562500
  30
  0.0
  0
VERTEX
  8
0
  10
21.132812
  20
-2.562500
  30
  0.0
  0
VERTEX
  8
0
  10
21.017090
  20
-2.897461
  30
  0.0
  0
VERTEX
  8
0
  10
20.896484
  20
-3.136719
  30
  0.0
  0
VERTEX
  8
0
  10
20.770996
  20
-3.280273
  30
  0.0
  0
VERTEX
  8
0
  10
20.640625
  20
-3.328125
  30
  0.0
  0
VERTEX
  8
0
  10
20.640625
  20
-3.328125
  30
  0.0
  0
VERTEX
  8
0
  10
20.514648
  20
-3.225586
  30
  0.0
  0
VERTEX
  8
0
  10
20.371094
  20
-2.917969
  30
  0.0
  0
VERTEX
  8
0
  10
20.209961
  20
-2.405273
  30
  0.0
  0
VERTEX
  8
0
  10
20.031250
  20
-1.687500
  30
  0.0
  0
VERTEX
  8
0
  10
20.890625
  20
0.296875
  30
  0.0
  0
VERTEX
  8
0
  10
20.031250
  20
-1.687500
  30
  0.0
  0
VERTEX
  8
0
  10
20.031250
  20
-1.687500
  30
  0.0
  0
VERTEX
  8
0
  10
19.662109
  20
-0.479492
  30
  0.0
  0
VERTEX
  8
0
  10
19.398438
  20
0.519531
  30
  0.0
  0
VERTEX
  8
0
  10
19.240234
  20
1.309570
  30
  0.0
  0
VERTEX
  8
0
  10
19.187500
  20
1.890625
  30
  0.0
  0
VERTEX
  8
0
  10
19.187500
  20
1.890625
  30
  0.0
  0
VERTEX
  8
0
  10
19.201172
  20
2.246094
  30
  0.0
  0
VERTEX
  8
0
  10
19.242188
  20
2.593750
  30
  0.0
  0
VERTEX
  8
0
  10
19.310547
  20
2.933594
  30
  0.0
  0
VERTEX
  8
0
  10
19.406250
  20
3.265625
  30
  0.0
  0
VERTEX
  8
0
  10
19.406250
  20
3.265625
  30
  0.0
  0
VERTEX
  8
0
  10
19.539062
  20
3.670898
  30
  0.0
  0
VERTEX
  8
0
  10
19.640625
  20
4.011719
  30
  0.0
  0
VERTEX
  8
0
  10
19.710938
  20
4.288086
  30
  0.0
  0
VERTEX
  8
0
  10
19.750000
  20
4.500000
  30
  0.0
  0
VERTEX
  8
0
  10
19.750000
  20
4.500000
  30
  0.0
  0
VERTEX
  8
0
  10
19.808594
  20
4.770508
  30
  0.0
  0
VERTEX
  8
0
  10
19.906250
  20
5.019531
  30
  0.0
  0
VERTEX
  8
0
  10
20.042969
  20
5.247070
  30
  0.0
  0
VERTEX
  8
0
  10
20.218750
  20
5.453125
  30
  0.0
  0
VERTEX
  8
0
  10
20.218750
  20
5.453125
  30
  0.0
  0
VERTEX
  8
0
  10
20.378906
  20
5.603516
  30
  0.0
  0
VERTEX
  8
0
  10
20.531250
  20
5.710938
  30
  0.0
  0
VERTEX
  8
0
  10
20.675781
  20
5.775391
  30
  0.0
  0
VERTEX
  8
0
  10
20.812500
  20
5.796875
  30
  0.0
  0
VERTEX
  8
0
  10
20.812500
  20
5.796875
  30
  0.0
  0
VERTEX
  8
0
  10
21.072266
  20
5.738281
  30
  0.0
  0
VERTEX
  8
0
  10
21.257812
  20
5.562500
  30
  0.0
  0
VERTEX
  8
0
  10
21.369141
  20
5.269531
  30
  0.0
  0
VERTEX
  8
0
  10
21.406250
  20
4.859375
  30
  0.0
  0
VERTEX
  8
0
  10
21.406250
  20
4.859375
  30
  0.0
  0
VERTEX
  8
0
  10
21.414062
  20
4.674805
  30
  0.0
  0
VERTEX
  8
0
  10
21.437500
  20
4.542969
  30
  0.0
  0
VERTEX
  8
0
  10
21.476562
  20
4.463867
  30
  0.0
  0
VERTEX
  8
0
  10
21.531250
  20
4.437500
  30
  0.0
  0
VERTEX
  8
0
  10
21.531250
  20
4.437500
  30
  0.0
  0
VERTEX
  8
0
  10
21.610352
  20
4.546875
  30
  0.0
  0
VERTEX
  8
0
  10
21.675781
  20
4.625000
  30
  0.0
  0
VERTEX
  8
0
  10
21.727539
  20
4.671875
  30
  0.0
  0
VERTEX
  8
0
  10
21.765625
  20
4.687500
  30
  0.0
  0
VERTEX
  8
0
  10
21.765625
  20
4.687500
  30
  0.0
  0
VERTEX
  8
0
  10
21.841797
  20
4.659180
  30
  0.0
  0
VERTEX
  8
0
  10
21.898438
  20
4.574219
  30
  0.0
  0
VERTEX
  8
0
  10
21.935547
  20
4.432617
  30
  0.0
  0
VERTEX
  8
0
  10
21.953125
  20
4.234375
  30
  0.0
  0
VERTEX
  8
0
  10
21.843750
  20
3.562500
  30
  0.0
  0
VERTEX
  8
0
  10
21.843750
  20
3.562500
  30
  0.0
  0
VERTEX
  8
0
  10
21.851562
  20
3.418945
  30
  0.0
  0
VERTEX
  8
0
  10
21.875000
  20
3.316406
  30
  0.0
  0
VERTEX
  8
0
  10
21.914062
  20
3.254883
  30
  0.0
  0
VERTEX
  8
0
  10
21.968750
  20
3.234375
  30
  0.0
  0
VERTEX
  8
0
  10
21.968750
  20
3.234375
  30
  0.0
  0
VERTEX
  8
0
  10
21.993164
  20
3.240234
  30
  0.0
  0
VERTEX
  8
0
  10
22.019531
  20
3.257812
  30
  0.0
  0
VERTEX
  8
0
  10
22.047852
  20
3.287109
  30
  0.0
  0
VERTEX
  8
0
  10
22.078125
  20
3.328125
  30
  0.0
  0
VERTEX
  8
0
  10
22.078125
  20
3.328125
  30
  0.0
  0
VERTEX
  8
0
  10
22.108398
  20
3.369141
  30
  0.0
  0
VERTEX
  8
0
  10
22.136719
  20
3.398438
  30
  0.0
  0
VERTEX
  8
0
  10
22.163086
  20
3.416016
  30
  0.0
  0
VERTEX
  8
0
  10
22.187500
  20
3.421875
  30
  0.0
  0
VERTEX
  8
0
  10
22.187500
  20
3.421875
  30
  0.0
  0
VERTEX
  8
0
  10
22.238281
  20
3.387695
  30
  0.0
  0
VERTEX
  8
0
  10
22.281250
  20
3.285156
  30
  0.0
  0
VERTEX
  8
0
  10
22.316406
  20
3.114258
  30
  0.0
  0
VERTEX
  8
0
  10
22.343750
  20
2.875000
  30
  0.0
  0
VERTEX
  8
0
  10
22.250000
  20
2.250000
  30
  0.0
  0
VERTEX
  8
0
  10
22.250000
  20
2.250000
  30
  0.0
  0
VERTEX
  8
0
  10
22.255859
  20
2.131836
  30
  0.0
  0
VERTEX
  8
0
  10
22.273438
  20
2.042969
  30
  0.0
  0
VERTEX
  8
0
  10
22.302734
  20
1.983398
  30
  0.0
  0
VERTEX
  8
0
  10
22.343750
  20
1.953125
  30
  0.0
  0
VERTEX
  8
0
  10
22.343750
  20
1.953125
  30
  0.0
  0
VERTEX
  8
0
  10
22.372070
  20
1.957031
  30
  0.0
  0
VERTEX
  8
0
  10
22.410156
  20
1.968750
  30
  0.0
  0
VERTEX
  8
0
  10
22.458008
  20
1.988281
  30
  0.0
  0
VERTEX
  8
0
  10
22.515625
  20
2.015625
  30
  0.0
  0
VERTEX
  8
0
  10
22.515625
  20
2.015625
  30
  0.0
  0
VERTEX
  8
0
  10
22.556641
  20
1.942383
  30
  0.0
  0
VERTEX
  8
0
  10
22.601562
  20
1.847656
  30
  0.0
  0
VERTEX
  8
0
  10
22.650391
  20
1.731445
  30
  0.0
  0
VERTEX
  8
0
  10
22.703125
  20
1.593750
  30
  0.0
  0
VERTEX
  8
0
  10
22.562500
  20
0.750000
  30
  0.0
  0
VERTEX
  8
0
  10
22.562500
  20
0.625000
  30
  0.0
  0
VERTEX
  8
0
  10
22.562500
  20
0.625000
  30
  0.0
  0
VERTEX
  8
0
  10
22.566406
  20
0.437500
  30
  0.0
  0
VERTEX
  8
0
  10
22.593750
  20
0.296875
  30
  0.0
  0
VERTEX
  8
0
  10
22.644531
  20
0.203125
  30
  0.0
  0
VERTEX
  8
0
  10
22.718750
  20
0.156250
  30
  0.0
  0
VERTEX
  8
0
  10
22.718750
  20
0.156250
  30
  0.0
  0
VERTEX
  8
0
  10
22.701172
  20
0.169922
  30
  0.0
  0
VERTEX
  8
0
  10
22.742188
  20
0.179688
  30
  0.0
  0
VERTEX
  8
0
  10
22.841797
  20
0.185547
  30
  0.0
  0
VERTEX
  8
0
  10
23.000000
  20
0.187500
  30
  0.0
  0
VERTEX
  8
0
  10
23.015625
  20
-1.203125
  30
  0.0
  0
VERTEX
  8
0
  10
23.000000
  20
0.187500
  30
  0.0
  0
VERTEX
  8
0
  10
23.000000
  20
0.187500
  30
  0.0
  0
VERTEX
  8
0
  10
23.090820
  20
0.241211
  30
  0.0
  0
VERTEX
  8
0
  10
23.238281
  20
0.292969
  30
  0.0
  0
VERTEX
  8
0
  10
23.442383
  20
0.342773
  30
  0.0
  0
VERTEX
  8
0
  10
23.703125
  20
0.390625
  30
  0.0
  0
VERTEX
  8
0
  10
23.718750
  20
-0.906250
  30
  0.0
  0
VERTEX
  8
0
  10
23.703125
  20
0.390625
  30
  0.0
  0
VERTEX
  8
0
  10
23.703125
  20
0.390625
  30
  0.0
  0
VERTEX
  8
0
  10
23.973633
  20
0.445312
  30
  0.0
  0
VERTEX
  8
0
  10
24.191406
  20
0.484375
  30
  0.0
  0
VERTEX
  8
0
  10
24.356445
  20
0.507812
  30
  0.0
  0
VERTEX
  8
0
  10
24.468750
  20
0.515625
  30
  0.0
  0
VERTEX
  8
0
  10
24.468750
  20
0.515625
  30
  0.0
  0
VERTEX
  8
0
  10
24.984375
  20
0.515625
  30
  0.0
  0
VERTEX
  8
0
  10
24.984375
  20
0.515625
  30
  0.0
  0
VERTEX
  8
0
  10
25.004883
  20
0.511719
  30
  0.0
  0
VERTEX
  8
0
  10
25.066406
  20
0.500000
  30
  0.0
  0
VERTEX
  8
0
  10
25.168945
  20
0.480469
  30
  0.0
  0
VERTEX
  8
0
  10
25.312500
  20
0.453125
  30
  0.0
  0
VERTEX
  8
0
  10
25.171875
  20
-0.906250
  30
  0.0
  0
VERTEX
  8
0
  10
25.312500
  20
0.453125
  30
  0.0
  0
VERTEX
  8
0
  10
25.312500
  20
0.453125
  30
  0.0
  0
VERTEX
  8
0
  10
25.445312
  20
0.397461
  30
  0.0
  0
VERTEX
  8
0
  10
25.609375
  20
0.324219
  30
  0.0
  0
VERTEX
  8
0
  10
25.804688
  20
0.233398
  30
  0.0
  0
VERTEX
  8
0
  10
26.031250
  20
0.125000
  30
  0.0
  0
VERTEX
  8
0
  10
25.937500
  20
-1.171875
  30
  0.0
  0
VERTEX
  8
0
  10
26.031250
  20
0.125000
  30
  0.0
  0
VERTEX
  8
0
  10
26.031250
  20
0.125000
  30
  0.0
  0
VERTEX
  8
0
  10
26.178711
  20
0.083008
  30
  0.0
  0
VERTEX
  8
0
  10
26.355469
  20
-0.011719
  30
  0.0
  0
VERTEX
  8
0
  10
26.561523
  20
-0.159180
  30
  0.0
  0
VERTEX
  8
0
  10
26.796875
  20
-0.359375
  30
  0.0
  0
VERTEX
  8
0
  10
26.625000
  20
-1.531250
  30
  0.0
  0
VERTEX
  8
0
  10
26.796875
  20
-0.359375
  30
  0.0
  0
VERTEX
  8
0
  10
26.796875
  20
-0.359375
  30
  0.0
  0
VERTEX
  8
0
  10
26.893555
  20
-0.448242
  30
  0.0
  0
VERTEX
  8
0
  10
26.980469
  20
-0.511719
  30
  0.0
  0
VERTEX
  8
0
  10
27.057617
  20
-0.549805
  30
  0.0
  0
VERTEX
  8
0
  10
27.125000
  20
-0.562500
  30
  0.0
  0
VERTEX
  8
0
  10
27.125000
  20
-0.562500
  30
  0.0
  0
VERTEX
  8
0
  10
27.193359
  20
-0.509277
  30
  0.0
  0
VERTEX
  8
0
  10
27.257812
  20
-0.349609
  30
  0.0
  0
VERTEX
  8
0
  10
27.318359
  20
-0.083496
  30
  0.0
  0
VERTEX
  8
0
  10
27.375000
  20
0.289062
  30
  0.0
  0
VERTEX
  8
0
  10
27.375000
  20
0.289062
  30
  0.0
  0
VERTEX
  8
0
  10
27.433594
  20
0.661621
  30
  0.0
  0
VERTEX
  8
0
  10
27.500000
  20
0.927734
  30
  0.0
  0
VERTEX
  8
0
  10
27.574219
  20
1.087402
  30
  0.0
  0
VERTEX
  8
0
  10
27.656250
  20
1.140625
  30
  0.0
  0
VERTEX
  8
0
  10
27.656250
  20
1.140625
  30
  0.0
  0
VERTEX
  8
0
  10
27.751953
  20
1.099609
  30
  0.0
  0
VERTEX
  8
0
  10
27.820312
  20
0.976562
  30
  0.0
  0
VERTEX
  8
0
  10
27.861328
  20
0.771484
  30
  0.0
  0
VERTEX
  8
0
  10
27.875000
  20
0.484375
  30
  0.0
  0
VERTEX
  8
0
  10
27.875000
  20
0.484375
  30
  0.0
  0
VERTEX
  8
0
  10
27.870605
  20
0.350098
  30
  0.0
  0
VERTEX
  8
0
  10
27.857422
  20
0.197266
  30
  0.0
  0
VERTEX
  8
0
  10
27.835449
  20
0.025879
  30
  0.0
  0
VERTEX
  8
0
  10
27.804688
  20
-0.164062
  30
  0.0
  0
VERTEX
  8
0
  10
27.804688
  20
-0.164062
  30
  0.0
  0
VERTEX
  8
0
  10
27.773926
  20
-0.354004
  30
  0.0
  0
VERTEX
  8
0
  10
27.751953
  20
-0.525391
  30
  0.0
  0
VERTEX
  8
0
  10
27.738770
  20
-0.678223
  30
  0.0
  0
VERTEX
  8
0
  10
27.734375
  20
-0.812500
  30
  0.0
  0
VERTEX
  8
0
  10
27.734375
  20
-0.812500
  30
  0.0
  0
VERTEX
  8
0
  10
27.742188
  20
-1.031250
  30
  0.0
  0
VERTEX
  8
0
  10
27.765625
  20
-1.187500
  30
  0.0
  0
VERTEX
  8
0
  10
27.804688
  20
-1.281250
  30
  0.0
  0
VERTEX
  8
0
  10
27.859375
  20
-1.312500
  30
  0.0
  0
VERTEX
  8
0
  10
27.859375
  20
-1.312500
  30
  0.0
  0
VERTEX
  8
0
  10
27.915039
  20
-1.260254
  30
  0.0
  0
VERTEX
  8
0
  10
27.972656
  20
-1.103516
  30
  0.0
  0
VERTEX
  8
0
  10
28.032227
  20
-0.842285
  30
  0.0
  0
VERTEX
  8
0
  10
28.093750
  20
-0.476562
  30
  0.0
  0
VERTEX
  8
0
  10
28.093750
  20
-0.476562
  30
  0.0
  0
VERTEX
  8
0
  10
28.158203
  20
-0.110840
  30
  0.0
  0
VERTEX
  8
0
  10
28.226562
  20
0.150391
  30
  0.0
  0
VERTEX
  8
0
  10
28.298828
  20
0.307129
  30
  0.0
  0
VERTEX
  8
0
  10
28.375000
  20
0.359375
  30
  0.0
  0
VERTEX
  8
0
  10
28.375000
  20
0.359375
  30
  0.0
  0
VERTEX
  8
0
  10
28.477539
  20
0.320312
  30
  0.0
  0
VERTEX
  8
0
  10
28.550781
  20
0.203125
  30
  0.0
  0
VERTEX
  8
0
  10
28.594727
  20
0.007812
  30
  0.0
  0
VERTEX
  8
0
  10
28.609375
  20
-0.265625
  30
  0.0
  0
SEQEND
  0
POLYLINE
  8
0
  6
CONTINUOUS
  66
  1
  70
  1
  10
  0.0
  20
  0.0
  30
  0.0
  0
VERTEX
  8
0
  10
21.078125
  20
12.203125
  30
  0.0
  0
VERTEX
  8
0
  10
21.078125
  20
12.203125
  30
  0.0
  0
VERTEX
  8
0
  10
21.051270
  20
11.900391
  30
  0.0
  0
VERTEX
  8
0
  10
21.001953
  20
11.460938
  30
  0.0
  0
VERTEX
  8
0
  10
20.930176
  20
10.884766
  30
  0.0
  0
VERTEX
  8
0
  10
20.835938
  20
10.171875
  30
  0.0
  0
VERTEX
  8
0
  10
20.835938
  20
10.171875
  30
  0.0
  0
VERTEX
  8
0
  10
20.743652
  20
9.486328
  30
  0.0
  0
VERTEX
  8
0
  10
20.677734
  20
8.992188
  30
  0.0
  0
VERTEX
  8
0
  10
20.638184
  20
8.689453
  30
  0.0
  0
VERTEX
  8
0
  10
20.625000
  20
8.578125
  30
  0.0
  0
VERTEX
  8
0
  10
20.625000
  20
8.578125
  30
  0.0
  0
VERTEX
  8
0
  10
20.626465
  20
8.482910
  30
  0.0
  0
VERTEX
  8
0
  10
20.630859
  20
8.369141
  30
  0.0
  0
VERTEX
  8
0
  10
20.638184
  20
8.236816
  30
  0.0
  0
VERTEX
  8
0
  10
20.648438
  20
8.085938
  30
  0.0
  0
VERTEX
  8
0
  10
20.648438
  20
8.085938
  30
  0.0
  0
VERTEX
  8
0
  10
20.658691
  20
7.935059
  30
  0.0
  0
VERTEX
  8
0
  10
20.666016
  20
7.802734
  30
  0.0
  0
VERTEX
  8
0
  10
20.670410
  20
7.688965
  30
  0.0
  0
VERTEX
  8
0
  10
20.671875
  20
7.593750
  30
  0.0
  0
VERTEX
  8
0
  10
20.671875
  20
7.593750
  30
  0.0
  0
VERTEX
  8
0
  10
20.658691
  20
7.411621
  30
  0.0
  0
VERTEX
  8
0
  10
20.619141
  20
7.193359
  30
  0.0
  0
VERTEX
  8
0
  10
20.553223
  20
6.938965
  30
  0.0
  0
VERTEX
  8
0
  10
20.460938
  20
6.648438
  30
  0.0
  0
VERTEX
  8
0
  10
20.460938
  20
6.648438
  30
  0.0
  0
VERTEX
  8
0
  10
20.360840
  20
6.378418
  30
  0.0
  0
VERTEX
  8
0
  10
20.271484
  20
6.185547
  30
  0.0
  0
VERTEX
  8
0
  10
20.192871
  20
6.069824
  30
  0.0
  0
VERTEX
  8
0
  10
20.125000
  20
6.031250
  30
  0.0
  0
VERTEX
  8
0
  10
20.125000
  20
6.031250
  30
  0.0
  0
VERTEX
  8
0
  10
20.090332
  20
6.042480
  30
  0.0
  0
VERTEX
  8
0
  10
20.048828
  20
6.076172
  30
  0.0
  0
VERTEX
  8
0
  10
20.000488
  20
6.132324
  30
  0.0
  0
VERTEX
  8
0
  10
19.945312
  20
6.210938
  30
  0.0
  0
VERTEX
  8
0
  10
19.945312
  20
6.210938
  30
  0.0
  0
VERTEX
  8
0
  10
19.894043
  20
6.299316
  30
  0.0
  0
VERTEX
  8
0
  10
19.857422
  20
6.384766
  30
  0.0
  0
VERTEX
  8
0
  10
19.835449
  20
6.467285
  30
  0.0
  0
VERTEX
  8
0
  10
19.828125
  20
6.546875
  30
  0.0
  0
VERTEX
  8
0
  10
20.109375
  20
7.234375
  30
  0.0
  0
VERTEX
  8
0
  10
20.109375
  20
7.234375
  30
  0.0
  0
VERTEX
  8
0
  10
20.001953
  20
6.960938
  30
  0.0
  0
VERTEX
  8
0
  10
19.914062
  20
6.750000
  30
  0.0
  0
VERTEX
  8
0
  10
19.845703
  20
6.601562
  30
  0.0
  0
VERTEX
  8
0
  10
19.796875
  20
6.515625
  30
  0.0
  0
VERTEX
  8
0
  10
19.796875
  20
6.515625
  30
  0.0
  0
VERTEX
  8
0
  10
19.724609
  20
6.447266
  30
  0.0
  0
VERTEX
  8
0
  10
19.632812
  20
6.398438
  30
  0.0
  0
VERTEX
  8
0
  10
19.521484
  20
6.369141
  30
  0.0
  0
VERTEX
  8
0
  10
19.390625
  20
6.359375
  30
  0.0
  0
VERTEX
  8
0
  10
19.390625
  20
6.359375
  30
  0.0
  0
VERTEX
  8
0
  10
19.165039
  20
6.381836
  30
  0.0
  0
VERTEX
  8
0
  10
18.972656
  20
6.449219
  30
  0.0
  0
VERTEX
  8
0
  10
18.813477
  20
6.561523
  30
  0.0
  0
VERTEX
  8
0
  10
18.687500
  20
6.718750
  30
  0.0
  0
VERTEX
  8
0
  10
18.687500
  20
6.718750
  30
  0.0
  0
VERTEX
  8
0
  10
18.615723
  20
6.680176
  30
  0.0
  0
VERTEX
  8
0
  10
18.525391
  20
6.564453
  30
  0.0
  0
VERTEX
  8
0
  10
18.416504
  20
6.371582
  30
  0.0
  0
VERTEX
  8
0
  10
18.289062
  20
6.101562
  30
  0.0
  0
VERTEX
  8
0
  10
18.289062
  20
6.101562
  30
  0.0
  0
VERTEX
  8
0
  10
18.159668
  20
5.831543
  30
  0.0
  0
VERTEX
  8
0
  10
18.044922
  20
5.638672
  30
  0.0
  0
VERTEX
  8
0
  10
17.944824
  20
5.522949
  30
  0.0
  0
VERTEX
  8
0
  10
17.859375
  20
5.484375
  30
  0.0
  0
VERTEX
  8
0
  10
17.859375
  20
5.484375
  30
  0.0
  0
VERTEX
  8
0
  10
17.708984
  20
5.546875
  30
  0.0
  0
VERTEX
  8
0
  10
17.601562
  20
5.734375
  30
  0.0
  0
VERTEX
  8
0
  10
17.537109
  20
6.046875
  30
  0.0
  0
VERTEX
  8
0
  10
17.515625
  20
6.484375
  30
  0.0
  0
VERTEX
  8
0
  10
17.515625
  20
6.484375
  30
  0.0
  0
VERTEX
  8
0
  10
17.530273
  20
6.763672
  30
  0.0
  0
VERTEX
  8
0
  10
17.574219
  20
7.070312
  30
  0.0
  0
VERTEX
  8
0
  10
17.647461
  20
7.404297
  30
  0.0
  0
VERTEX
  8
0
  10
17.750000
  20
7.765625
  30
  0.0
  0
VERTEX
  8
0
  10
17.750000
  20
7.765625
  30
  0.0
  0
VERTEX
  8
0
  10
17.852539
  20
8.125977
  30
  0.0
  0
VERTEX
  8
0
  10
17.925781
  20
8.457031
  30
  0.0
  0
VERTEX
  8
0
  10
17.969727
  20
8.758789
  30
  0.0
  0
VERTEX
  8
0
  10
17.984375
  20
9.031250
  30
  0.0
  0
VERTEX
  8
0
  10
17.984375
  20
9.031250
  30
  0.0
  0
VERTEX
  8
0
  10
17.982422
  20
9.142578
  30
  0.0
  0
VERTEX
  8
0
  10
17.976562
  20
9.273438
  30
  0.0
  0
VERTEX
  8
0
  10
17.966797
  20
9.423828
  30
  0.0
  0
VERTEX
  8
0
  10
17.953125
  20
9.593750
  30
  0.0
  0
VERTEX
  8
0
  10
17.953125
  20
9.593750
  30
  0.0
  0
VERTEX
  8
0
  10
17.939453
  20
9.762695
  30
  0.0
  0
VERTEX
  8
0
  10
17.929688
  20
9.910156
  30
  0.0
  0
VERTEX
  8
0
  10
17.923828
  20
10.036133
  30
  0.0
  0
VERTEX
  8
0
  10
17.921875
  20
10.140625
  30
  0.0
  0
VERTEX
  8
0
  10
17.921875
  20
10.140625
  30
  0.0
  0
VERTEX
  8
0
  10
17.925781
  20
10.680664
  30
  0.0
  0
VERTEX
  8
0
  10
17.937500
  20
11.128906
  30
  0.0
  0
VERTEX
  8
0
  10
17.957031
  20
11.485352
  30
  0.0
  0
VERTEX
  8
0
  10
17.984375
  20
11.750000
  30
  0.0
  0
VERTEX
  8
0
  10
17.984375
  20
11.750000
  30
  0.0
  0
VERTEX
  8
0
  10
18.029297
  20
11.986328
  30
  0.0
  0
VERTEX
  8
0
  10
18.101562
  20
12.257812
  30
  0.0
  0
VERTEX
  8
0
  10
18.201172
  20
12.564453
  30
  0.0
  0
VERTEX
  8
0
  10
18.328125
  20
12.906250
  30
  0.0
  0
VERTEX
  8
0
  10
18.031250
  20
12.125000
  30
  0.0
  0
VERTEX
  8
0
  10
18.031250
  20
12.125000
  30
  0.0
  0
VERTEX
  8
0
  10
18.007324
  20
12.167969
  30
  0.0
  0
VERTEX
  8
0
  10
17.982422
  20
12.234375
  30
  0.0
  0
VERTEX
  8
0
  10
17.956543
  20
12.324219
  30
  0.0
  0
VERTEX
  8
0
  10
17.929688
  20
12.437500
  30
  0.0
  0
VERTEX
  8
0
  10
17.929688
  20
12.437500
  30
  0.0
  0
VERTEX
  8
0
  10
17.905762
  20
12.556641
  30
  0.0
  0
VERTEX
  8
0
  10
17.888672
  20
12.664062
  30
  0.0
  0
VERTEX
  8
0
  10
17.878418
  20
12.759766
  30
  0.0
  0
VERTEX
  8
0
  10
17.875000
  20
12.843750
  30
  0.0
  0
VERTEX
  8
0
  10
17.875000
  20
12.843750
  30
  0.0
  0
VERTEX
  8
0
  10
17.889648
  20
13.064941
  30
  0.0
  0
VERTEX
  8
0
  10
17.933594
  20
13.306641
  30
  0.0
  0
VERTEX
  8
0
  10
18.006836
  20
13.568848
  30
  0.0
  0
VERTEX
  8
0
  10
18.109375
  20
13.851562
  30
  0.0
  0
VERTEX
  8
0
  10
18.109375
  20
13.851562
  30
  0.0
  0
VERTEX
  8
0
  10
18.220703
  20
14.107910
  30
  0.0
  0
VERTEX
  8
0
  10
18.320312
  20
14.291016
  30
  0.0
  0
VERTEX
  8
0
  10
18.408203
  20
14.400879
  30
  0.0
  0
VERTEX
  8
0
  10
18.484375
  20
14.437500
  30
  0.0
  0
VERTEX
  8
0
  10
18.484375
  20
14.437500
  30
  0.0
  0
VERTEX
  8
0
  10
18.520020
  20
14.431641
  30
  0.0
  0
VERTEX
  8
0
  10
18.564453
  20
14.414062
  30
  0.0
  0
VERTEX
  8
0
  10
18.617676
  20
14.384766
  30
  0.0
  0
VERTEX
  8
0
  10
18.679688
  20
14.343750
  30
  0.0
  0
VERTEX
  8
0
  10
18.679688
  20
14.343750
  30
  0.0
  0
VERTEX
  8
0
  10
18.741699
  20
14.302734
  30
  0.0
  0
VERTEX
  8
0
  10
18.794922
  20
14.273438
  30
  0.0
  0
VERTEX
  8
0
  10
18.839355
  20
14.255859
  30
  0.0
  0
VERTEX
  8
0
  10
18.875000
  20
14.250000
  30
  0.0
  0
VERTEX
  8
0
  10
18.875000
  20
14.250000
  30
  0.0
  0
VERTEX
  8
0
  10
18.915527
  20
14.280762
  30
  0.0
  0
VERTEX
  8
0
  10
19.005859
  20
14.373047
  30
  0.0
  0
VERTEX
  8
0
  10
19.145996
  20
14.526855
  30
  0.0
  0
VERTEX
  8
0
  10
19.335938
  20
14.742188
  30
  0.0
  0
VERTEX
  8
0
  10
19.335938
  20
14.742188
  30
  0.0
  0
VERTEX
  8
0
  10
19.544434
  20
14.957520
  30
  0.0
  0
VERTEX
  8
0
  10
19.740234
  20
15.111328
  30
  0.0
  0
VERTEX
  8
0
  10
19.923340
  20
15.203613
  30
  0.0
  0
VERTEX
  8
0
  10
20.093750
  20
15.234375
  30
  0.0
  0
VERTEX
  8
0
  10
20.093750
  20
15.234375
  30
  0.0
  0
VERTEX
  8
0
  10
20.155273
  20
15.209961
  30
  0.0
  0
VERTEX
  8
0
  10
20.199219
  20
15.136719
  30
  0.0
  0
VERTEX
  8
0
  10
20.225586
  20
15.014648
  30
  0.0
  0
VERTEX
  8
0
  10
20.234375
  20
14.843750
  30
  0.0
  0
VERTEX
  8
0
  10
20.234375
  20
14.843750
  30
  0.0
  0
VERTEX
  8
0
  10
20.213867
  20
14.722656
  30
  0.0
  0
VERTEX
  8
0
  10
20.152344
  20
14.593750
  30
  0.0
  0
VERTEX
  8
0
  10
20.049805
  20
14.457031
  30
  0.0
  0
VERTEX
  8
0
  10
19.906250
  20
14.312500
  30
  0.0
  0
VERTEX
  8
0
  10
19.906250
  20
14.312500
  30
  0.0
  0
VERTEX
  8
0
  10
19.664062
  20
14.044922
  30
  0.0
  0
VERTEX
  8
0
  10
19.437500
  20
13.726562
  30
  0.0
  0
VERTEX
  8
0
  10
19.226562
  20
13.357422
  30
  0.0
  0
VERTEX
  8
0
  10
19.031250
  20
12.937500
  30
  0.0
  0
VERTEX
  8
0
  10
19.031250
  20
12.937500
  30
  0.0
  0
VERTEX
  8
0
  10
18.833008
  20
12.359375
  30
  0.0
  0
VERTEX
  8
0
  10
18.691406
  20
11.765625
  30
  0.0
  0
VERTEX
  8
0
  10
18.606445
  20
11.156250
  30
  0.0
  0
VERTEX
  8
0
  10
18.578125
  20
10.531250
  30
  0.0
  0
VERTEX
  8
0
  10
18.578125
  20
10.531250
  30
  0.0
  0
VERTEX
  8
0
  10
18.593750
  20
10.261719
  30
  0.0
  0
VERTEX
  8
0
  10
18.640625
  20
9.937500
  30
  0.0
  0
VERTEX
  8
0
  10
18.718750
  20
9.558594
  30
  0.0
  0
VERTEX
  8
0
  10
18.828125
  20
9.125000
  30
  0.0
  0
VERTEX
  8
0
  10
18.531250
  20
8.218750
  30
  0.0
  0
VERTEX
  8
0
  10
18.828125
  20
9.125000
  30
  0.0
  0
VERTEX
  8
0
  10
18.828125
  20
9.125000
  30
  0.0
  0
VERTEX
  8
0
  10
18.873535
  20
8.962402
  30
  0.0
  0
VERTEX
  8
0
  10
18.931641
  20
8.802734
  30
  0.0
  0
VERTEX
  8
0
  10
19.002441
  20
8.645996
  30
  0.0
  0
VERTEX
  8
0
  10
19.085938
  20
8.492188
  30
  0.0
  0
VERTEX
  8
0
  10
19.085938
  20
8.492188
  30
  0.0
  0
VERTEX
  8
0
  10
19.173340
  20
8.358887
  30
  0.0
  0
VERTEX
  8
0
  10
19.255859
  20
8.263672
  30
  0.0
  0
VERTEX
  8
0
  10
19.333496
  20
8.206543
  30
  0.0
  0
VERTEX
  8
0
  10
19.406250
  20
8.187500
  30
  0.0
  0
VERTEX
  8
0
  10
19.406250
  20
8.187500
  30
  0.0
  0
VERTEX
  8
0
  10
19.619141
  20
8.260742
  30
  0.0
  0
VERTEX
  8
0
  10
19.820312
  20
8.480469
  30
  0.0
  0
VERTEX
  8
0
  10
20.009766
  20
8.846680
  30
  0.0
  0
VERTEX
  8
0
  10
20.187500
  20
9.359375
  30
  0.0
  0
VERTEX
  8
0
  10
20.187500
  20
9.359375
  30
  0.0
  0
VERTEX
  8
0
  10
20.306641
  20
9.751953
  30
  0.0
  0
VERTEX
  8
0
  10
20.429688
  20
10.242188
  30
  0.0
  0
VERTEX
  8
0
  10
20.556641
  20
10.830078
  30
  0.0
  0
VERTEX
  8
0
  10
20.687500
  20
11.515625
  30
  0.0
  0
VERTEX
  8
0
  10
20.687500
  20
11.515625
  30
  0.0
  0
VERTEX
  8
0
  10
20.774414
  20
12.028320
  30
  0.0
  0
VERTEX
  8
0
  10
20.847656
  20
12.394531
  30
  0.0
  0
VERTEX
  8
0
  10
20.907227
  20
12.614258
  30
  0.0
  0
VERTEX
  8
0
  10
20.953125
  20
12.687500
  30
  0.0
  0
VERTEX
  8
0
  10
20.953125
  20
12.687500
  30
  0.0
  0
VERTEX
  8
0
  10
20.990234
  20
12.657227
  30
  0.0
  0
VERTEX
  8
0
  10
21.023438
  20
12.566406
  30
  0.0
  0
VERTEX
  8
0
  10
21.052734
  20
12.415039
  30
  0.0
  0
VERTEX
  8
0
  10
21.078125
  20
12.203125
  30
  0.0
  0
SEQEND
  0
POLYLINE
  8
0
  6
CONTINUOUS
  66
  1
  70
  1
  10
  0.0
  20
  0.0
  30
  0.0
  0
VERTEX
  8
0
  10
17.734375
  20
9.390625
  30
  0.0
  0
VERTEX
  8
0
  10
17.734375
  20
9.390625
  30
  0.0
  0
VERTEX
  8
0
  10
17.712891
  20
8.891602
  30
  0.0
  0
VERTEX
  8
0
  10
17.648438
  20
8.441406
  30
  0.0
  0
VERTEX
  8
0
  10
17.541016
  20
8.040039
  30
  0.0
  0
VERTEX
  8
0
  10
17.390625
  20
7.687500
  30
  0.0
  0
VERTEX
  8
0
  10
17.390625
  20
7.687500
  30
  0.0
  0
VERTEX
  8
0
  10
17.337891
  20
7.595703
  30
  0.0
  0
VERTEX
  8
0
  10
17.210938
  20
7.414062
  30
  0.0
  0
VERTEX
  8
0
  10
17.009766
  20
7.142578
  30
  0.0
  0
VERTEX
  8
0
  10
16.734375
  20
6.781250
  30
  0.0
  0
VERTEX
  8
0
  10
17.140625
  20
7.312500
  30
  0.0
  0
VERTEX
  8
0
  10
17.140625
  20
7.312500
  30
  0.0
  0
VERTEX
  8
0
  10
17.195312
  20
7.016602
  30
  0.0
  0
VERTEX
  8
0
  10
17.234375
  20
6.753906
  30
  0.0
  0
VERTEX
  8
0
  10
17.257812
  20
6.524414
  30
  0.0
  0
VERTEX
  8
0
  10
17.265625
  20
6.328125
  30
  0.0
  0
VERTEX
  8
0
  10
17.265625
  20
6.328125
  30
  0.0
  0
VERTEX
  8
0
  10
17.254883
  20
6.154785
  30
  0.0
  0
VERTEX
  8
0
  10
17.222656
  20
5.962891
  30
  0.0
  0
VERTEX
  8
0
  10
17.168945
  20
5.752441
  30
  0.0
  0
VERTEX
  8
0
  10
17.093750
  20
5.523438
  30
  0.0
  0
VERTEX
  8
0
  10
17.093750
  20
5.523438
  30
  0.0
  0
VERTEX
  8
0
  10
17.018555
  20
5.295410
  30
  0.0
  0
VERTEX
  8
0
  10
16.964844
  20
5.087891
  30
  0.0
  0
VERTEX
  8
0
  10
16.932617
  20
4.900879
  30
  0.0
  0
VERTEX
  8
0
  10
16.921875
  20
4.734375
  30
  0.0
  0
VERTEX
  8
0
  10
16.296875
  20
4.953125
  30
  0.0
  0
VERTEX
  8
0
  10
16.921875
  20
4.734375
  30
  0.0
  0
VERTEX
  8
0
  10
16.921875
  20
4.734375
  30
  0.0
  0
VERTEX
  8
0
  10
16.885742
  20
4.235352
  30
  0.0
  0
VERTEX
  8
0
  10
16.824219
  20
3.878906
  30
  0.0
  0
VERTEX
  8
0
  10
16.737305
  20
3.665039
  30
  0.0
  0
VERTEX
  8
0
  10
16.625000
  20
3.593750
  30
  0.0
  0
VERTEX
  8
0
  10
16.625000
  20
3.593750
  30
  0.0
  0
VERTEX
  8
0
  10
16.355469
  20
3.616211
  30
  0.0
  0
VERTEX
  8
0
  10
16.109375
  20
3.683594
  30
  0.0
  0
VERTEX
  8
0
  10
15.886719
  20
3.795898
  30
  0.0
  0
VERTEX
  8
0
  10
15.687500
  20
3.953125
  30
  0.0
  0
VERTEX
  8
0
  10
15.687500
  20
7.406250
  30
  0.0
  0
VERTEX
  8
0
  10
16.187500
  20
7.375000
  30
  0.0
  0
VERTEX
  8
0
  10
15.687500
  20
7.406250
  30
  0.0
  0
VERTEX
  8
0
  10
15.703125
  20
9.390625
  30
  0.0
  0
VERTEX
  8
0
  10
16.187500
  20
9.390625
  30
  0.0
  0
VERTEX
  8
0
  10
15.703125
  20
9.390625
  30
  0.0
  0
VERTEX
  8
0
  10
15.703125
  20
11.312500
  30
  0.0
  0
VERTEX
  8
0
  10
16.218750
  20
11.218750
  30
  0.0
  0
VERTEX
  8
0
  10
15.703125
  20
11.312500
  30
  0.0
  0
VERTEX
  8
0
  10
15.703125
  20
14.812500
  30
  0.0
  0
VERTEX
  8
0
  10
15.703125
  20
14.812500
  30
  0.0
  0
VERTEX
  8
0
  10
15.957031
  20
14.976562
  30
  0.0
  0
VERTEX
  8
0
  10
16.203125
  20
15.093750
  30
  0.0
  0
VERTEX
  8
0
  10
16.441406
  20
15.164062
  30
  0.0
  0
VERTEX
  8
0
  10
16.671875
  20
15.187500
  30
  0.0
  0
VERTEX
  8
0
  10
16.671875
  20
15.187500
  30
  0.0
  0
VERTEX
  8
0
  10
16.774414
  20
15.138672
  30
  0.0
  0
VERTEX
  8
0
  10
16.847656
  20
14.992188
  30
  0.0
  0
VERTEX
  8
0
  10
16.891602
  20
14.748047
  30
  0.0
  0
VERTEX
  8
0
  10
16.906250
  20
14.406250
  30
  0.0
  0
VERTEX
  8
0
  10
16.906250
  20
13.953125
  30
  0.0
  0
VERTEX
  8
0
  10
16.281250
  20
13.765625
  30
  0.0
  0
VERTEX
  8
0
  10
16.906250
  20
13.953125
  30
  0.0
  0
VERTEX
  8
0
  10
16.906250
  20
13.953125
  30
  0.0
  0
VERTEX
  8
0
  10
16.954102
  20
13.757812
  30
  0.0
  0
VERTEX
  8
0
  10
17.003906
  20
13.562500
  30
  0.0
  0
VERTEX
  8
0
  10
17.055664
  20
13.367188
  30
  0.0
  0
VERTEX
  8
0
  10
17.109375
  20
13.171875
  30
  0.0
  0
VERTEX
  8
0
  10
17.109375
  20
13.171875
  30
  0.0
  0
VERTEX
  8
0
  10
17.164062
  20
12.935547
  30
  0.0
  0
VERTEX
  8
0
  10
17.203125
  20
12.710938
  30
  0.0
  0
VERTEX
  8
0
  10
17.226562
  20
12.498047
  30
  0.0
  0
VERTEX
  8
0
  10
17.234375
  20
12.296875
  30
  0.0
  0
VERTEX
  8
0
  10
17.234375
  20
12.296875
  30
  0.0
  0
VERTEX
  8
0
  10
17.230469
  20
12.246094
  30
  0.0
  0
VERTEX
  8
0
  10
17.218750
  20
12.093750
  30
  0.0
  0
VERTEX
  8
0
  10
17.199219
  20
11.839844
  30
  0.0
  0
VERTEX
  8
0
  10
17.171875
  20
11.484375
  30
  0.0
  0
VERTEX
  8
0
  10
16.671875
  20
11.968750
  30
  0.0
  0
VERTEX
  8
0
  10
16.671875
  20
11.968750
  30
  0.0
  0
VERTEX
  8
0
  10
16.767578
  20
11.879883
  30
  0.0
  0
VERTEX
  8
0
  10
16.882812
  20
11.769531
  30
  0.0
  0
VERTEX
  8
0
  10
17.017578
  20
11.637695
  30
  0.0
  0
VERTEX
  8
0
  10
17.171875
  20
11.484375
  30
  0.0
  0
VERTEX
  8
0
  10
17.171875
  20
11.484375
  30
  0.0
  0
VERTEX
  8
0
  10
17.240234
  20
11.375000
  30
  0.0
  0
VERTEX
  8
0
  10
17.320312
  20
11.187500
  30
  0.0
  0
VERTEX
  8
0
  10
17.412109
  20
10.921875
  30
  0.0
  0
VERTEX
  8
0
  10
17.515625
  20
10.578125
  30
  0.0
  0
VERTEX
  8
0
  10
17.515625
  20
10.578125
  30
  0.0
  0
VERTEX
  8
0
  10
17.611328
  20
10.216797
  30
  0.0
  0
VERTEX
  8
0
  10
17.679688
  20
9.898438
  30
  0.0
  0
VERTEX
  8
0
  10
17.720703
  20
9.623047
  30
  0.0
  0
VERTEX
  8
0
  10
17.734375
  20
9.390625
  30
  0.0
  0
SEQEND
  0
POLYLINE
  8
0
  6
CONTINUOUS
  66
  1
  70
  1
  10
  0.0
  20
  0.0
  30
  0.0
  0
VERTEX
  8
0
  10
19.421875
  20
-1.265625
  30
  0.0
  0
VERTEX
  8
0
  10
19.421875
  20
-1.265625
  30
  0.0
  0
VERTEX
  8
0
  10
19.402344
  20
-1.561523
  30
  0.0
  0
VERTEX
  8
0
  10
19.343750
  20
-1.824219
  30
  0.0
  0
VERTEX
  8
0
  10
19.246094
  20
-2.053711
  30
  0.0
  0
VERTEX
  8
0
  10
19.109375
  20
-2.250000
  30
  0.0
  0
VERTEX
  8
0
  10
19.109375
  20
-2.250000
  30
  0.0
  0
VERTEX
  8
0
  10
18.950195
  20
-2.447266
  30
  0.0
  0
VERTEX
  8
0
  10
18.832031
  20
-2.648438
  30
  0.0
  0
VERTEX
  8
0
  10
18.754883
  20
-2.853516
  30
  0.0
  0
VERTEX
  8
0
  10
18.718750
  20
-3.062500
  30
  0.0
  0
VERTEX
  8
0
  10
18.031250
  20
-1.796875
  30
  0.0
  0
VERTEX
  8
0
  10
18.718750
  20
-3.062500
  30
  0.0
  0
VERTEX
  8
0
  10
18.718750
  20
-3.062500
  30
  0.0
  0
VERTEX
  8
0
  10
18.696289
  20
-3.468750
  30
  0.0
  0
VERTEX
  8
0
  10
18.675781
  20
-3.875000
  30
  0.0
  0
VERTEX
  8
0
  10
18.657227
  20
-4.281250
  30
  0.0
  0
VERTEX
  8
0
  10
18.640625
  20
-4.687500
  30
  0.0
  0
VERTEX
  8
0
  10
18.640625
  20
-4.687500
  30
  0.0
  0
VERTEX
  8
0
  10
18.593750
  20
-5.090820
  30
  0.0
  0
VERTEX
  8
0
  10
18.515625
  20
-5.378906
  30
  0.0
  0
VERTEX
  8
0
  10
18.406250
  20
-5.551758
  30
  0.0
  0
VERTEX
  8
0
  10
18.265625
  20
-5.609375
  30
  0.0
  0
VERTEX
  8
0
  10
18.265625
  20
-5.609375
  30
  0.0
  0
VERTEX
  8
0
  10
18.190430
  20
-5.583008
  30
  0.0
  0
VERTEX
  8
0
  10
18.105469
  20
-5.503906
  30
  0.0
  0
VERTEX
  8
0
  10
18.010742
  20
-5.372070
  30
  0.0
  0
VERTEX
  8
0
  10
17.906250
  20
-5.187500
  30
  0.0
  0
VERTEX
  8
0
  10
17.906250
  20
-5.187500
  30
  0.0
  0
VERTEX
  8
0
  10
17.802734
  20
-5.002930
  30
  0.0
  0
VERTEX
  8
0
  10
17.710938
  20
-4.871094
  30
  0.0
  0
VERTEX
  8
0
  10
17.630859
  20
-4.791992
  30
  0.0
  0
VERTEX
  8
0
  10
17.562500
  20
-4.765625
  30
  0.0
  0
VERTEX
  8
0
  10
17.562500
  20
-4.765625
  30
  0.0
  0
VERTEX
  8
0
  10
17.496094
  20
-4.794922
  30
  0.0
  0
VERTEX
  8
0
  10
17.421875
  20
-4.882812
  30
  0.0
  0
VERTEX
  8
0
  10
17.339844
  20
-5.029297
  30
  0.0
  0
VERTEX
  8
0
  10
17.250000
  20
-5.234375
  30
  0.0
  0
VERTEX
  8
0
  10
17.250000
  20
-5.234375
  30
  0.0
  0
VERTEX
  8
0
  10
17.162109
  20
-5.439453
  30
  0.0
  0
VERTEX
  8
0
  10
17.085938
  20
-5.585938
  30
  0.0
  0
VERTEX
  8
0
  10
17.021484
  20
-5.673828
  30
  0.0
  0
VERTEX
  8
0
  10
16.968750
  20
-5.703125
  30
  0.0
  0
VERTEX
  8
0
  10
16.968750
  20
-5.703125
  30
  0.0
  0
VERTEX
  8
0
  10
16.942383
  20
-5.694824
  30
  0.0
  0
VERTEX
  8
0
  10
16.910156
  20
-5.669922
  30
  0.0
  0
VERTEX
  8
0
  10
16.872070
  20
-5.628418
  30
  0.0
  0
VERTEX
  8
0
  10
16.828125
  20
-5.570312
  30
  0.0
  0
VERTEX
  8
0
  10
16.828125
  20
-5.570312
  30
  0.0
  0
VERTEX
  8
0
  10
16.783203
  20
-5.512207
  30
  0.0
  0
VERTEX
  8
0
  10
16.742188
  20
-5.470703
  30
  0.0
  0
VERTEX
  8
0
  10
16.705078
  20
-5.445801
  30
  0.0
  0
VERTEX
  8
0
  10
16.671875
  20
-5.437500
  30
  0.0
  0
VERTEX
  8
0
  10
16.671875
  20
-5.437500
  30
  0.0
  0
VERTEX
  8
0
  10
16.635254
  20
-5.444824
  30
  0.0
  0
VERTEX
  8
0
  10
16.587891
  20
-5.466797
  30
  0.0
  0
VERTEX
  8
0
  10
16.529785
  20
-5.503418
  30
  0.0
  0
VERTEX
  8
0
  10
16.460938
  20
-5.554688
  30
  0.0
  0
VERTEX
  8
0
  10
16.460938
  20
-5.554688
  30
  0.0
  0
VERTEX
  8
0
  10
16.391113
  20
-5.605957
  30
  0.0
  0
VERTEX
  8
0
  10
16.330078
  20
-5.642578
  30
  0.0
  0
VERTEX
  8
0
  10
16.277832
  20
-5.664551
  30
  0.0
  0
VERTEX
  8
0
  10
16.234375
  20
-5.671875
  30
  0.0
  0
VERTEX
  8
0
  10
16.234375
  20
-5.671875
  30
  0.0
  0
VERTEX
  8
0
  10
16.156250
  20
-5.635742
  30
  0.0
  0
VERTEX
  8
0
  10
16.093750
  20
-5.527344
  30
  0.0
  0
VERTEX
  8
0
  10
16.046875
  20
-5.346680
  30
  0.0
  0
VERTEX
  8
0
  10
16.015625
  20
-5.093750
  30
  0.0
  0
VERTEX
  8
0
  10
16.015625
  20
-5.093750
  30
  0.0
  0
VERTEX
  8
0
  10
16.000000
  20
-4.858398
  30
  0.0
  0
VERTEX
  8
0
  10
15.984375
  20
-4.621094
  30
  0.0
  0
VERTEX
  8
0
  10
15.968750
  20
-4.381836
  30
  0.0
  0
VERTEX
  8
0
  10
15.953125
  20
-4.140625
  30
  0.0
  0
VERTEX
  8
0
  10
15.953125
  20
-4.140625
  30
  0.0
  0
VERTEX
  8
0
  10
15.931641
  20
-4.049805
  30
  0.0
  0
VERTEX
  8
0
  10
15.898438
  20
-3.933594
  30
  0.0
  0
VERTEX
  8
0
  10
15.853516
  20
-3.791992
  30
  0.0
  0
VERTEX
  8
0
  10
15.796875
  20
-3.625000
  30
  0.0
  0
VERTEX
  8
0
  10
15.796875
  20
-3.625000
  30
  0.0
  0
VERTEX
  8
0
  10
15.755859
  20
-3.490234
  30
  0.0
  0
VERTEX
  8
0
  10
15.726562
  20
-3.351562
  30
  0.0
  0
VERTEX
  8
0
  10
15.708984
  20
-3.208984
  30
  0.0
  0
VERTEX
  8
0
  10
15.703125
  20
-3.062500
  30
  0.0
  0
VERTEX
  8
0
  10
16.265625
  20
-0.718750
  30
  0.0
  0
VERTEX
  8
0
  10
16.265625
  20
-0.718750
  30
  0.0
  0
VERTEX
  8
0
  10
16.517578
  20
-1.187500
  30
  0.0
  0
VERTEX
  8
0
  10
16.757812
  20
-1.625000
  30
  0.0
  0
VERTEX
  8
0
  10
16.986328
  20
-2.031250
  30
  0.0
  0
VERTEX
  8
0
  10
17.203125
  20
-2.406250
  30
  0.0
  0
VERTEX
  8
0
  10
17.203125
  20
-2.406250
  30
  0.0
  0
VERTEX
  8
0
  10
16.553711
  20
-1.298828
  30
  0.0
  0
VERTEX
  8
0
  10
16.089844
  20
-0.382812
  30
  0.0
  0
VERTEX
  8
0
  10
15.811523
  20
0.341797
  30
  0.0
  0
VERTEX
  8
0
  10
15.718750
  20
0.875000
  30
  0.0
  0
VERTEX
  8
0
  10
15.718750
  20
0.875000
  30
  0.0
  0
VERTEX
  8
0
  10
15.731445
  20
1.143555
  30
  0.0
  0
VERTEX
  8
0
  10
15.769531
  20
1.417969
  30
  0.0
  0
VERTEX
  8
0
  10
15.833008
  20
1.698242
  30
  0.0
  0
VERTEX
  8
0
  10
15.921875
  20
1.984375
  30
  0.0
  0
VERTEX
  8
0
  10
16.609375
  20
0.781250
  30
  0.0
  0
VERTEX
  8
0
  10
15.921875
  20
1.984375
  30
  0.0
  0
VERTEX
  8
0
  10
15.921875
  20
1.984375
  30
  0.0
  0
VERTEX
  8
0
  10
16.041016
  20
2.456055
  30
  0.0
  0
VERTEX
  8
0
  10
16.148438
  20
2.792969
  30
  0.0
  0
VERTEX
  8
0
  10
16.244141
  20
2.995117
  30
  0.0
  0
VERTEX
  8
0
  10
16.328125
  20
3.062500
  30
  0.0
  0
VERTEX
  8
0
  10
16.328125
  20
3.062500
  30
  0.0
  0
VERTEX
  8
0
  10
16.530273
  20
2.903320
  30
  0.0
  0
VERTEX
  8
0
  10
16.855469
  20
2.425781
  30
  0.0
  0
VERTEX
  8
0
  10
17.303711
  20
1.629883
  30
  0.0
  0
VERTEX
  8
0
  10
17.875000
  20
0.515625
  30
  0.0
  0
VERTEX
  8
0
  10
17.875000
  20
0.515625
  30
  0.0
  0
VERTEX
  8
0
  10
17.617188
  20
1.028320
  30
  0.0
  0
VERTEX
  8
0
  10
17.375000
  20
1.488281
  30
  0.0
  0
VERTEX
  8
0
  10
17.148438
  20
1.895508
  30
  0.0
  0
VERTEX
  8
0
  10
16.937500
  20
2.250000
  30
  0.0
  0
VERTEX
  8
0
  10
17.609375
  20
4.796875
  30
  0.0
  0
VERTEX
  8
0
  10
17.921875
  20
4.375000
  30
  0.0
  0
VERTEX
  8
0
  10
17.921875
  20
4.375000
  30
  0.0
  0
VERTEX
  8
0
  10
18.082031
  20
4.532227
  30
  0.0
  0
VERTEX
  8
0
  10
18.203125
  20
4.644531
  30
  0.0
  0
VERTEX
  8
0
  10
18.285156
  20
4.711914
  30
  0.0
  0
VERTEX
  8
0
  10
18.328125
  20
4.734375
  30
  0.0
  0
VERTEX
  8
0
  10
18.328125
  20
4.734375
  30
  0.0
  0
VERTEX
  8
0
  10
18.387695
  20
4.707520
  30
  0.0
  0
VERTEX
  8
0
  10
18.441406
  20
4.626953
  30
  0.0
  0
VERTEX
  8
0
  10
18.489258
  20
4.492676
  30
  0.0
  0
VERTEX
  8
0
  10
18.531250
  20
4.304688
  30
  0.0
  0
VERTEX
  8
0
  10
18.531250
  20
4.304688
  30
  0.0
  0
VERTEX
  8
0
  10
18.565430
  20
4.092285
  30
  0.0
  0
VERTEX
  8
0
  10
18.589844
  20
3.884766
  30
  0.0
  0
VERTEX
  8
0
  10
18.604492
  20
3.682129
  30
  0.0
  0
VERTEX
  8
0
  10
18.609375
  20
3.484375
  30
  0.0
  0
VERTEX
  8
0
  10
18.609375
  20
3.484375
  30
  0.0
  0
VERTEX
  8
0
  10
18.618652
  20
3.291016
  30
  0.0
  0
VERTEX
  8
0
  10
18.646484
  20
3.101562
  30
  0.0
  0
VERTEX
  8
0
  10
18.692871
  20
2.916016
  30
  0.0
  0
VERTEX
  8
0
  10
18.757812
  20
2.734375
  30
  0.0
  0
VERTEX
  8
0
  10
18.757812
  20
2.734375
  30
  0.0
  0
VERTEX
  8
0
  10
18.822754
  20
2.561523
  30
  0.0
  0
VERTEX
  8
0
  10
18.869141
  20
2.402344
  30
  0.0
  0
VERTEX
  8
0
  10
18.896973
  20
2.256836
  30
  0.0
  0
VERTEX
  8
0
  10
18.906250
  20
2.125000
  30
  0.0
  0
VERTEX
  8
0
  10
18.906250
  20
2.125000
  30
  0.0
  0
VERTEX
  8
0
  10
18.898438
  20
2.051758
  30
  0.0
  0
VERTEX
  8
0
  10
18.875000
  20
1.832031
  30
  0.0
  0
VERTEX
  8
0
  10
18.835938
  20
1.465820
  30
  0.0
  0
VERTEX
  8
0
  10
18.781250
  20
0.953125
  30
  0.0
  0
VERTEX
  8
0
  10
18.781250
  20
0.953125
  30
  0.0
  0
VERTEX
  8
0
  10
18.813965
  20
0.710449
  30
  0.0
  0
VERTEX
  8
0
  10
18.880859
  20
0.451172
  30
  0.0
  0
VERTEX
  8
0
  10
18.981934
  20
0.175293
  30
  0.0
  0
VERTEX
  8
0
  10
19.117188
  20
-0.117188
  30
  0.0
  0
VERTEX
  8
0
  10
19.117188
  20
-0.117188
  30
  0.0
  0
VERTEX
  8
0
  10
19.250488
  20
-0.414551
  30
  0.0
  0
VERTEX
  8
0
  10
19.345703
  20
-0.705078
  30
  0.0
  0
VERTEX
  8
0
  10
19.402832
  20
-0.988770
  30
  0.0
  0
VERTEX
  8
0
  10
19.421875
  20
-1.265625
  30
  0.0
  0
SEQEND
  0
POLYLINE
  8
0
  6
CONTINUOUS
  66
  1
  70
  1
  10
  0.0
  20
  0.0
  30
  0.0
  0
VERTEX
  8
0
  10
13.546875
  20
10.296875
  30
  0.0
  0
VERTEX
  8
0
  10
13.546875
  20
10.296875
  30
  0.0
  0
VERTEX
  8
0
  10
13.507812
  20
10.170898
  30
  0.0
  0
VERTEX
  8
0
  10
13.468750
  20
10.042969
  30
  0.0
  0
VERTEX
  8
0
  10
13.429688
  20
9.913086
  30
  0.0
  0
VERTEX
  8
0
  10
13.390625
  20
9.781250
  30
  0.0
  0
VERTEX
  8
0
  10
13.390625
  20
9.781250
  30
  0.0
  0
VERTEX
  8
0
  10
13.342773
  20
9.624023
  30
  0.0
  0
VERTEX
  8
0
  10
13.308594
  20
9.480469
  30
  0.0
  0
VERTEX
  8
0
  10
13.288086
  20
9.350586
  30
  0.0
  0
VERTEX
  8
0
  10
13.281250
  20
9.234375
  30
  0.0
  0
VERTEX
  8
0
  10
13.281250
  20
9.234375
  30
  0.0
  0
VERTEX
  8
0
  10
13.284668
  20
9.178223
  30
  0.0
  0
VERTEX
  8
0
  10
13.294922
  20
9.087891
  30
  0.0
  0
VERTEX
  8
0
  10
13.312012
  20
8.963379
  30
  0.0
  0
VERTEX
  8
0
  10
13.335938
  20
8.804688
  30
  0.0
  0
VERTEX
  8
0
  10
13.335938
  20
8.804688
  30
  0.0
  0
VERTEX
  8
0
  10
13.359863
  20
8.645996
  30
  0.0
  0
VERTEX
  8
0
  10
13.376953
  20
8.521484
  30
  0.0
  0
VERTEX
  8
0
  10
13.387207
  20
8.431152
  30
  0.0
  0
VERTEX
  8
0
  10
13.390625
  20
8.375000
  30
  0.0
  0
VERTEX
  8
0
  10
13.390625
  20
8.375000
  30
  0.0
  0
VERTEX
  8
0
  10
13.378418
  20
8.188965
  30
  0.0
  0
VERTEX
  8
0
  10
13.341797
  20
8.021484
  30
  0.0
  0
VERTEX
  8
0
  10
13.280762
  20
7.872559
  30
  0.0
  0
VERTEX
  8
0
  10
13.195312
  20
7.742188
  30
  0.0
  0
VERTEX
  8
0
  10
13.195312
  20
7.742188
  30
  0.0
  0
VERTEX
  8
0
  10
13.109863
  20
7.613770
  30
  0.0
  0
VERTEX
  8
0
  10
13.048828
  20
7.470703
  30
  0.0
  0
VERTEX
  8
0
  10
13.012207
  20
7.312988
  30
  0.0
  0
VERTEX
  8
0
  10
13.000000
  20
7.140625
  30
  0.0
  0
VERTEX
  8
0
  10
13.000000
  20
7.140625
  30
  0.0
  0
VERTEX
  8
0
  10
13.013672
  20
6.996582
  30
  0.0
  0
VERTEX
  8
0
  10
13.054688
  20
6.658203
  30
  0.0
  0
VERTEX
  8
0
  10
13.123047
  20
6.125488
  30
  0.0
  0
VERTEX
  8
0
  10
13.218750
  20
5.398438
  30
  0.0
  0
VERTEX
  8
0
  10
13.218750
  20
5.398438
  30
  0.0
  0
VERTEX
  8
0
  10
13.314453
  20
4.618652
  30
  0.0
  0
VERTEX
  8
0
  10
13.382812
  20
3.927734
  30
  0.0
  0
VERTEX
  8
0
  10
13.423828
  20
3.325684
  30
  0.0
  0
VERTEX
  8
0
  10
13.437500
  20
2.812500
  30
  0.0
  0
VERTEX
  8
0
  10
13.437500
  20
2.812500
  30
  0.0
  0
VERTEX
  8
0
  10
13.427734
  20
2.484375
  30
  0.0
  0
VERTEX
  8
0
  10
13.398438
  20
2.250000
  30
  0.0
  0
VERTEX
  8
0
  10
13.349609
  20
2.109375
  30
  0.0
  0
VERTEX
  8
0
  10
13.281250
  20
2.062500
  30
  0.0
  0
VERTEX
  8
0
  10
13.281250
  20
2.062500
  30
  0.0
  0
VERTEX
  8
0
  10
13.236328
  20
2.088867
  30
  0.0
  0
VERTEX
  8
0
  10
13.195312
  20
2.167969
  30
  0.0
  0
VERTEX
  8
0
  10
13.158203
  20
2.299805
  30
  0.0
  0
VERTEX
  8
0
  10
13.125000
  20
2.484375
  30
  0.0
  0
VERTEX
  8
0
  10
13.125000
  20
2.484375
  30
  0.0
  0
VERTEX
  8
0
  10
13.109375
  20
2.649414
  30
  0.0
  0
VERTEX
  8
0
  10
13.093750
  20
2.816406
  30
  0.0
  0
VERTEX
  8
0
  10
13.078125
  20
2.985352
  30
  0.0
  0
VERTEX
  8
0
  10
13.062500
  20
3.156250
  30
  0.0
  0
VERTEX
  8
0
  10
13.062500
  20
3.156250
  30
  0.0
  0
VERTEX
  8
0
  10
12.953125
  20
3.865234
  30
  0.0
  0
VERTEX
  8
0
  10
12.812500
  20
4.585938
  30
  0.0
  0
VERTEX
  8
0
  10
12.640625
  20
5.318359
  30
  0.0
  0
VERTEX
  8
0
  10
12.437500
  20
6.062500
  30
  0.0
  0
VERTEX
  8
0
  10
12.437500
  20
6.062500
  30
  0.0
  0
VERTEX
  8
0
  10
12.397461
  20
6.164062
  30
  0.0
  0
VERTEX
  8
0
  10
12.355469
  20
6.296875
  30
  0.0
  0
VERTEX
  8
0
  10
12.311523
  20
6.460938
  30
  0.0
  0
VERTEX
  8
0
  10
12.265625
  20
6.656250
  30
  0.0
  0
VERTEX
  8
0
  10
12.265625
  20
6.656250
  30
  0.0
  0
VERTEX
  8
0
  10
12.340820
  20
7.035156
  30
  0.0
  0
VERTEX
  8
0
  10
12.394531
  20
7.328125
  30
  0.0
  0
VERTEX
  8
0
  10
12.426758
  20
7.535156
  30
  0.0
  0
VERTEX
  8
0
  10
12.437500
  20
7.656250
  30
  0.0
  0
VERTEX
  8
0
  10
12.437500
  20
7.656250
  30
  0.0
  0
VERTEX
  8
0
  10
12.417480
  20
7.897949
  30
  0.0
  0
VERTEX
  8
0
  10
12.357422
  20
8.091797
  30
  0.0
  0
VERTEX
  8
0
  10
12.257324
  20
8.237793
  30
  0.0
  0
VERTEX
  8
0
  10
12.117188
  20
8.335938
  30
  0.0
  0
VERTEX
  8
0
  10
12.117188
  20
8.335938
  30
  0.0
  0
VERTEX
  8
0
  10
11.977051
  20
8.447754
  30
  0.0
  0
VERTEX
  8
0
  10
11.876953
  20
8.634766
  30
  0.0
  0
VERTEX
  8
0
  10
11.816895
  20
8.896973
  30
  0.0
  0
VERTEX
  8
0
  10
11.796875
  20
9.234375
  30
  0.0
  0
VERTEX
  8
0
  10
11.796875
  20
9.234375
  30
  0.0
  0
VERTEX
  8
0
  10
11.798828
  20
9.362305
  30
  0.0
  0
VERTEX
  8
0
  10
11.804688
  20
9.496094
  30
  0.0
  0
VERTEX
  8
0
  10
11.814453
  20
9.635742
  30
  0.0
  0
VERTEX
  8
0
  10
11.828125
  20
9.781250
  30
  0.0
  0
VERTEX
  8
0
  10
11.828125
  20
9.781250
  30
  0.0
  0
VERTEX
  8
0
  10
11.803711
  20
9.856445
  30
  0.0
  0
VERTEX
  8
0
  10
11.777344
  20
9.910156
  30
  0.0
  0
VERTEX
  8
0
  10
11.749023
  20
9.942383
  30
  0.0
  0
VERTEX
  8
0
  10
11.718750
  20
9.953125
  30
  0.0
  0
VERTEX
  8
0
  10
11.718750
  20
9.953125
  30
  0.0
  0
VERTEX
  8
0
  10
11.611328
  20
9.898926
  30
  0.0
  0
VERTEX
  8
0
  10
11.492188
  20
9.736328
  30
  0.0
  0
VERTEX
  8
0
  10
11.361328
  20
9.465332
  30
  0.0
  0
VERTEX
  8
0
  10
11.218750
  20
9.085938
  30
  0.0
  0
VERTEX
  8
0
  10
11.218750
  20
9.085938
  30
  0.0
  0
VERTEX
  8
0
  10
11.088867
  20
8.671387
  30
  0.0
  0
VERTEX
  8
0
  10
10.996094
  20
8.294922
  30
  0.0
  0
VERTEX
  8
0
  10
10.940430
  20
7.956543
  30
  0.0
  0
VERTEX
  8
0
  10
10.921875
  20
7.656250
  30
  0.0
  0
VERTEX
  8
0
  10
10.921875
  20
7.656250
  30
  0.0
  0
VERTEX
  8
0
  10
10.923828
  20
7.586426
  30
  0.0
  0
VERTEX
  8
0
  10
10.929688
  20
7.501953
  30
  0.0
  0
VERTEX
  8
0
  10
10.939453
  20
7.402832
  30
  0.0
  0
VERTEX
  8
0
  10
10.953125
  20
7.289062
  30
  0.0
  0
VERTEX
  8
0
  10
10.953125
  20
7.289062
  30
  0.0
  0
VERTEX
  8
0
  10
10.966797
  20
7.176270
  30
  0.0
  0
VERTEX
  8
0
  10
10.976562
  20
7.080078
  30
  0.0
  0
VERTEX
  8
0
  10
10.982422
  20
7.000488
  30
  0.0
  0
VERTEX
  8
0
  10
10.984375
  20
6.937500
  30
  0.0
  0
VERTEX
  8
0
  10
10.984375
  20
6.937500
  30
  0.0
  0
VERTEX
  8
0
  10
10.977539
  20
6.787109
  30
  0.0
  0
VERTEX
  8
0
  10
10.957031
  20
6.679688
  30
  0.0
  0
VERTEX
  8
0
  10
10.922852
  20
6.615234
  30
  0.0
  0
VERTEX
  8
0
  10
10.875000
  20
6.593750
  30
  0.0
  0
VERTEX
  8
0
  10
10.875000
  20
6.593750
  30
  0.0
  0
VERTEX
  8
0
  10
10.760254
  20
6.670898
  30
  0.0
  0
VERTEX
  8
0
  10
10.619141
  20
6.902344
  30
  0.0
  0
VERTEX
  8
0
  10
10.451660
  20
7.288086
  30
  0.0
  0
VERTEX
  8
0
  10
10.257812
  20
7.828125
  30
  0.0
  0
VERTEX
  8
0
  10
10.257812
  20
7.828125
  30
  0.0
  0
VERTEX
  8
0
  10
10.076660
  20
8.403320
  30
  0.0
  0
VERTEX
  8
0
  10
9.947266
  20
8.894531
  30
  0.0
  0
VERTEX
  8
0
  10
9.869629
  20
9.301758
  30
  0.0
  0
VERTEX
  8
0
  10
9.843750
  20
9.625000
  30
  0.0
  0
VERTEX
  8
0
  10
9.843750
  20
9.625000
  30
  0.0
  0
VERTEX
  8
0
  10
9.850586
  20
9.717773
  30
  0.0
  0
VERTEX
  8
0
  10
9.871094
  20
9.808594
  30
  0.0
  0
VERTEX
  8
0
  10
9.905273
  20
9.897461
  30
  0.0
  0
VERTEX
  8
0
  10
9.953125
  20
9.984375
  30
  0.0
  0
VERTEX
  8
0
  10
9.953125
  20
9.984375
  30
  0.0
  0
VERTEX
  8
0
  10
9.980957
  20
9.969727
  30
  0.0
  0
VERTEX
  8
0
  10
10.017578
  20
9.925781
  30
  0.0
  0
VERTEX
  8
0
  10
10.062988
  20
9.852539
  30
  0.0
  0
VERTEX
  8
0
  10
10.117188
  20
9.750000
  30
  0.0
  0
VERTEX
  8
0
  10
10.117188
  20
9.750000
  30
  0.0
  0
VERTEX
  8
0
  10
10.173340
  20
9.647461
  30
  0.0
  0
VERTEX
  8
0
  10
10.224609
  20
9.574219
  30
  0.0
  0
VERTEX
  8
0
  10
10.270996
  20
9.530273
  30
  0.0
  0
VERTEX
  8
0
  10
10.312500
  20
9.515625
  30
  0.0
  0
VERTEX
  8
0
  10
10.312500
  20
9.515625
  30
  0.0
  0
VERTEX
  8
0
  10
10.472168
  20
9.571777
  30
  0.0
  0
VERTEX
  8
0
  10
10.654297
  20
9.740234
  30
  0.0
  0
VERTEX
  8
0
  10
10.858887
  20
10.020996
  30
  0.0
  0
VERTEX
  8
0
  10
11.085938
  20
10.414062
  30
  0.0
  0
VERTEX
  8
0
  10
11.085938
  20
10.414062
  30
  0.0
  0
VERTEX
  8
0
  10
11.302246
  20
10.854004
  30
  0.0
  0
VERTEX
  8
0
  10
11.474609
  20
11.275391
  30
  0.0
  0
VERTEX
  8
0
  10
11.603027
  20
11.678223
  30
  0.0
  0
VERTEX
  8
0
  10
11.687500
  20
12.062500
  30
  0.0
  0
VERTEX
  8
0
  10
11.687500
  20
12.062500
  30
  0.0
  0
VERTEX
  8
0
  10
11.710938
  20
12.243164
  30
  0.0
  0
VERTEX
  8
0
  10
11.734375
  20
12.425781
  30
  0.0
  0
VERTEX
  8
0
  10
11.757812
  20
12.610352
  30
  0.0
  0
VERTEX
  8
0
  10
11.781250
  20
12.796875
  30
  0.0
  0
VERTEX
  8
0
  10
11.781250
  20
12.796875
  30
  0.0
  0
VERTEX
  8
0
  10
11.809570
  20
12.960938
  30
  0.0
  0
VERTEX
  8
0
  10
11.847656
  20
13.078125
  30
  0.0
  0
VERTEX
  8
0
  10
11.895508
  20
13.148438
  30
  0.0
  0
VERTEX
  8
0
  10
11.953125
  20
13.171875
  30
  0.0
  0
VERTEX
  8
0
  10
11.953125
  20
13.171875
  30
  0.0
  0
VERTEX
  8
0
  10
11.986816
  20
13.157715
  30
  0.0
  0
VERTEX
  8
0
  10
12.025391
  20
13.115234
  30
  0.0
  0
VERTEX
  8
0
  10
12.068848
  20
13.044434
  30
  0.0
  0
VERTEX
  8
0
  10
12.117188
  20
12.945312
  30
  0.0
  0
VERTEX
  8
0
  10
12.117188
  20
12.945312
  30
  0.0
  0
VERTEX
  8
0
  10
12.167480
  20
12.848145
  30
  0.0
  0
VERTEX
  8
0
  10
12.216797
  20
12.783203
  30
  0.0
  0
VERTEX
  8
0
  10
12.265137
  20
12.750488
  30
  0.0
  0
VERTEX
  8
0
  10
12.312500
  20
12.750000
  30
  0.0
  0
VERTEX
  8
0
  10
12.406250
  20
12.750000
  30
  0.0
  0
VERTEX
  8
0
  10
12.406250
  20
12.750000
  30
  0.0
  0
VERTEX
  8
0
  10
12.439453
  20
12.836914
  30
  0.0
  0
VERTEX
  8
0
  10
12.476562
  20
12.941406
  30
  0.0
  0
VERTEX
  8
0
  10
12.517578
  20
13.063477
  30
  0.0
  0
VERTEX
  8
0
  10
12.562500
  20
13.203125
  30
  0.0
  0
VERTEX
  8
0
  10
12.562500
  20
13.203125
  30
  0.0
  0
VERTEX
  8
0
  10
12.653320
  20
12.964844
  30
  0.0
  0
VERTEX
  8
0
  10
12.769531
  20
12.640625
  30
  0.0
  0
VERTEX
  8
0
  10
12.911133
  20
12.230469
  30
  0.0
  0
VERTEX
  8
0
  10
13.078125
  20
11.734375
  30
  0.0
  0
VERTEX
  8
0
  10
12.343750
  20
9.812500
  30
  0.0
  0
VERTEX
  8
0
  10
13.078125
  20
11.734375
  30
  0.0
  0
VERTEX
  8
0
  10
13.078125
  20
11.734375
  30
  0.0
  0
VERTEX
  8
0
  10
13.177734
  20
11.474609
  30
  0.0
  0
VERTEX
  8
0
  10
13.289062
  20
11.148438
  30
  0.0
  0
VERTEX
  8
0
  10
13.412109
  20
10.755859
  30
  0.0
  0
VERTEX
  8
0
  10
13.546875
  20
10.296875
  30
  0.0
  0
SEQEND
  0
POLYLINE
  8
0
  6
CONTINUOUS
  66
  1
  70
  1
  10
  0.0
  20
  0.0
  30
  0.0
  0
VERTEX
  8
0
  10
10.593750
  20
21.906250
  30
  0.0
  0
VERTEX
  8
0
  10
10.593750
  20
21.906250
  30
  0.0
  0
VERTEX
  8
0
  10
10.541016
  20
21.582031
  30
  0.0
  0
VERTEX
  8
0
  10
10.476562
  20
21.187500
  30
  0.0
  0
VERTEX
  8
0
  10
10.400391
  20
20.722656
  30
  0.0
  0
VERTEX
  8
0
  10
10.312500
  20
20.187500
  30
  0.0
  0
VERTEX
  8
0
  10
10.312500
  20
20.187500
  30
  0.0
  0
VERTEX
  8
0
  10
10.312500
  20
20.187500
  30
  0.0
  0
VERTEX
  8
0
  10
10.256836
  20
19.819336
  30
  0.0
  0
VERTEX
  8
0
  10
10.183594
  20
19.402344
  30
  0.0
  0
VERTEX
  8
0
  10
10.092773
  20
18.936523
  30
  0.0
  0
VERTEX
  8
0
  10
9.984375
  20
18.421875
  30
  0.0
  0
VERTEX
  8
0
  10
9.984375
  20
18.421875
  30
  0.0
  0
VERTEX
  8
0
  10
9.906250
  20
18.540039
  30
  0.0
  0
VERTEX
  8
0
  10
9.828125
  20
18.660156
  30
  0.0
  0
VERTEX
  8
0
  10
9.750000
  20
18.782227
  30
  0.0
  0
VERTEX
  8
0
  10
9.671875
  20
18.906250
  30
  0.0
  0
VERTEX
  8
0
  10
9.671875
  20
18.906250
  30
  0.0
  0
VERTEX
  8
0
  10
9.573242
  20
19.022461
  30
  0.0
  0
VERTEX
  8
0
  10
9.480469
  20
19.105469
  30
  0.0
  0
VERTEX
  8
0
  10
9.393555
  20
19.155273
  30
  0.0
  0
VERTEX
  8
0
  10
9.312500
  20
19.171875
  30
  0.0
  0
VERTEX
  8
0
  10
9.312500
  20
19.171875
  30
  0.0
  0
VERTEX
  8
0
  10
9.141602
  20
19.113281
  30
  0.0
  0
VERTEX
  8
0
  10
8.972656
  20
18.937500
  30
  0.0
  0
VERTEX
  8
0
  10
8.805664
  20
18.644531
  30
  0.0
  0
VERTEX
  8
0
  10
8.640625
  20
18.234375
  30
  0.0
  0
VERTEX
  8
0
  10
8.640625
  20
18.234375
  30
  0.0
  0
VERTEX
  8
0
  10
8.546875
  20
17.950195
  30
  0.0
  0
VERTEX
  8
0
  10
8.437500
  20
17.566406
  30
  0.0
  0
VERTEX
  8
0
  10
8.312500
  20
17.083008
  30
  0.0
  0
VERTEX
  8
0
  10
8.171875
  20
16.500000
  30
  0.0
  0
VERTEX
  8
0
  10
8.171875
  20
16.500000
  30
  0.0
  0
VERTEX
  8
0
  10
8.149414
  20
16.083008
  30
  0.0
  0
VERTEX
  8
0
  10
8.113281
  20
15.785156
  30
  0.0
  0
VERTEX
  8
0
  10
8.063477
  20
15.606445
  30
  0.0
  0
VERTEX
  8
0
  10
8.000000
  20
15.546875
  30
  0.0
  0
VERTEX
  8
0
  10
8.000000
  20
15.546875
  30
  0.0
  0
VERTEX
  8
0
  10
7.983398
  20
15.550293
  30
  0.0
  0
VERTEX
  8
0
  10
7.964844
  20
15.560547
  30
  0.0
  0
VERTEX
  8
0
  10
7.944336
  20
15.577637
  30
  0.0
  0
VERTEX
  8
0
  10
7.921875
  20
15.601562
  30
  0.0
  0
VERTEX
  8
0
  10
7.921875
  20
15.601562
  30
  0.0
  0
VERTEX
  8
0
  10
7.900391
  20
15.625488
  30
  0.0
  0
VERTEX
  8
0
  10
7.882812
  20
15.642578
  30
  0.0
  0
VERTEX
  8
0
  10
7.869141
  20
15.652832
  30
  0.0
  0
VERTEX
  8
0
  10
7.859375
  20
15.656250
  30
  0.0
  0
VERTEX
  8
0
  10
7.859375
  20
15.656250
  30
  0.0
  0
VERTEX
  8
0
  10
7.816406
  20
15.635742
  30
  0.0
  0
VERTEX
  8
0
  10
7.781250
  20
15.574219
  30
  0.0
  0
VERTEX
  8
0
  10
7.753906
  20
15.471680
  30
  0.0
  0
VERTEX
  8
0
  10
7.734375
  20
15.328125
  30
  0.0
  0
VERTEX
  8
0
  10
7.734375
  20
15.328125
  30
  0.0
  0
VERTEX
  8
0
  10
7.768555
  20
15.041016
  30
  0.0
  0
VERTEX
  8
0
  10
7.792969
  20
14.835938
  30
  0.0
  0
VERTEX
  8
0
  10
7.807617
  20
14.712891
  30
  0.0
  0
VERTEX
  8
0
  10
7.812500
  20
14.671875
  30
  0.0
  0
VERTEX
  8
0
  10
7.812500
  20
14.671875
  30
  0.0
  0
VERTEX
  8
0
  10
7.791992
  20
14.446289
  30
  0.0
  0
VERTEX
  8
0
  10
7.730469
  20
14.285156
  30
  0.0
  0
VERTEX
  8
0
  10
7.627930
  20
14.188477
  30
  0.0
  0
VERTEX
  8
0
  10
7.484375
  20
14.156250
  30
  0.0
  0
VERTEX
  8
0
  10
7.484375
  20
14.156250
  30
  0.0
  0
VERTEX
  8
0
  10
7.434570
  20
14.083008
  30
  0.0
  0
VERTEX
  8
0
  10
7.300781
  20
13.863281
  30
  0.0
  0
VERTEX
  8
0
  10
7.083008
  20
13.497070
  30
  0.0
  0
VERTEX
  8
0
  10
6.781250
  20
12.984375
  30
  0.0
  0
VERTEX
  8
0
  10
6.781250
  20
12.984375
  30
  0.0
  0
VERTEX
  8
0
  10
6.442383
  20
12.418945
  30
  0.0
  0
VERTEX
  8
0
  10
6.191406
  20
12.003906
  30
  0.0
  0
VERTEX
  8
0
  10
6.028320
  20
11.739258
  30
  0.0
  0
VERTEX
  8
0
  10
5.953125
  20
11.625000
  30
  0.0
  0
VERTEX
  8
0
  10
5.953125
  20
11.625000
  30
  0.0
  0
VERTEX
  8
0
  10
5.922852
  20
11.559082
  30
  0.0
  0
VERTEX
  8
0
  10
5.894531
  20
11.439453
  30
  0.0
  0
VERTEX
  8
0
  10
5.868164
  20
11.266113
  30
  0.0
  0
VERTEX
  8
0
  10
5.843750
  20
11.039062
  30
  0.0
  0
VERTEX
  8
0
  10
5.843750
  20
11.039062
  30
  0.0
  0
VERTEX
  8
0
  10
5.814453
  20
10.816895
  30
  0.0
  0
VERTEX
  8
0
  10
5.773438
  20
10.658203
  30
  0.0
  0
VERTEX
  8
0
  10
5.720703
  20
10.562988
  30
  0.0
  0
VERTEX
  8
0
  10
5.656250
  20
10.531250
  30
  0.0
  0
VERTEX
  8
0
  10
5.656250
  20
10.531250
  30
  0.0
  0
VERTEX
  8
0
  10
5.630371
  20
10.543457
  30
  0.0
  0
VERTEX
  8
0
  10
5.599609
  20
10.580078
  30
  0.0
  0
VERTEX
  8
0
  10
5.563965
  20
10.641113
  30
  0.0
  0
VERTEX
  8
0
  10
5.523438
  20
10.726562
  30
  0.0
  0
VERTEX
  8
0
  10
5.523438
  20
10.726562
  30
  0.0
  0
VERTEX
  8
0
  10
5.482910
  20
10.812012
  30
  0.0
  0
VERTEX
  8
0
  10
5.447266
  20
10.873047
  30
  0.0
  0
VERTEX
  8
0
  10
5.416504
  20
10.909668
  30
  0.0
  0
VERTEX
  8
0
  10
5.390625
  20
10.921875
  30
  0.0
  0
VERTEX
  8
0
  10
5.390625
  20
10.921875
  30
  0.0
  0
VERTEX
  8
0
  10
5.354004
  20
10.901367
  30
  0.0
  0
VERTEX
  8
0
  10
5.322266
  20
10.839844
  30
  0.0
  0
VERTEX
  8
0
  10
5.295410
  20
10.737305
  30
  0.0
  0
VERTEX
  8
0
  10
5.273438
  20
10.593750
  30
  0.0
  0
VERTEX
  8
0
  10
5.273438
  20
10.593750
  30
  0.0
  0
VERTEX
  8
0
  10
5.252441
  20
10.450195
  30
  0.0
  0
VERTEX
  8
0
  10
5.228516
  20
10.347656
  30
  0.0
  0
VERTEX
  8
0
  10
5.201660
  20
10.286133
  30
  0.0
  0
VERTEX
  8
0
  10
5.171875
  20
10.265625
  30
  0.0
  0
VERTEX
  8
0
  10
5.171875
  20
10.265625
  30
  0.0
  0
VERTEX
  8
0
  10
5.138184
  20
10.281250
  30
  0.0
  0
VERTEX
  8
0
  10
5.099609
  20
10.328125
  30
  0.0
  0
VERTEX
  8
0
  10
5.056152
  20
10.406250
  30
  0.0
  0
VERTEX
  8
0
  10
5.007812
  20
10.515625
  30
  0.0
  0
VERTEX
  8
0
  10
5.007812
  20
10.515625
  30
  0.0
  0
VERTEX
  8
0
  10
4.958496
  20
10.625000
  30
  0.0
  0
VERTEX
  8
0
  10
4.912109
  20
10.703125
  30
  0.0
  0
VERTEX
  8
0
  10
4.868652
  20
10.750000
  30
  0.0
  0
VERTEX
  8
0
  10
4.828125
  20
10.765625
  30
  0.0
  0
VERTEX
  8
0
  10
4.828125
  20
10.765625
  30
  0.0
  0
VERTEX
  8
0
  10
4.773438
  20
10.718750
  30
  0.0
  0
VERTEX
  8
0
  10
4.718750
  20
10.578125
  30
  0.0
  0
VERTEX
  8
0
  10
4.664062
  20
10.343750
  30
  0.0
  0
VERTEX
  8
0
  10
4.609375
  20
10.015625
  30
  0.0
  0
VERTEX
  8
0
  10
4.609375
  20
10.015625
  30
  0.0
  0
VERTEX
  8
0
  10
4.552734
  20
9.687500
  30
  0.0
  0
VERTEX
  8
0
  10
4.492188
  20
9.453125
  30
  0.0
  0
VERTEX
  8
0
  10
4.427734
  20
9.312500
  30
  0.0
  0
VERTEX
  8
0
  10
4.359375
  20
9.265625
  30
  0.0
  0
VERTEX
  8
0
  10
4.359375
  20
9.265625
  30
  0.0
  0
VERTEX
  8
0
  10
4.320312
  20
9.286133
  30
  0.0
  0
VERTEX
  8
0
  10
4.281250
  20
9.347656
  30
  0.0
  0
VERTEX
  8
0
  10
4.242188
  20
9.450195
  30
  0.0
  0
VERTEX
  8
0
  10
4.203125
  20
9.593750
  30
  0.0
  0
VERTEX
  8
0
  10
4.203125
  20
9.593750
  30
  0.0
  0
VERTEX
  8
0
  10
4.240234
  20
9.743164
  30
  0.0
  0
VERTEX
  8
0
  10
4.273438
  20
9.878906
  30
  0.0
  0
VERTEX
  8
0
  10
4.302734
  20
10.000977
  30
  0.0
  0
VERTEX
  8
0
  10
4.328125
  20
10.109375
  30
  0.0
  0
VERTEX
  8
0
  10
4.328125
  20
10.296875
  30
  0.0
  0
VERTEX
  8
0
  10
4.328125
  20
10.296875
  30
  0.0
  0
VERTEX
  8
0
  10
4.321289
  20
10.583984
  30
  0.0
  0
VERTEX
  8
0
  10
4.285156
  20
10.789062
  30
  0.0
  0
VERTEX
  8
0
  10
4.219727
  20
10.912109
  30
  0.0
  0
VERTEX
  8
0
  10
4.125000
  20
10.953125
  30
  0.0
  0
VERTEX
  8
0
  10
4.125000
  20
10.953125
  30
  0.0
  0
VERTEX
  8
0
  10
4.106934
  20
10.950195
  30
  0.0
  0
VERTEX
  8
0
  10
4.083984
  20
10.941406
  30
  0.0
  0
VERTEX
  8
0
  10
4.056152
  20
10.926758
  30
  0.0
  0
VERTEX
  8
0
  10
4.023438
  20
10.906250
  30
  0.0
  0
VERTEX
  8
0
  10
4.023438
  20
10.906250
  30
  0.0
  0
VERTEX
  8
0
  10
3.990723
  20
10.885742
  30
  0.0
  0
VERTEX
  8
0
  10
3.962891
  20
10.871094
  30
  0.0
  0
VERTEX
  8
0
  10
3.939941
  20
10.862305
  30
  0.0
  0
VERTEX
  8
0
  10
3.921875
  20
10.859375
  30
  0.0
  0
VERTEX
  8
0
  10
3.921875
  20
10.859375
  30
  0.0
  0
VERTEX
  8
0
  10
3.821289
  20
10.889648
  30
  0.0
  0
VERTEX
  8
0
  10
3.738281
  20
10.980469
  30
  0.0
  0
VERTEX
  8
0
  10
3.672852
  20
11.131836
  30
  0.0
  0
VERTEX
  8
0
  10
3.625000
  20
11.343750
  30
  0.0
  0
VERTEX
  8
0
  10
3.625000
  20
11.343750
  30
  0.0
  0
VERTEX
  8
0
  10
3.611328
  20
11.497070
  30
  0.0
  0
VERTEX
  8
0
  10
3.601562
  20
11.722656
  30
  0.0
  0
VERTEX
  8
0
  10
3.595703
  20
12.020508
  30
  0.0
  0
VERTEX
  8
0
  10
3.593750
  20
12.390625
  30
  0.0
  0
VERTEX
  8
0
  10
3.593750
  20
12.390625
  30
  0.0
  0
VERTEX
  8
0
  10
3.588867
  20
12.723633
  30
  0.0
  0
VERTEX
  8
0
  10
3.574219
  20
13.003906
  30
  0.0
  0
VERTEX
  8
0
  10
3.549805
  20
13.231445
  30
  0.0
  0
VERTEX
  8
0
  10
3.515625
  20
13.406250
  30
  0.0
  0
VERTEX
  8
0
  10
3.515625
  20
13.406250
  30
  0.0
  0
VERTEX
  8
0
  10
3.465820
  20
13.520508
  30
  0.0
  0
VERTEX
  8
0
  10
3.394531
  20
13.644531
  30
  0.0
  0
VERTEX
  8
0
  10
3.301758
  20
13.778320
  30
  0.0
  0
VERTEX
  8
0
  10
3.187500
  20
13.921875
  30
  0.0
  0
VERTEX
  8
0
  10
3.187500
  20
13.921875
  30
  0.0
  0
VERTEX
  8
0
  10
3.166992
  20
14.092773
  30
  0.0
  0
VERTEX
  8
0
  10
3.152344
  20
14.214844
  30
  0.0
  0
VERTEX
  8
0
  10
3.143555
  20
14.288086
  30
  0.0
  0
VERTEX
  8
0
  10
3.140625
  20
14.312500
  30
  0.0
  0
VERTEX
  8
0
  10
3.140625
  20
14.312500
  30
  0.0
  0
VERTEX
  8
0
  10
3.150391
  20
14.409180
  30
  0.0
  0
VERTEX
  8
0
  10
3.179688
  20
14.496094
  30
  0.0
  0
VERTEX
  8
0
  10
3.228516
  20
14.573242
  30
  0.0
  0
VERTEX
  8
0
  10
3.296875
  20
14.640625
  30
  0.0
  0
VERTEX
  8
0
  10
3.296875
  20
14.640625
  30
  0.0
  0
VERTEX
  8
0
  10
3.449219
  20
14.406250
  30
  0.0
  0
VERTEX
  8
0
  10
3.609375
  20
14.062500
  30
  0.0
  0
VERTEX
  8
0
  10
3.777344
  20
13.609375
  30
  0.0
  0
VERTEX
  8
0
  10
3.953125
  20
13.046875
  30
  0.0
  0
VERTEX
  8
0
  10
3.953125
  20
13.046875
  30
  0.0
  0
VERTEX
  8
0
  10
4.096680
  20
12.588867
  30
  0.0
  0
VERTEX
  8
0
  10
4.230469
  20
12.261719
  30
  0.0
  0
VERTEX
  8
0
  10
4.354492
  20
12.065430
  30
  0.0
  0
VERTEX
  8
0
  10
4.468750
  20
12.000000
  30
  0.0
  0
VERTEX
  8
0
  10
4.468750
  20
12.000000
  30
  0.0
  0
VERTEX
  8
0
  10
4.503906
  20
12.003906
  30
  0.0
  0
VERTEX
  8
0
  10
4.546875
  20
12.015625
  30
  0.0
  0
VERTEX
  8
0
  10
4.597656
  20
12.035156
  30
  0.0
  0
VERTEX
  8
0
  10
4.656250
  20
12.062500
  30
  0.0
  0
VERTEX
  8
0
  10
4.656250
  20
12.062500
  30
  0.0
  0
VERTEX
  8
0
  10
4.714844
  20
12.089844
  30
  0.0
  0
VERTEX
  8
0
  10
4.765625
  20
12.109375
  30
  0.0
  0
VERTEX
  8
0
  10
4.808594
  20
12.121094
  30
  0.0
  0
VERTEX
  8
0
  10
4.843750
  20
12.125000
  30
  0.0
  0
VERTEX
  8
0
  10
4.843750
  20
12.125000
  30
  0.0
  0
VERTEX
  8
0
  10
4.892578
  20
12.121094
  30
  0.0
  0
VERTEX
  8
0
  10
4.945312
  20
12.109375
  30
  0.0
  0
VERTEX
  8
0
  10
5.001953
  20
12.089844
  30
  0.0
  0
VERTEX
  8
0
  10
5.062500
  20
12.062500
  30
  0.0
  0
VERTEX
  8
0
  10
5.062500
  20
12.062500
  30
  0.0
  0
VERTEX
  8
0
  10
5.140625
  20
12.021484
  30
  0.0
  0
VERTEX
  8
0
  10
5.203125
  20
11.992188
  30
  0.0
  0
VERTEX
  8
0
  10
5.250000
  20
11.974609
  30
  0.0
  0
VERTEX
  8
0
  10
5.281250
  20
11.968750
  30
  0.0
  0
VERTEX
  8
0
  10
5.281250
  20
11.968750
  30
  0.0
  0
VERTEX
  8
0
  10
5.341797
  20
12.141602
  30
  0.0
  0
VERTEX
  8
0
  10
5.476562
  20
12.394531
  30
  0.0
  0
VERTEX
  8
0
  10
5.685547
  20
12.727539
  30
  0.0
  0
VERTEX
  8
0
  10
5.968750
  20
13.140625
  30
  0.0
  0
VERTEX
  8
0
  10
5.968750
  20
13.140625
  30
  0.0
  0
VERTEX
  8
0
  10
6.286133
  20
13.635742
  30
  0.0
  0
VERTEX
  8
0
  10
6.550781
  20
14.136719
  30
  0.0
  0
VERTEX
  8
0
  10
6.762695
  20
14.643555
  30
  0.0
  0
VERTEX
  8
0
  10
6.921875
  20
15.156250
  30
  0.0
  0
VERTEX
  8
0
  10
6.921875
  20
15.156250
  30
  0.0
  0
VERTEX
  8
0
  10
6.931641
  20
15.237305
  30
  0.0
  0
VERTEX
  8
0
  10
6.945312
  20
15.402344
  30
  0.0
  0
VERTEX
  8
0
  10
6.962891
  20
15.651367
  30
  0.0
  0
VERTEX
  8
0
  10
6.984375
  20
15.984375
  30
  0.0
  0
VERTEX
  8
0
  10
6.984375
  20
15.984375
  30
  0.0
  0
VERTEX
  8
0
  10
7.010742
  20
16.237305
  30
  0.0
  0
VERTEX
  8
0
  10
7.042969
  20
16.417969
  30
  0.0
  0
VERTEX
  8
0
  10
7.081055
  20
16.526367
  30
  0.0
  0
VERTEX
  8
0
  10
7.125000
  20
16.562500
  30
  0.0
  0
VERTEX
  8
0
  10
7.125000
  20
16.562500
  30
  0.0
  0
VERTEX
  8
0
  10
7.150879
  20
16.554688
  30
  0.0
  0
VERTEX
  8
0
  10
7.181641
  20
16.531250
  30
  0.0
  0
VERTEX
  8
0
  10
7.217285
  20
16.492188
  30
  0.0
  0
VERTEX
  8
0
  10
7.257812
  20
16.437500
  30
  0.0
  0
VERTEX
  8
0
  10
7.257812
  20
16.437500
  30
  0.0
  0
VERTEX
  8
0
  10
7.297363
  20
16.382812
  30
  0.0
  0
VERTEX
  8
0
  10
7.330078
  20
16.343750
  30
  0.0
  0
VERTEX
  8
0
  10
7.355957
  20
16.320312
  30
  0.0
  0
VERTEX
  8
0
  10
7.375000
  20
16.312500
  30
  0.0
  0
VERTEX
  8
0
  10
7.375000
  20
16.312500
  30
  0.0
  0
VERTEX
  8
0
  10
7.416992
  20
16.330078
  30
  0.0
  0
VERTEX
  8
0
  10
7.449219
  20
16.382812
  30
  0.0
  0
VERTEX
  8
0
  10
7.471680
  20
16.470703
  30
  0.0
  0
VERTEX
  8
0
  10
7.484375
  20
16.593750
  30
  0.0
  0
VERTEX
  8
0
  10
7.484375
  20
16.593750
  30
  0.0
  0
VERTEX
  8
0
  10
7.477539
  20
16.453125
  30
  0.0
  0
VERTEX
  8
0
  10
7.472656
  20
16.484375
  30
  0.0
  0
VERTEX
  8
0
  10
7.469727
  20
16.687500
  30
  0.0
  0
VERTEX
  8
0
  10
7.468750
  20
17.062500
  30
  0.0
  0
VERTEX
  8
0
  10
7.468750
  20
17.062500
  30
  0.0
  0
VERTEX
  8
0
  10
7.475586
  20
17.295898
  30
  0.0
  0
VERTEX
  8
0
  10
7.496094
  20
17.480469
  30
  0.0
  0
VERTEX
  8
0
  10
7.530273
  20
17.616211
  30
  0.0
  0
VERTEX
  8
0
  10
7.578125
  20
17.703125
  30
  0.0
  0
VERTEX
  8
0
  10
7.578125
  20
17.703125
  30
  0.0
  0
VERTEX
  8
0
  10
7.648438
  20
17.801758
  30
  0.0
  0
VERTEX
  8
0
  10
7.703125
  20
17.894531
  30
  0.0
  0
VERTEX
  8
0
  10
7.742188
  20
17.981445
  30
  0.0
  0
VERTEX
  8
0
  10
7.765625
  20
18.062500
  30
  0.0
  0
VERTEX
  8
0
  10
7.765625
  20
18.062500
  30
  0.0
  0
VERTEX
  8
0
  10
7.818359
  20
18.316406
  30
  0.0
  0
VERTEX
  8
0
  10
7.882812
  20
18.625000
  30
  0.0
  0
VERTEX
  8
0
  10
7.958984
  20
18.988281
  30
  0.0
  0
VERTEX
  8
0
  10
8.046875
  20
19.406250
  30
  0.0
  0
VERTEX
  8
0
  10
8.046875
  20
19.406250
  30
  0.0
  0
VERTEX
  8
0
  10
8.176758
  20
19.795898
  30
  0.0
  0
VERTEX
  8
0
  10
8.332031
  20
20.277344
  30
  0.0
  0
VERTEX
  8
0
  10
8.512695
  20
20.850586
  30
  0.0
  0
VERTEX
  8
0
  10
8.718750
  20
21.515625
  30
  0.0
  0
VERTEX
  8
0
  10
8.718750
  20
21.515625
  30
  0.0
  0
VERTEX
  8
0
  10
8.737305
  20
21.606445
  30
  0.0
  0
VERTEX
  8
0
  10
8.777344
  20
21.832031
  30
  0.0
  0
VERTEX
  8
0
  10
8.838867
  20
22.192383
  30
  0.0
  0
VERTEX
  8
0
  10
8.921875
  20
22.687500
  30
  0.0
  0
VERTEX
  8
0
  10
8.921875
  20
22.687500
  30
  0.0
  0
VERTEX
  8
0
  10
8.990234
  20
23.063477
  30
  0.0
  0
VERTEX
  8
0
  10
9.054688
  20
23.332031
  30
  0.0
  0
VERTEX
  8
0
  10
9.115234
  20
23.493164
  30
  0.0
  0
VERTEX
  8
0
  10
9.171875
  20
23.546875
  30
  0.0
  0
VERTEX
  8
0
  10
9.171875
  20
23.546875
  30
  0.0
  0
VERTEX
  8
0
  10
9.243164
  20
23.455078
  30
  0.0
  0
VERTEX
  8
0
  10
9.441406
  20
23.179688
  30
  0.0
  0
VERTEX
  8
0
  10
9.766602
  20
22.720703
  30
  0.0
  0
VERTEX
  8
0
  10
10.218750
  20
22.078125
  30
  0.0
  0
VERTEX
  8
0
  10
10.218750
  20
22.078125
  30
  0.0
  0
VERTEX
  8
0
  10
10.282227
  20
22.119141
  30
  0.0
  0
VERTEX
  8
0
  10
10.332031
  20
22.148438
  30
  0.0
  0
VERTEX
  8
0
  10
10.368164
  20
22.166016
  30
  0.0
  0
VERTEX
  8
0
  10
10.390625
  20
22.171875
  30
  0.0
  0
VERTEX
  8
0
  10
10.390625
  20
22.171875
  30
  0.0
  0
VERTEX
  8
0
  10
10.420898
  20
22.155273
  30
  0.0
  0
VERTEX
  8
0
  10
10.464844
  20
22.105469
  30
  0.0
  0
VERTEX
  8
0
  10
10.522461
  20
22.022461
  30
  0.0
  0
VERTEX
  8
0
  10
10.593750
  20
21.906250
  30
  0.0
  0
SEQEND
  0
POLYLINE
  8
0
  6
CONTINUOUS
  66
  1
  70
  1
  10
  0.0
  20
  0.0
  30
  0.0
  0
VERTEX
  8
0
  10
7.906250
  20
21.937500
  30
  0.0
  0
VERTEX
  8
0
  10
7.906250
  20
21.937500
  30
  0.0
  0
VERTEX
  8
0
  10
7.884766
  20
21.758301
  30
  0.0
  0
VERTEX
  8
0
  10
7.820312
  20
21.501953
  30
  0.0
  0
VERTEX
  8
0
  10
7.712891
  20
21.168457
  30
  0.0
  0
VERTEX
  8
0
  10
7.562500
  20
20.757812
  30
  0.0
  0
VERTEX
  8
0
  10
7.562500
  20
20.757812
  30
  0.0
  0
VERTEX
  8
0
  10
7.411133
  20
20.350098
  30
  0.0
  0
VERTEX
  8
0
  10
7.300781
  20
20.025391
  30
  0.0
  0
VERTEX
  8
0
  10
7.231445
  20
19.783691
  30
  0.0
  0
VERTEX
  8
0
  10
7.203125
  20
19.625000
  30
  0.0
  0
VERTEX
  8
0
  10
7.203125
  20
19.625000
  30
  0.0
  0
VERTEX
  8
0
  10
7.205078
  20
19.318359
  30
  0.0
  0
VERTEX
  8
0
  10
7.195312
  20
18.945312
  30
  0.0
  0
VERTEX
  8
0
  10
7.173828
  20
18.505859
  30
  0.0
  0
VERTEX
  8
0
  10
7.140625
  20
18.000000
  30
  0.0
  0
VERTEX
  8
0
  10
7.140625
  20
18.000000
  30
  0.0
  0
VERTEX
  8
0
  10
7.014648
  20
17.263184
  30
  0.0
  0
VERTEX
  8
0
  10
6.824219
  20
16.552734
  30
  0.0
  0
VERTEX
  8
0
  10
6.569336
  20
15.868652
  30
  0.0
  0
VERTEX
  8
0
  10
6.250000
  20
15.210938
  30
  0.0
  0
VERTEX
  8
0
  10
6.250000
  20
15.210938
  30
  0.0
  0
VERTEX
  8
0
  10
5.907227
  20
14.646973
  30
  0.0
  0
VERTEX
  8
0
  10
5.582031
  20
14.244141
  30
  0.0
  0
VERTEX
  8
0
  10
5.274414
  20
14.002441
  30
  0.0
  0
VERTEX
  8
0
  10
4.984375
  20
13.921875
  30
  0.0
  0
VERTEX
  8
0
  10
4.984375
  20
13.921875
  30
  0.0
  0
VERTEX
  8
0
  10
4.717773
  20
13.955078
  30
  0.0
  0
VERTEX
  8
0
  10
4.527344
  20
14.054688
  30
  0.0
  0
VERTEX
  8
0
  10
4.413086
  20
14.220703
  30
  0.0
  0
VERTEX
  8
0
  10
4.375000
  20
14.453125
  30
  0.0
  0
VERTEX
  8
0
  10
4.375000
  20
14.453125
  30
  0.0
  0
VERTEX
  8
0
  10
4.404297
  20
14.651367
  30
  0.0
  0
VERTEX
  8
0
  10
4.492188
  20
14.792969
  30
  0.0
  0
VERTEX
  8
0
  10
4.638672
  20
14.877930
  30
  0.0
  0
VERTEX
  8
0
  10
4.843750
  20
14.906250
  30
  0.0
  0
VERTEX
  8
0
  10
4.843750
  20
14.906250
  30
  0.0
  0
VERTEX
  8
0
  10
5.073242
  20
14.977539
  30
  0.0
  0
VERTEX
  8
0
  10
5.324219
  20
15.191406
  30
  0.0
  0
VERTEX
  8
0
  10
5.596680
  20
15.547852
  30
  0.0
  0
VERTEX
  8
0
  10
5.890625
  20
16.046875
  30
  0.0
  0
VERTEX
  8
0
  10
5.890625
  20
16.046875
  30
  0.0
  0
VERTEX
  8
0
  10
6.184570
  20
16.669922
  30
  0.0
  0
VERTEX
  8
0
  10
6.394531
  20
17.273438
  30
  0.0
  0
VERTEX
  8
0
  10
6.520508
  20
17.857422
  30
  0.0
  0
VERTEX
  8
0
  10
6.562500
  20
18.421875
  30
  0.0
  0
VERTEX
  8
0
  10
6.562500
  20
18.421875
  30
  0.0
  0
VERTEX
  8
0
  10
6.551758
  20
18.771484
  30
  0.0
  0
VERTEX
  8
0
  10
6.519531
  20
19.132812
  30
  0.0
  0
VERTEX
  8
0
  10
6.465820
  20
19.505859
  30
  0.0
  0
VERTEX
  8
0
  10
6.390625
  20
19.890625
  30
  0.0
  0
VERTEX
  8
0
  10
6.718750
  20
20.703125
  30
  0.0
  0
VERTEX
  8
0
  10
6.390625
  20
19.890625
  30
  0.0
  0
VERTEX
  8
0
  10
6.390625
  20
19.890625
  30
  0.0
  0
VERTEX
  8
0
  10
6.254883
  20
20.464844
  30
  0.0
  0
VERTEX
  8
0
  10
6.097656
  20
20.875000
  30
  0.0
  0
VERTEX
  8
0
  10
5.918945
  20
21.121094
  30
  0.0
  0
VERTEX
  8
0
  10
5.718750
  20
21.203125
  30
  0.0
  0
VERTEX
  8
0
  10
5.718750
  20
21.203125
  30
  0.0
  0
VERTEX
  8
0
  10
5.540527
  20
21.155762
  30
  0.0
  0
VERTEX
  8
0
  10
5.349609
  20
21.013672
  30
  0.0
  0
VERTEX
  8
0
  10
5.145996
  20
20.776855
  30
  0.0
  0
VERTEX
  8
0
  10
4.929688
  20
20.445312
  30
  0.0
  0
VERTEX
  8
0
  10
4.929688
  20
20.445312
  30
  0.0
  0
VERTEX
  8
0
  10
4.720215
  20
20.061035
  30
  0.0
  0
VERTEX
  8
0
  10
4.537109
  20
19.666016
  30
  0.0
  0
VERTEX
  8
0
  10
4.380371
  20
19.260254
  30
  0.0
  0
VERTEX
  8
0
  10
4.250000
  20
18.843750
  30
  0.0
  0
VERTEX
  8
0
  10
4.250000
  20
18.843750
  30
  0.0
  0
VERTEX
  8
0
  10
4.195312
  20
18.587891
  30
  0.0
  0
VERTEX
  8
0
  10
4.140625
  20
18.335938
  30
  0.0
  0
VERTEX
  8
0
  10
4.085938
  20
18.087891
  30
  0.0
  0
VERTEX
  8
0
  10
4.031250
  20
17.843750
  30
  0.0
  0
VERTEX
  8
0
  10
4.031250
  20
17.843750
  30
  0.0
  0
VERTEX
  8
0
  10
3.958008
  20
17.515625
  30
  0.0
  0
VERTEX
  8
0
  10
3.894531
  20
17.281250
  30
  0.0
  0
VERTEX
  8
0
  10
3.840820
  20
17.140625
  30
  0.0
  0
VERTEX
  8
0
  10
3.796875
  20
17.093750
  30
  0.0
  0
VERTEX
  8
0
  10
3.796875
  20
17.093750
  30
  0.0
  0
VERTEX
  8
0
  10
3.735352
  20
17.127930
  30
  0.0
  0
VERTEX
  8
0
  10
3.691406
  20
17.230469
  30
  0.0
  0
VERTEX
  8
0
  10
3.665039
  20
17.401367
  30
  0.0
  0
VERTEX
  8
0
  10
3.656250
  20
17.640625
  30
  0.0
  0
VERTEX
  8
0
  10
3.656250
  20
17.640625
  30
  0.0
  0
VERTEX
  8
0
  10
3.708008
  20
18.515625
  30
  0.0
  0
VERTEX
  8
0
  10
3.863281
  20
19.406250
  30
  0.0
  0
VERTEX
  8
0
  10
4.122070
  20
20.312500
  30
  0.0
  0
VERTEX
  8
0
  10
4.484375
  20
21.234375
  30
  0.0
  0
VERTEX
  8
0
  10
4.484375
  20
21.234375
  30
  0.0
  0
VERTEX
  8
0
  10
4.873047
  20
22.000000
  30
  0.0
  0
VERTEX
  8
0
  10
5.242188
  20
22.546875
  30
  0.0
  0
VERTEX
  8
0
  10
5.591797
  20
22.875000
  30
  0.0
  0
VERTEX
  8
0
  10
5.921875
  20
22.984375
  30
  0.0
  0
VERTEX
  8
0
  10
5.921875
  20
22.984375
  30
  0.0
  0
VERTEX
  8
0
  10
6.051758
  20
22.958984
  30
  0.0
  0
VERTEX
  8
0
  10
6.175781
  20
22.882812
  30
  0.0
  0
VERTEX
  8
0
  10
6.293945
  20
22.755859
  30
  0.0
  0
VERTEX
  8
0
  10
6.406250
  20
22.578125
  30
  0.0
  0
VERTEX
  8
0
  10
6.406250
  20
22.578125
  30
  0.0
  0
VERTEX
  8
0
  10
6.507812
  20
22.400391
  30
  0.0
  0
VERTEX
  8
0
  10
6.593750
  20
22.273438
  30
  0.0
  0
VERTEX
  8
0
  10
6.664062
  20
22.197266
  30
  0.0
  0
VERTEX
  8
0
  10
6.718750
  20
22.171875
  30
  0.0
  0
VERTEX
  8
0
  10
6.718750
  20
22.171875
  30
  0.0
  0
VERTEX
  8
0
  10
6.803223
  20
22.197266
  30
  0.0
  0
VERTEX
  8
0
  10
6.900391
  20
22.273438
  30
  0.0
  0
VERTEX
  8
0
  10
7.010254
  20
22.400391
  30
  0.0
  0
VERTEX
  8
0
  10
7.132812
  20
22.578125
  30
  0.0
  0
VERTEX
  8
0
  10
7.132812
  20
22.578125
  30
  0.0
  0
VERTEX
  8
0
  10
7.255371
  20
22.755859
  30
  0.0
  0
VERTEX
  8
0
  10
7.365234
  20
22.882812
  30
  0.0
  0
VERTEX
  8
0
  10
7.462402
  20
22.958984
  30
  0.0
  0
VERTEX
  8
0
  10
7.546875
  20
22.984375
  30
  0.0
  0
VERTEX
  8
0
  10
7.546875
  20
22.984375
  30
  0.0
  0
VERTEX
  8
0
  10
7.608887
  20
22.963379
  30
  0.0
  0
VERTEX
  8
0
  10
7.669922
  20
22.900391
  30
  0.0
  0
VERTEX
  8
0
  10
7.729980
  20
22.795410
  30
  0.0
  0
VERTEX
  8
0
  10
7.789062
  20
22.648438
  30
  0.0
  0
VERTEX
  8
0
  10
7.789062
  20
22.648438
  30
  0.0
  0
VERTEX
  8
0
  10
7.840332
  20
22.478027
  30
  0.0
  0
VERTEX
  8
0
  10
7.876953
  20
22.302734
  30
  0.0
  0
VERTEX
  8
0
  10
7.898926
  20
22.122559
  30
  0.0
  0
VERTEX
  8
0
  10
7.906250
  20
21.937500
  30
  0.0
  0
SEQEND
  0
POLYLINE
  8
0
  6
CONTINUOUS
  66
  1
  70
  1
  10
  0.0
  20
  0.0
  30
  0.0
  0
VERTEX
  8
0
  10
13.531250
  20
20.406250
  30
  0.0
  0
VERTEX
  8
0
  10
13.531250
  20
20.406250
  30
  0.0
  0
VERTEX
  8
0
  10
13.382812
  20
19.955078
  30
  0.0
  0
VERTEX
  8
0
  10
13.234375
  20
19.507812
  30
  0.0
  0
VERTEX
  8
0
  10
13.085938
  20
19.064453
  30
  0.0
  0
VERTEX
  8
0
  10
12.937500
  20
18.625000
  30
  0.0
  0
VERTEX
  8
0
  10
12.937500
  20
18.625000
  30
  0.0
  0
VERTEX
  8
0
  10
12.800781
  20
18.099609
  30
  0.0
  0
VERTEX
  8
0
  10
12.687500
  20
17.570312
  30
  0.0
  0
VERTEX
  8
0
  10
12.597656
  20
17.037109
  30
  0.0
  0
VERTEX
  8
0
  10
12.531250
  20
16.500000
  30
  0.0
  0
VERTEX
  8
0
  10
12.531250
  20
16.500000
  30
  0.0
  0
VERTEX
  8
0
  10
12.500000
  20
16.158203
  30
  0.0
  0
VERTEX
  8
0
  10
12.468750
  20
15.820312
  30
  0.0
  0
VERTEX
  8
0
  10
12.437500
  20
15.486328
  30
  0.0
  0
VERTEX
  8
0
  10
12.406250
  20
15.156250
  30
  0.0
  0
VERTEX
  8
0
  10
12.406250
  20
15.156250
  30
  0.0
  0
VERTEX
  8
0
  10
12.349609
  20
14.718750
  30
  0.0
  0
VERTEX
  8
0
  10
12.289062
  20
14.406250
  30
  0.0
  0
VERTEX
  8
0
  10
12.224609
  20
14.218750
  30
  0.0
  0
VERTEX
  8
0
  10
12.156250
  20
14.156250
  30
  0.0
  0
VERTEX
  8
0
  10
12.156250
  20
14.156250
  30
  0.0
  0
VERTEX
  8
0
  10
12.120605
  20
14.167480
  30
  0.0
  0
VERTEX
  8
0
  10
12.091797
  20
14.201172
  30
  0.0
  0
VERTEX
  8
0
  10
12.069824
  20
14.257324
  30
  0.0
  0
VERTEX
  8
0
  10
12.054688
  20
14.335938
  30
  0.0
  0
VERTEX
  8
0
  10
12.054688
  20
14.335938
  30
  0.0
  0
VERTEX
  8
0
  10
12.045410
  20
14.433105
  30
  0.0
  0
VERTEX
  8
0
  10
12.041016
  20
14.544922
  30
  0.0
  0
VERTEX
  8
0
  10
12.041504
  20
14.671387
  30
  0.0
  0
VERTEX
  8
0
  10
12.046875
  20
14.812500
  30
  0.0
  0
VERTEX
  8
0
  10
12.046875
  20
14.812500
  30
  0.0
  0
VERTEX
  8
0
  10
12.046875
  20
14.995117
  30
  0.0
  0
VERTEX
  8
0
  10
12.046875
  20
15.121094
  30
  0.0
  0
VERTEX
  8
0
  10
12.046875
  20
15.190430
  30
  0.0
  0
VERTEX
  8
0
  10
12.046875
  20
15.203125
  30
  0.0
  0
VERTEX
  8
0
  10
12.046875
  20
15.203125
  30
  0.0
  0
VERTEX
  8
0
  10
12.039062
  20
15.401367
  30
  0.0
  0
VERTEX
  8
0
  10
12.015625
  20
15.542969
  30
  0.0
  0
VERTEX
  8
0
  10
11.976562
  20
15.627930
  30
  0.0
  0
VERTEX
  8
0
  10
11.921875
  20
15.656250
  30
  0.0
  0
VERTEX
  8
0
  10
11.921875
  20
15.656250
  30
  0.0
  0
VERTEX
  8
0
  10
11.866699
  20
15.566406
  30
  0.0
  0
VERTEX
  8
0
  10
11.810547
  20
15.296875
  30
  0.0
  0
VERTEX
  8
0
  10
11.753418
  20
14.847656
  30
  0.0
  0
VERTEX
  8
0
  10
11.695312
  20
14.218750
  30
  0.0
  0
VERTEX
  8
0
  10
11.695312
  20
14.218750
  30
  0.0
  0
VERTEX
  8
0
  10
11.635254
  20
13.589844
  30
  0.0
  0
VERTEX
  8
0
  10
11.572266
  20
13.140625
  30
  0.0
  0
VERTEX
  8
0
  10
11.506348
  20
12.871094
  30
  0.0
  0
VERTEX
  8
0
  10
11.437500
  20
12.781250
  30
  0.0
  0
VERTEX
  8
0
  10
11.437500
  20
12.781250
  30
  0.0
  0
VERTEX
  8
0
  10
11.369141
  20
12.803711
  30
  0.0
  0
VERTEX
  8
0
  10
11.320312
  20
12.871094
  30
  0.0
  0
VERTEX
  8
0
  10
11.291016
  20
12.983398
  30
  0.0
  0
VERTEX
  8
0
  10
11.281250
  20
13.140625
  30
  0.0
  0
VERTEX
  8
0
  10
11.281250
  20
13.140625
  30
  0.0
  0
VERTEX
  8
0
  10
11.282715
  20
13.210938
  30
  0.0
  0
VERTEX
  8
0
  10
11.287109
  20
13.296875
  30
  0.0
  0
VERTEX
  8
0
  10
11.294434
  20
13.398438
  30
  0.0
  0
VERTEX
  8
0
  10
11.304688
  20
13.515625
  30
  0.0
  0
VERTEX
  8
0
  10
11.304688
  20
13.515625
  30
  0.0
  0
VERTEX
  8
0
  10
11.314941
  20
13.632812
  30
  0.0
  0
VERTEX
  8
0
  10
11.322266
  20
13.734375
  30
  0.0
  0
VERTEX
  8
0
  10
11.326660
  20
13.820312
  30
  0.0
  0
VERTEX
  8
0
  10
11.328125
  20
13.890625
  30
  0.0
  0
VERTEX
  8
0
  10
11.328125
  20
13.890625
  30
  0.0
  0
VERTEX
  8
0
  10
11.321289
  20
14.020508
  30
  0.0
  0
VERTEX
  8
0
  10
11.300781
  20
14.113281
  30
  0.0
  0
VERTEX
  8
0
  10
11.266602
  20
14.168945
  30
  0.0
  0
VERTEX
  8
0
  10
11.218750
  20
14.187500
  30
  0.0
  0
VERTEX
  8
0
  10
11.218750
  20
14.187500
  30
  0.0
  0
VERTEX
  8
0
  10
11.156250
  20
14.104980
  30
  0.0
  0
VERTEX
  8
0
  10
11.093750
  20
13.857422
  30
  0.0
  0
VERTEX
  8
0
  10
11.031250
  20
13.444824
  30
  0.0
  0
VERTEX
  8
0
  10
10.968750
  20
12.867188
  30
  0.0
  0
VERTEX
  8
0
  10
10.968750
  20
12.867188
  30
  0.0
  0
VERTEX
  8
0
  10
10.903320
  20
12.289551
  30
  0.0
  0
VERTEX
  8
0
  10
10.832031
  20
11.876953
  30
  0.0
  0
VERTEX
  8
0
  10
10.754883
  20
11.629395
  30
  0.0
  0
VERTEX
  8
0
  10
10.671875
  20
11.546875
  30
  0.0
  0
VERTEX
  8
0
  10
10.671875
  20
11.546875
  30
  0.0
  0
VERTEX
  8
0
  10
10.629883
  20
11.567383
  30
  0.0
  0
VERTEX
  8
0
  10
10.597656
  20
11.628906
  30
  0.0
  0
VERTEX
  8
0
  10
10.575195
  20
11.731445
  30
  0.0
  0
VERTEX
  8
0
  10
10.562500
  20
11.875000
  30
  0.0
  0
VERTEX
  8
0
  10
10.562500
  20
11.875000
  30
  0.0
  0
VERTEX
  8
0
  10
10.569336
  20
11.807617
  30
  0.0
  0
VERTEX
  8
0
  10
10.574219
  20
11.871094
  30
  0.0
  0
VERTEX
  8
0
  10
10.577148
  20
12.065430
  30
  0.0
  0
VERTEX
  8
0
  10
10.578125
  20
12.390625
  30
  0.0
  0
VERTEX
  8
0
  10
10.578125
  20
12.390625
  30
  0.0
  0
VERTEX
  8
0
  10
10.571289
  20
12.561523
  30
  0.0
  0
VERTEX
  8
0
  10
10.550781
  20
12.683594
  30
  0.0
  0
VERTEX
  8
0
  10
10.516602
  20
12.756836
  30
  0.0
  0
VERTEX
  8
0
  10
10.468750
  20
12.781250
  30
  0.0
  0
VERTEX
  8
0
  10
10.468750
  20
12.781250
  30
  0.0
  0
VERTEX
  8
0
  10
10.415527
  20
12.712891
  30
  0.0
  0
VERTEX
  8
0
  10
10.365234
  20
12.507812
  30
  0.0
  0
VERTEX
  8
0
  10
10.317871
  20
12.166016
  30
  0.0
  0
VERTEX
  8
0
  10
10.273438
  20
11.687500
  30
  0.0
  0
VERTEX
  8
0
  10
10.273438
  20
11.687500
  30
  0.0
  0
VERTEX
  8
0
  10
10.229004
  20
11.208984
  30
  0.0
  0
VERTEX
  8
0
  10
10.181641
  20
10.867188
  30
  0.0
  0
VERTEX
  8
0
  10
10.131348
  20
10.662109
  30
  0.0
  0
VERTEX
  8
0
  10
10.078125
  20
10.593750
  30
  0.0
  0
VERTEX
  8
0
  10
10.078125
  20
10.593750
  30
  0.0
  0
VERTEX
  8
0
  10
10.015625
  20
10.628418
  30
  0.0
  0
VERTEX
  8
0
  10
9.968750
  20
10.732422
  30
  0.0
  0
VERTEX
  8
0
  10
9.937500
  20
10.905762
  30
  0.0
  0
VERTEX
  8
0
  10
9.921875
  20
11.148438
  30
  0.0
  0
VERTEX
  8
0
  10
9.921875
  20
11.148438
  30
  0.0
  0
VERTEX
  8
0
  10
9.907227
  20
11.391113
  30
  0.0
  0
VERTEX
  8
0
  10
9.878906
  20
11.564453
  30
  0.0
  0
VERTEX
  8
0
  10
9.836914
  20
11.668457
  30
  0.0
  0
VERTEX
  8
0
  10
9.781250
  20
11.703125
  30
  0.0
  0
VERTEX
  8
0
  10
9.781250
  20
11.703125
  30
  0.0
  0
VERTEX
  8
0
  10
9.732910
  20
11.635742
  30
  0.0
  0
VERTEX
  8
0
  10
9.681641
  20
11.433594
  30
  0.0
  0
VERTEX
  8
0
  10
9.627441
  20
11.096680
  30
  0.0
  0
VERTEX
  8
0
  10
9.570312
  20
10.625000
  30
  0.0
  0
VERTEX
  8
0
  10
9.570312
  20
10.625000
  30
  0.0
  0
VERTEX
  8
0
  10
9.512207
  20
10.153320
  30
  0.0
  0
VERTEX
  8
0
  10
9.455078
  20
9.816406
  30
  0.0
  0
VERTEX
  8
0
  10
9.398926
  20
9.614258
  30
  0.0
  0
VERTEX
  8
0
  10
9.343750
  20
9.546875
  30
  0.0
  0
VERTEX
  8
0
  10
9.343750
  20
9.546875
  30
  0.0
  0
VERTEX
  8
0
  10
9.275391
  20
9.589844
  30
  0.0
  0
VERTEX
  8
0
  10
9.226562
  20
9.718750
  30
  0.0
  0
VERTEX
  8
0
  10
9.197266
  20
9.933594
  30
  0.0
  0
VERTEX
  8
0
  10
9.187500
  20
10.234375
  30
  0.0
  0
VERTEX
  8
0
  10
9.187500
  20
10.234375
  30
  0.0
  0
VERTEX
  8
0
  10
9.180664
  20
10.391602
  30
  0.0
  0
VERTEX
  8
0
  10
9.160156
  20
10.503906
  30
  0.0
  0
VERTEX
  8
0
  10
9.125977
  20
10.571289
  30
  0.0
  0
VERTEX
  8
0
  10
9.078125
  20
10.593750
  30
  0.0
  0
VERTEX
  8
0
  10
9.078125
  20
10.593750
  30
  0.0
  0
VERTEX
  8
0
  10
9.006836
  20
10.535645
  30
  0.0
  0
VERTEX
  8
0
  10
8.949219
  20
10.361328
  30
  0.0
  0
VERTEX
  8
0
  10
8.905273
  20
10.070801
  30
  0.0
  0
VERTEX
  8
0
  10
8.875000
  20
9.664062
  30
  0.0
  0
VERTEX
  8
0
  10
8.875000
  20
9.664062
  30
  0.0
  0
VERTEX
  8
0
  10
8.844727
  20
9.257324
  30
  0.0
  0
VERTEX
  8
0
  10
8.800781
  20
8.966797
  30
  0.0
  0
VERTEX
  8
0
  10
8.743164
  20
8.792480
  30
  0.0
  0
VERTEX
  8
0
  10
8.671875
  20
8.734375
  30
  0.0
  0
VERTEX
  8
0
  10
8.671875
  20
8.734375
  30
  0.0
  0
VERTEX
  8
0
  10
8.623047
  20
8.760254
  30
  0.0
  0
VERTEX
  8
0
  10
8.585938
  20
8.837891
  30
  0.0
  0
VERTEX
  8
0
  10
8.560547
  20
8.967285
  30
  0.0
  0
VERTEX
  8
0
  10
8.546875
  20
9.148438
  30
  0.0
  0
VERTEX
  8
0
  10
8.546875
  20
9.148438
  30
  0.0
  0
VERTEX
  8
0
  10
8.532227
  20
9.329590
  30
  0.0
  0
VERTEX
  8
0
  10
8.503906
  20
9.458984
  30
  0.0
  0
VERTEX
  8
0
  10
8.461914
  20
9.536621
  30
  0.0
  0
VERTEX
  8
0
  10
8.406250
  20
9.562500
  30
  0.0
  0
VERTEX
  8
0
  10
8.406250
  20
9.562500
  30
  0.0
  0
VERTEX
  8
0
  10
8.354492
  20
9.514160
  30
  0.0
  0
VERTEX
  8
0
  10
8.308594
  20
9.369141
  30
  0.0
  0
VERTEX
  8
0
  10
8.268555
  20
9.127441
  30
  0.0
  0
VERTEX
  8
0
  10
8.234375
  20
8.789062
  30
  0.0
  0
VERTEX
  8
0
  10
8.234375
  20
8.789062
  30
  0.0
  0
VERTEX
  8
0
  10
8.199219
  20
8.450684
  30
  0.0
  0
VERTEX
  8
0
  10
8.156250
  20
8.208984
  30
  0.0
  0
VERTEX
  8
0
  10
8.105469
  20
8.063965
  30
  0.0
  0
VERTEX
  8
0
  10
8.046875
  20
8.015625
  30
  0.0
  0
VERTEX
  8
0
  10
8.046875
  20
8.015625
  30
  0.0
  0
VERTEX
  8
0
  10
8.011719
  20
8.037109
  30
  0.0
  0
VERTEX
  8
0
  10
7.984375
  20
8.101562
  30
  0.0
  0
VERTEX
  8
0
  10
7.964844
  20
8.208984
  30
  0.0
  0
VERTEX
  8
0
  10
7.953125
  20
8.359375
  30
  0.0
  0
VERTEX
  8
0
  10
7.953125
  20
8.359375
  30
  0.0
  0
VERTEX
  8
0
  10
7.938477
  20
8.509766
  30
  0.0
  0
VERTEX
  8
0
  10
7.910156
  20
8.617188
  30
  0.0
  0
VERTEX
  8
0
  10
7.868164
  20
8.681641
  30
  0.0
  0
VERTEX
  8
0
  10
7.812500
  20
8.703125
  30
  0.0
  0
VERTEX
  8
0
  10
7.812500
  20
8.703125
  30
  0.0
  0
VERTEX
  8
0
  10
7.766113
  20
8.659180
  30
  0.0
  0
VERTEX
  8
0
  10
7.720703
  20
8.527344
  30
  0.0
  0
VERTEX
  8
0
  10
7.676270
  20
8.307617
  30
  0.0
  0
VERTEX
  8
0
  10
7.632812
  20
8.000000
  30
  0.0
  0
VERTEX
  8
0
  10
7.632812
  20
8.000000
  30
  0.0
  0
VERTEX
  8
0
  10
7.588379
  20
7.692383
  30
  0.0
  0
VERTEX
  8
0
  10
7.541016
  20
7.472656
  30
  0.0
  0
VERTEX
  8
0
  10
7.490723
  20
7.340820
  30
  0.0
  0
VERTEX
  8
0
  10
7.437500
  20
7.296875
  30
  0.0
  0
VERTEX
  8
0
  10
7.437500
  20
7.296875
  30
  0.0
  0
VERTEX
  8
0
  10
7.407715
  20
7.319336
  30
  0.0
  0
VERTEX
  8
0
  10
7.380859
  20
7.386719
  30
  0.0
  0
VERTEX
  8
0
  10
7.356934
  20
7.499023
  30
  0.0
  0
VERTEX
  8
0
  10
7.335938
  20
7.656250
  30
  0.0
  0
VERTEX
  8
0
  10
7.335938
  20
7.656250
  30
  0.0
  0
VERTEX
  8
0
  10
7.313965
  20
7.813477
  30
  0.0
  0
VERTEX
  8
0
  10
7.287109
  20
7.925781
  30
  0.0
  0
VERTEX
  8
0
  10
7.255371
  20
7.993164
  30
  0.0
  0
VERTEX
  8
0
  10
7.218750
  20
8.015625
  30
  0.0
  0
VERTEX
  8
0
  10
7.218750
  20
8.015625
  30
  0.0
  0
VERTEX
  8
0
  10
7.155762
  20
7.979004
  30
  0.0
  0
VERTEX
  8
0
  10
7.107422
  20
7.869141
  30
  0.0
  0
VERTEX
  8
0
  10
7.073730
  20
7.686035
  30
  0.0
  0
VERTEX
  8
0
  10
7.054688
  20
7.429688
  30
  0.0
  0
VERTEX
  8
0
  10
7.054688
  20
7.429688
  30
  0.0
  0
VERTEX
  8
0
  10
7.037598
  20
7.173340
  30
  0.0
  0
VERTEX
  8
0
  10
7.009766
  20
6.990234
  30
  0.0
  0
VERTEX
  8
0
  10
6.971191
  20
6.880371
  30
  0.0
  0
VERTEX
  8
0
  10
6.921875
  20
6.843750
  30
  0.0
  0
VERTEX
  8
0
  10
6.921875
  20
6.843750
  30
  0.0
  0
VERTEX
  8
0
  10
6.883789
  20
6.860352
  30
  0.0
  0
VERTEX
  8
0
  10
6.847656
  20
6.910156
  30
  0.0
  0
VERTEX
  8
0
  10
6.813477
  20
6.993164
  30
  0.0
  0
VERTEX
  8
0
  10
6.781250
  20
7.109375
  30
  0.0
  0
VERTEX
  8
0
  10
6.781250
  20
7.109375
  30
  0.0
  0
VERTEX
  8
0
  10
6.749023
  20
7.225586
  30
  0.0
  0
VERTEX
  8
0
  10
6.714844
  20
7.308594
  30
  0.0
  0
VERTEX
  8
0
  10
6.678711
  20
7.358398
  30
  0.0
  0
VERTEX
  8
0
  10
6.640625
  20
7.375000
  30
  0.0
  0
VERTEX
  8
0
  10
6.640625
  20
7.375000
  30
  0.0
  0
VERTEX
  8
0
  10
6.585938
  20
7.333984
  30
  0.0
  0
VERTEX
  8
0
  10
6.546875
  20
7.210938
  30
  0.0
  0
VERTEX
  8
0
  10
6.523438
  20
7.005859
  30
  0.0
  0
VERTEX
  8
0
  10
6.515625
  20
6.718750
  30
  0.0
  0
VERTEX
  8
0
  10
6.515625
  20
6.718750
  30
  0.0
  0
VERTEX
  8
0
  10
6.507812
  20
6.575195
  30
  0.0
  0
VERTEX
  8
0
  10
6.484375
  20
6.472656
  30
  0.0
  0
VERTEX
  8
0
  10
6.445312
  20
6.411133
  30
  0.0
  0
VERTEX
  8
0
  10
6.390625
  20
6.390625
  30
  0.0
  0
VERTEX
  8
0
  10
6.390625
  20
6.390625
  30
  0.0
  0
VERTEX
  8
0
  10
6.365234
  20
6.404785
  30
  0.0
  0
VERTEX
  8
0
  10
6.335938
  20
6.447266
  30
  0.0
  0
VERTEX
  8
0
  10
6.302734
  20
6.518066
  30
  0.0
  0
VERTEX
  8
0
  10
6.265625
  20
6.617188
  30
  0.0
  0
VERTEX
  8
0
  10
6.265625
  20
6.617188
  30
  0.0
  0
VERTEX
  8
0
  10
6.227539
  20
6.716309
  30
  0.0
  0
VERTEX
  8
0
  10
6.191406
  20
6.787109
  30
  0.0
  0
VERTEX
  8
0
  10
6.157227
  20
6.829590
  30
  0.0
  0
VERTEX
  8
0
  10
6.125000
  20
6.843750
  30
  0.0
  0
VERTEX
  8
0
  10
6.125000
  20
6.843750
  30
  0.0
  0
VERTEX
  8
0
  10
6.081055
  20
6.821289
  30
  0.0
  0
VERTEX
  8
0
  10
6.042969
  20
6.753906
  30
  0.0
  0
VERTEX
  8
0
  10
6.010742
  20
6.641602
  30
  0.0
  0
VERTEX
  8
0
  10
5.984375
  20
6.484375
  30
  0.0
  0
VERTEX
  8
0
  10
5.984375
  20
6.484375
  30
  0.0
  0
VERTEX
  8
0
  10
5.957031
  20
6.327148
  30
  0.0
  0
VERTEX
  8
0
  10
5.921875
  20
6.214844
  30
  0.0
  0
VERTEX
  8
0
  10
5.878906
  20
6.147461
  30
  0.0
  0
VERTEX
  8
0
  10
5.828125
  20
6.125000
  30
  0.0
  0
VERTEX
  8
0
  10
5.828125
  20
6.125000
  30
  0.0
  0
VERTEX
  8
0
  10
5.810059
  20
6.138184
  30
  0.0
  0
VERTEX
  8
0
  10
5.787109
  20
6.177734
  30
  0.0
  0
VERTEX
  8
0
  10
5.759277
  20
6.243652
  30
  0.0
  0
VERTEX
  8
0
  10
5.726562
  20
6.335938
  30
  0.0
  0
VERTEX
  8
0
  10
5.726562
  20
6.335938
  30
  0.0
  0
VERTEX
  8
0
  10
5.691895
  20
6.428223
  30
  0.0
  0
VERTEX
  8
0
  10
5.658203
  20
6.494141
  30
  0.0
  0
VERTEX
  8
0
  10
5.625488
  20
6.533691
  30
  0.0
  0
VERTEX
  8
0
  10
5.593750
  20
6.546875
  30
  0.0
  0
VERTEX
  8
0
  10
5.593750
  20
6.546875
  30
  0.0
  0
VERTEX
  8
0
  10
5.544434
  20
6.519531
  30
  0.0
  0
VERTEX
  8
0
  10
5.505859
  20
6.437500
  30
  0.0
  0
VERTEX
  8
0
  10
5.478027
  20
6.300781
  30
  0.0
  0
VERTEX
  8
0
  10
5.460938
  20
6.109375
  30
  0.0
  0
VERTEX
  8
0
  10
5.460938
  20
6.109375
  30
  0.0
  0
VERTEX
  8
0
  10
5.444824
  20
5.917969
  30
  0.0
  0
VERTEX
  8
0
  10
5.419922
  20
5.781250
  30
  0.0
  0
VERTEX
  8
0
  10
5.386230
  20
5.699219
  30
  0.0
  0
VERTEX
  8
0
  10
5.343750
  20
5.671875
  30
  0.0
  0
VERTEX
  8
0
  10
5.343750
  20
5.671875
  30
  0.0
  0
VERTEX
  8
0
  10
5.244141
  20
5.842773
  30
  0.0
  0
VERTEX
  8
0
  10
5.164062
  20
5.964844
  30
  0.0
  0
VERTEX
  8
0
  10
5.103516
  20
6.038086
  30
  0.0
  0
VERTEX
  8
0
  10
5.062500
  20
6.062500
  30
  0.0
  0
VERTEX
  8
0
  10
5.062500
  20
6.062500
  30
  0.0
  0
VERTEX
  8
0
  10
5.024902
  20
6.044434
  30
  0.0
  0
VERTEX
  8
0
  10
4.990234
  20
5.990234
  30
  0.0
  0
VERTEX
  8
0
  10
4.958496
  20
5.899902
  30
  0.0
  0
VERTEX
  8
0
  10
4.929688
  20
5.773438
  30
  0.0
  0
VERTEX
  8
0
  10
4.929688
  20
5.773438
  30
  0.0
  0
VERTEX
  8
0
  10
4.900879
  20
5.646973
  30
  0.0
  0
VERTEX
  8
0
  10
4.869141
  20
5.556641
  30
  0.0
  0
VERTEX
  8
0
  10
4.834473
  20
5.502441
  30
  0.0
  0
VERTEX
  8
0
  10
4.796875
  20
5.484375
  30
  0.0
  0
VERTEX
  8
0
  10
4.515625
  20
5.875000
  30
  0.0
  0
VERTEX
  8
0
  10
4.515625
  20
5.875000
  30
  0.0
  0
VERTEX
  8
0
  10
4.460938
  20
5.850586
  30
  0.0
  0
VERTEX
  8
0
  10
4.421875
  20
5.777344
  30
  0.0
  0
VERTEX
  8
0
  10
4.398438
  20
5.655273
  30
  0.0
  0
VERTEX
  8
0
  10
4.390625
  20
5.484375
  30
  0.0
  0
VERTEX
  8
0
  10
4.390625
  20
5.484375
  30
  0.0
  0
VERTEX
  8
0
  10
4.229492
  20
5.381836
  30
  0.0
  0
VERTEX
  8
0
  10
4.042969
  20
5.308594
  30
  0.0
  0
VERTEX
  8
0
  10
3.831055
  20
5.264648
  30
  0.0
  0
VERTEX
  8
0
  10
3.593750
  20
5.250000
  30
  0.0
  0
VERTEX
  8
0
  10
3.593750
  20
5.250000
  30
  0.0
  0
VERTEX
  8
0
  10
2.676758
  20
5.311523
  30
  0.0
  0
VERTEX
  8
0
  10
1.863281
  20
5.496094
  30
  0.0
  0
VERTEX
  8
0
  10
1.153320
  20
5.803711
  30
  0.0
  0
VERTEX
  8
0
  10
0.546875
  20
6.234375
  30
  0.0
  0
VERTEX
  8
0
  10
0.546875
  20
6.234375
  30
  0.0
  0
VERTEX
  8
0
  10
0.458008
  20
6.329102
  30
  0.0
  0
VERTEX
  8
0
  10
0.394531
  20
6.425781
  30
  0.0
  0
VERTEX
  8
0
  10
0.356445
  20
6.524414
  30
  0.0
  0
VERTEX
  8
0
  10
0.343750
  20
6.625000
  30
  0.0
  0
VERTEX
  8
0
  10
0.343750
  20
6.625000
  30
  0.0
  0
VERTEX
  8
0
  10
0.362305
  20
6.838867
  30
  0.0
  0
VERTEX
  8
0
  10
0.417969
  20
6.996094
  30
  0.0
  0
VERTEX
  8
0
  10
0.510742
  20
7.096680
  30
  0.0
  0
VERTEX
  8
0
  10
0.640625
  20
7.140625
  30
  0.0
  0
VERTEX
  8
0
  10
0.640625
  20
7.140625
  30
  0.0
  0
VERTEX
  8
0
  10
0.775391
  20
7.150391
  30
  0.0
  0
VERTEX
  8
0
  10
0.945312
  20
7.179688
  30
  0.0
  0
VERTEX
  8
0
  10
1.150391
  20
7.228516
  30
  0.0
  0
VERTEX
  8
0
  10
1.390625
  20
7.296875
  30
  0.0
  0
VERTEX
  8
0
  10
1.390625
  20
7.296875
  30
  0.0
  0
VERTEX
  8
0
  10
1.612305
  20
7.344727
  30
  0.0
  0
VERTEX
  8
0
  10
1.808594
  20
7.378906
  30
  0.0
  0
VERTEX
  8
0
  10
1.979492
  20
7.399414
  30
  0.0
  0
VERTEX
  8
0
  10
2.125000
  20
7.406250
  30
  0.0
  0
VERTEX
  8
0
  10
2.125000
  20
7.406250
  30
  0.0
  0
VERTEX
  8
0
  10
2.154297
  20
7.385742
  30
  0.0
  0
VERTEX
  8
0
  10
2.179688
  20
7.324219
  30
  0.0
  0
VERTEX
  8
0
  10
2.201172
  20
7.221680
  30
  0.0
  0
VERTEX
  8
0
  10
2.218750
  20
7.078125
  30
  0.0
  0
VERTEX
  8
0
  10
2.218750
  20
7.078125
  30
  0.0
  0
VERTEX
  8
0
  10
2.240234
  20
6.934570
  30
  0.0
  0
VERTEX
  8
0
  10
2.273438
  20
6.832031
  30
  0.0
  0
VERTEX
  8
0
  10
2.318359
  20
6.770508
  30
  0.0
  0
VERTEX
  8
0
  10
2.375000
  20
6.750000
  30
  0.0
  0
VERTEX
  8
0
  10
2.375000
  20
6.750000
  30
  0.0
  0
VERTEX
  8
0
  10
2.427246
  20
6.775391
  30
  0.0
  0
VERTEX
  8
0
  10
2.474609
  20
6.851562
  30
  0.0
  0
VERTEX
  8
0
  10
2.517090
  20
6.978516
  30
  0.0
  0
VERTEX
  8
0
  10
2.554688
  20
7.156250
  30
  0.0
  0
VERTEX
  8
0
  10
2.554688
  20
7.156250
  30
  0.0
  0
VERTEX
  8
0
  10
2.591309
  20
7.333984
  30
  0.0
  0
VERTEX
  8
0
  10
2.630859
  20
7.460938
  30
  0.0
  0
VERTEX
  8
0
  10
2.673340
  20
7.537109
  30
  0.0
  0
VERTEX
  8
0
  10
2.718750
  20
7.562500
  30
  0.0
  0
VERTEX
  8
0
  10
2.718750
  20
7.562500
  30
  0.0
  0
VERTEX
  8
0
  10
2.749512
  20
7.543457
  30
  0.0
  0
VERTEX
  8
0
  10
2.779297
  20
7.486328
  30
  0.0
  0
VERTEX
  8
0
  10
2.808105
  20
7.391113
  30
  0.0
  0
VERTEX
  8
0
  10
2.835938
  20
7.257812
  30
  0.0
  0
VERTEX
  8
0
  10
2.835938
  20
7.257812
  30
  0.0
  0
VERTEX
  8
0
  10
2.866699
  20
7.124512
  30
  0.0
  0
VERTEX
  8
0
  10
2.904297
  20
7.029297
  30
  0.0
  0
VERTEX
  8
0
  10
2.948730
  20
6.972168
  30
  0.0
  0
VERTEX
  8
0
  10
3.000000
  20
6.953125
  30
  0.0
  0
VERTEX
  8
0
  10
3.000000
  20
6.953125
  30
  0.0
  0
VERTEX
  8
0
  10
3.078125
  20
6.984375
  30
  0.0
  0
VERTEX
  8
0
  10
3.140625
  20
7.078125
  30
  0.0
  0
VERTEX
  8
0
  10
3.187500
  20
7.234375
  30
  0.0
  0
VERTEX
  8
0
  10
3.218750
  20
7.453125
  30
  0.0
  0
VERTEX
  8
0
  10
3.218750
  20
7.453125
  30
  0.0
  0
VERTEX
  8
0
  10
3.248047
  20
7.671875
  30
  0.0
  0
VERTEX
  8
0
  10
3.289062
  20
7.828125
  30
  0.0
  0
VERTEX
  8
0
  10
3.341797
  20
7.921875
  30
  0.0
  0
VERTEX
  8
0
  10
3.406250
  20
7.953125
  30
  0.0
  0
VERTEX
  8
0
  10
3.406250
  20
7.953125
  30
  0.0
  0
VERTEX
  8
0
  10
3.436523
  20
7.929688
  30
  0.0
  0
VERTEX
  8
0
  10
3.464844
  20
7.859375
  30
  0.0
  0
VERTEX
  8
0
  10
3.491211
  20
7.742188
  30
  0.0
  0
VERTEX
  8
0
  10
3.515625
  20
7.578125
  30
  0.0
  0
VERTEX
  8
0
  10
3.515625
  20
7.578125
  30
  0.0
  0
VERTEX
  8
0
  10
3.544922
  20
7.414062
  30
  0.0
  0
VERTEX
  8
0
  10
3.585938
  20
7.296875
  30
  0.0
  0
VERTEX
  8
0
  10
3.638672
  20
7.226562
  30
  0.0
  0
VERTEX
  8
0
  10
3.703125
  20
7.203125
  30
  0.0
  0
VERTEX
  8
0
  10
3.703125
  20
7.203125
  30
  0.0
  0
VERTEX
  8
0
  10
3.778809
  20
7.245117
  30
  0.0
  0
VERTEX
  8
0
  10
3.833984
  20
7.371094
  30
  0.0
  0
VERTEX
  8
0
  10
3.868652
  20
7.581055
  30
  0.0
  0
VERTEX
  8
0
  10
3.882812
  20
7.875000
  30
  0.0
  0
VERTEX
  8
0
  10
3.882812
  20
7.875000
  30
  0.0
  0
VERTEX
  8
0
  10
3.897949
  20
8.168945
  30
  0.0
  0
VERTEX
  8
0
  10
3.935547
  20
8.378906
  30
  0.0
  0
VERTEX
  8
0
  10
3.995605
  20
8.504883
  30
  0.0
  0
VERTEX
  8
0
  10
4.078125
  20
8.546875
  30
  0.0
  0
VERTEX
  8
0
  10
4.078125
  20
8.546875
  30
  0.0
  0
VERTEX
  8
0
  10
4.130371
  20
8.520020
  30
  0.0
  0
VERTEX
  8
0
  10
4.177734
  20
8.439453
  30
  0.0
  0
VERTEX
  8
0
  10
4.220215
  20
8.305176
  30
  0.0
  0
VERTEX
  8
0
  10
4.257812
  20
8.117188
  30
  0.0
  0
VERTEX
  8
0
  10
4.257812
  20
8.117188
  30
  0.0
  0
VERTEX
  8
0
  10
4.294434
  20
7.929199
  30
  0.0
  0
VERTEX
  8
0
  10
4.333984
  20
7.794922
  30
  0.0
  0
VERTEX
  8
0
  10
4.376465
  20
7.714355
  30
  0.0
  0
VERTEX
  8
0
  10
4.421875
  20
7.687500
  30
  0.0
  0
VERTEX
  8
0
  10
4.421875
  20
7.687500
  30
  0.0
  0
VERTEX
  8
0
  10
4.524414
  20
7.712891
  30
  0.0
  0
VERTEX
  8
0
  10
4.597656
  20
7.789062
  30
  0.0
  0
VERTEX
  8
0
  10
4.641602
  20
7.916016
  30
  0.0
  0
VERTEX
  8
0
  10
4.656250
  20
8.093750
  30
  0.0
  0
VERTEX
  8
0
  10
4.656250
  20
8.093750
  30
  0.0
  0
VERTEX
  8
0
  10
4.654785
  20
8.163574
  30
  0.0
  0
VERTEX
  8
0
  10
4.650391
  20
8.248047
  30
  0.0
  0
VERTEX
  8
0
  10
4.643066
  20
8.347168
  30
  0.0
  0
VERTEX
  8
0
  10
4.632812
  20
8.460938
  30
  0.0
  0
VERTEX
  8
0
  10
4.632812
  20
8.460938
  30
  0.0
  0
VERTEX
  8
0
  10
4.622559
  20
8.573730
  30
  0.0
  0
VERTEX
  8
0
  10
4.615234
  20
8.669922
  30
  0.0
  0
VERTEX
  8
0
  10
4.610840
  20
8.749512
  30
  0.0
  0
VERTEX
  8
0
  10
4.609375
  20
8.812500
  30
  0.0
  0
VERTEX
  8
0
  10
4.609375
  20
8.812500
  30
  0.0
  0
VERTEX
  8
0
  10
4.622070
  20
8.976562
  30
  0.0
  0
VERTEX
  8
0
  10
4.660156
  20
9.093750
  30
  0.0
  0
VERTEX
  8
0
  10
4.723633
  20
9.164062
  30
  0.0
  0
VERTEX
  8
0
  10
4.812500
  20
9.187500
  30
  0.0
  0
VERTEX
  8
0
  10
4.812500
  20
9.187500
  30
  0.0
  0
VERTEX
  8
0
  10
4.865234
  20
9.160156
  30
  0.0
  0
VERTEX
  8
0
  10
4.914062
  20
9.078125
  30
  0.0
  0
VERTEX
  8
0
  10
4.958984
  20
8.941406
  30
  0.0
  0
VERTEX
  8
0
  10
5.000000
  20
8.750000
  30
  0.0
  0
VERTEX
  8
0
  10
5.000000
  20
8.750000
  30
  0.0
  0
VERTEX
  8
0
  10
5.040039
  20
8.558594
  30
  0.0
  0
VERTEX
  8
0
  10
5.082031
  20
8.421875
  30
  0.0
  0
VERTEX
  8
0
  10
5.125977
  20
8.339844
  30
  0.0
  0
VERTEX
  8
0
  10
5.171875
  20
8.312500
  30
  0.0
  0
VERTEX
  8
0
  10
5.171875
  20
8.312500
  30
  0.0
  0
VERTEX
  8
0
  10
5.260742
  20
8.345703
  30
  0.0
  0
VERTEX
  8
0
  10
5.324219
  20
8.445312
  30
  0.0
  0
VERTEX
  8
0
  10
5.362305
  20
8.611328
  30
  0.0
  0
VERTEX
  8
0
  10
5.375000
  20
8.843750
  30
  0.0
  0
VERTEX
  8
0
  10
5.375000
  20
8.843750
  30
  0.0
  0
VERTEX
  8
0
  10
5.373535
  20
8.910645
  30
  0.0
  0
VERTEX
  8
0
  10
5.369141
  20
8.986328
  30
  0.0
  0
VERTEX
  8
0
  10
5.361816
  20
9.070801
  30
  0.0
  0
VERTEX
  8
0
  10
5.351562
  20
9.164062
  30
  0.0
  0
VERTEX
  8
0
  10
5.351562
  20
9.164062
  30
  0.0
  0
VERTEX
  8
0
  10
5.341309
  20
9.255371
  30
  0.0
  0
VERTEX
  8
0
  10
5.333984
  20
9.333984
  30
  0.0
  0
VERTEX
  8
0
  10
5.329590
  20
9.399902
  30
  0.0
  0
VERTEX
  8
0
  10
5.328125
  20
9.453125
  30
  0.0
  0
VERTEX
  8
0
  10
5.328125
  20
9.453125
  30
  0.0
  0
VERTEX
  8
0
  10
5.341797
  20
9.712891
  30
  0.0
  0
VERTEX
  8
0
  10
5.382812
  20
9.898438
  30
  0.0
  0
VERTEX
  8
0
  10
5.451172
  20
10.009766
  30
  0.0
  0
VERTEX
  8
0
  10
5.546875
  20
10.046875
  30
  0.0
  0
VERTEX
  8
0
  10
5.546875
  20
10.046875
  30
  0.0
  0
VERTEX
  8
0
  10
5.598145
  20
10.019043
  30
  0.0
  0
VERTEX
  8
0
  10
5.642578
  20
9.935547
  30
  0.0
  0
VERTEX
  8
0
  10
5.680176
  20
9.796387
  30
  0.0
  0
VERTEX
  8
0
  10
5.710938
  20
9.601562
  30
  0.0
  0
VERTEX
  8
0
  10
5.710938
  20
9.601562
  30
  0.0
  0
VERTEX
  8
0
  10
5.742676
  20
9.406738
  30
  0.0
  0
VERTEX
  8
0
  10
5.783203
  20
9.267578
  30
  0.0
  0
VERTEX
  8
0
  10
5.832520
  20
9.184082
  30
  0.0
  0
VERTEX
  8
0
  10
5.890625
  20
9.156250
  30
  0.0
  0
VERTEX
  8
0
  10
5.890625
  20
9.156250
  30
  0.0
  0
VERTEX
  8
0
  10
5.979492
  20
9.189453
  30
  0.0
  0
VERTEX
  8
0
  10
6.042969
  20
9.289062
  30
  0.0
  0
VERTEX
  8
0
  10
6.081055
  20
9.455078
  30
  0.0
  0
VERTEX
  8
0
  10
6.093750
  20
9.687500
  30
  0.0
  0
VERTEX
  8
0
  10
6.093750
  20
9.687500
  30
  0.0
  0
VERTEX
  8
0
  10
6.090820
  20
9.796875
  30
  0.0
  0
VERTEX
  8
0
  10
6.082031
  20
9.906250
  30
  0.0
  0
VERTEX
  8
0
  10
6.067383
  20
10.015625
  30
  0.0
  0
VERTEX
  8
0
  10
6.046875
  20
10.125000
  30
  0.0
  0
VERTEX
  8
0
  10
6.046875
  20
10.125000
  30
  0.0
  0
VERTEX
  8
0
  10
6.026367
  20
10.226562
  30
  0.0
  0
VERTEX
  8
0
  10
6.011719
  20
10.312500
  30
  0.0
  0
VERTEX
  8
0
  10
6.002930
  20
10.382812
  30
  0.0
  0
VERTEX
  8
0
  10
6.000000
  20
10.437500
  30
  0.0
  0
VERTEX
  8
0
  10
6.000000
  20
10.437500
  30
  0.0
  0
VERTEX
  8
0
  10
6.004883
  20
10.544434
  30
  0.0
  0
VERTEX
  8
0
  10
6.019531
  20
10.646484
  30
  0.0
  0
VERTEX
  8
0
  10
6.043945
  20
10.743652
  30
  0.0
  0
VERTEX
  8
0
  10
6.078125
  20
10.835938
  30
  0.0
  0
VERTEX
  8
0
  10
6.078125
  20
10.835938
  30
  0.0
  0
VERTEX
  8
0
  10
6.116211
  20
10.914551
  30
  0.0
  0
VERTEX
  8
0
  10
6.152344
  20
10.970703
  30
  0.0
  0
VERTEX
  8
0
  10
6.186523
  20
11.004395
  30
  0.0
  0
VERTEX
  8
0
  10
6.218750
  20
11.015625
  30
  0.0
  0
VERTEX
  8
0
  10
6.218750
  20
11.015625
  30
  0.0
  0
VERTEX
  8
0
  10
6.287598
  20
10.989258
  30
  0.0
  0
VERTEX
  8
0
  10
6.353516
  20
10.910156
  30
  0.0
  0
VERTEX
  8
0
  10
6.416504
  20
10.778320
  30
  0.0
  0
VERTEX
  8
0
  10
6.476562
  20
10.593750
  30
  0.0
  0
VERTEX
  8
0
  10
6.476562
  20
10.593750
  30
  0.0
  0
VERTEX
  8
0
  10
6.537598
  20
10.409180
  30
  0.0
  0
VERTEX
  8
0
  10
6.603516
  20
10.277344
  30
  0.0
  0
VERTEX
  8
0
  10
6.674316
  20
10.198242
  30
  0.0
  0
VERTEX
  8
0
  10
6.750000
  20
10.171875
  30
  0.0
  0
VERTEX
  8
0
  10
6.921875
  20
9.359375
  30
  0.0
  0
VERTEX
  8
0
  10
6.750000
  20
10.171875
  30
  0.0
  0
VERTEX
  8
0
  10
7.375000
  20
11.093750
  30
  0.0
  0
VERTEX
  8
0
  10
7.375000
  20
11.093750
  30
  0.0
  0
VERTEX
  8
0
  10
8.015625
  20
12.125000
  30
  0.0
  0
VERTEX
  8
0
  10
8.015625
  20
12.125000
  30
  0.0
  0
VERTEX
  8
0
  10
8.593750
  20
13.203125
  30
  0.0
  0
VERTEX
  8
0
  10
8.593750
  20
13.203125
  30
  0.0
  0
VERTEX
  8
0
  10
8.593750
  20
13.203125
  30
  0.0
  0
VERTEX
  8
0
  10
8.718750
  20
13.411133
  30
  0.0
  0
VERTEX
  8
0
  10
8.859375
  20
13.675781
  30
  0.0
  0
VERTEX
  8
0
  10
9.015625
  20
13.997070
  30
  0.0
  0
VERTEX
  8
0
  10
9.187500
  20
14.375000
  30
  0.0
  0
VERTEX
  8
0
  10
9.437500
  20
13.531250
  30
  0.0
  0
VERTEX
  8
0
  10
9.187500
  20
14.375000
  30
  0.0
  0
VERTEX
  8
0
  10
9.187500
  20
14.375000
  30
  0.0
  0
VERTEX
  8
0
  10
9.242188
  20
14.478516
  30
  0.0
  0
VERTEX
  8
0
  10
9.359375
  20
14.710938
  30
  0.0
  0
VERTEX
  8
0
  10
9.539062
  20
15.072266
  30
  0.0
  0
VERTEX
  8
0
  10
9.781250
  20
15.562500
  30
  0.0
  0
VERTEX
  8
0
  10
9.781250
  20
15.562500
  30
  0.0
  0
VERTEX
  8
0
  10
10.328125
  20
16.734375
  30
  0.0
  0
VERTEX
  8
0
  10
10.328125
  20
16.734375
  30
  0.0
  0
VERTEX
  8
0
  10
10.328125
  20
16.734375
  30
  0.0
  0
VERTEX
  8
0
  10
10.432617
  20
16.989258
  30
  0.0
  0
VERTEX
  8
0
  10
10.558594
  20
17.300781
  30
  0.0
  0
VERTEX
  8
0
  10
10.706055
  20
17.668945
  30
  0.0
  0
VERTEX
  8
0
  10
10.875000
  20
18.093750
  30
  0.0
  0
VERTEX
  8
0
  10
10.875000
  20
18.093750
  30
  0.0
  0
VERTEX
  8
0
  10
10.953125
  20
18.546875
  30
  0.0
  0
VERTEX
  8
0
  10
10.937500
  20
18.812500
  30
  0.0
  0
VERTEX
  8
0
  10
10.937500
  20
18.812500
  30
  0.0
  0
VERTEX
  8
0
  10
10.919922
  20
18.882812
  30
  0.0
  0
VERTEX
  8
0
  10
10.882812
  20
19.000000
  30
  0.0
  0
VERTEX
  8
0
  10
10.826172
  20
19.164062
  30
  0.0
  0
VERTEX
  8
0
  10
10.750000
  20
19.375000
  30
  0.0
  0
VERTEX
  8
0
  10
10.750000
  20
19.375000
  30
  0.0
  0
VERTEX
  8
0
  10
10.695312
  20
19.552734
  30
  0.0
  0
VERTEX
  8
0
  10
10.656250
  20
19.726562
  30
  0.0
  0
VERTEX
  8
0
  10
10.632812
  20
19.896484
  30
  0.0
  0
VERTEX
  8
0
  10
10.625000
  20
20.062500
  30
  0.0
  0
VERTEX
  8
0
  10
10.625000
  20
20.062500
  30
  0.0
  0
VERTEX
  8
0
  10
10.629883
  20
20.189453
  30
  0.0
  0
VERTEX
  8
0
  10
10.644531
  20
20.320312
  30
  0.0
  0
VERTEX
  8
0
  10
10.668945
  20
20.455078
  30
  0.0
  0
VERTEX
  8
0
  10
10.703125
  20
20.593750
  30
  0.0
  0
VERTEX
  8
0
  10
10.703125
  20
20.593750
  30
  0.0
  0
VERTEX
  8
0
  10
10.742188
  20
20.716797
  30
  0.0
  0
VERTEX
  8
0
  10
10.781250
  20
20.804688
  30
  0.0
  0
VERTEX
  8
0
  10
10.820312
  20
20.857422
  30
  0.0
  0
VERTEX
  8
0
  10
10.859375
  20
20.875000
  30
  0.0
  0
VERTEX
  8
0
  10
10.859375
  20
20.875000
  30
  0.0
  0
VERTEX
  8
0
  10
10.917480
  20
20.839355
  30
  0.0
  0
VERTEX
  8
0
  10
10.982422
  20
20.732422
  30
  0.0
  0
VERTEX
  8
0
  10
11.054199
  20
20.554199
  30
  0.0
  0
VERTEX
  8
0
  10
11.132812
  20
20.304688
  30
  0.0
  0
VERTEX
  8
0
  10
11.132812
  20
20.304688
  30
  0.0
  0
VERTEX
  8
0
  10
11.212402
  20
20.055176
  30
  0.0
  0
VERTEX
  8
0
  10
11.287109
  20
19.876953
  30
  0.0
  0
VERTEX
  8
0
  10
11.356934
  20
19.770020
  30
  0.0
  0
VERTEX
  8
0
  10
11.421875
  20
19.734375
  30
  0.0
  0
VERTEX
  8
0
  10
11.421875
  20
19.734375
  30
  0.0
  0
VERTEX
  8
0
  10
11.469727
  20
19.754883
  30
  0.0
  0
VERTEX
  8
0
  10
11.503906
  20
19.816406
  30
  0.0
  0
VERTEX
  8
0
  10
11.524414
  20
19.918945
  30
  0.0
  0
VERTEX
  8
0
  10
11.531250
  20
20.062500
  30
  0.0
  0
VERTEX
  8
0
  10
11.531250
  20
20.062500
  30
  0.0
  0
VERTEX
  8
0
  10
11.518555
  20
20.193848
  30
  0.0
  0
VERTEX
  8
0
  10
11.480469
  20
20.369141
  30
  0.0
  0
VERTEX
  8
0
  10
11.416992
  20
20.588379
  30
  0.0
  0
VERTEX
  8
0
  10
11.328125
  20
20.851562
  30
  0.0
  0
VERTEX
  8
0
  10
11.328125
  20
20.851562
  30
  0.0
  0
VERTEX
  8
0
  10
11.239258
  20
21.117676
  30
  0.0
  0
VERTEX
  8
0
  10
11.175781
  20
21.345703
  30
  0.0
  0
VERTEX
  8
0
  10
11.137695
  20
21.535645
  30
  0.0
  0
VERTEX
  8
0
  10
11.125000
  20
21.687500
  30
  0.0
  0
VERTEX
  8
0
  10
11.125000
  20
21.687500
  30
  0.0
  0
VERTEX
  8
0
  10
11.130371
  20
21.811523
  30
  0.0
  0
VERTEX
  8
0
  10
11.146484
  20
21.933594
  30
  0.0
  0
VERTEX
  8
0
  10
11.173340
  20
22.053711
  30
  0.0
  0
VERTEX
  8
0
  10
11.210938
  20
22.171875
  30
  0.0
  0
VERTEX
  8
0
  10
11.210938
  20
22.171875
  30
  0.0
  0
VERTEX
  8
0
  10
11.254395
  20
22.274414
  30
  0.0
  0
VERTEX
  8
0
  10
11.298828
  20
22.347656
  30
  0.0
  0
VERTEX
  8
0
  10
11.344238
  20
22.391602
  30
  0.0
  0
VERTEX
  8
0
  10
11.390625
  20
22.406250
  30
  0.0
  0
VERTEX
  8
0
  10
11.390625
  20
22.406250
  30
  0.0
  0
VERTEX
  8
0
  10
11.448242
  20
22.370605
  30
  0.0
  0
VERTEX
  8
0
  10
11.511719
  20
22.263672
  30
  0.0
  0
VERTEX
  8
0
  10
11.581055
  20
22.085449
  30
  0.0
  0
VERTEX
  8
0
  10
11.656250
  20
21.835938
  30
  0.0
  0
VERTEX
  8
0
  10
11.656250
  20
21.835938
  30
  0.0
  0
VERTEX
  8
0
  10
11.731445
  20
21.586426
  30
  0.0
  0
VERTEX
  8
0
  10
11.800781
  20
21.408203
  30
  0.0
  0
VERTEX
  8
0
  10
11.864258
  20
21.301270
  30
  0.0
  0
VERTEX
  8
0
  10
11.921875
  20
21.265625
  30
  0.0
  0
VERTEX
  8
0
  10
11.921875
  20
21.265625
  30
  0.0
  0
VERTEX
  8
0
  10
11.983398
  20
21.286133
  30
  0.0
  0
VERTEX
  8
0
  10
12.027344
  20
21.347656
  30
  0.0
  0
VERTEX
  8
0
  10
12.053711
  20
21.450195
  30
  0.0
  0
VERTEX
  8
0
  10
12.062500
  20
21.593750
  30
  0.0
  0
VERTEX
  8
0
  10
12.062500
  20
21.593750
  30
  0.0
  0
VERTEX
  8
0
  10
12.048828
  20
21.687988
  30
  0.0
  0
VERTEX
  8
0
  10
12.007812
  20
21.845703
  30
  0.0
  0
VERTEX
  8
0
  10
11.939453
  20
22.066895
  30
  0.0
  0
VERTEX
  8
0
  10
11.843750
  20
22.351562
  30
  0.0
  0
VERTEX
  8
0
  10
11.843750
  20
22.351562
  30
  0.0
  0
VERTEX
  8
0
  10
11.748047
  20
22.650879
  30
  0.0
  0
VERTEX
  8
0
  10
11.679688
  20
22.916016
  30
  0.0
  0
VERTEX
  8
0
  10
11.638672
  20
23.146973
  30
  0.0
  0
VERTEX
  8
0
  10
11.625000
  20
23.343750
  30
  0.0
  0
VERTEX
  8
0
  10
11.625000
  20
23.343750
  30
  0.0
  0
VERTEX
  8
0
  10
11.640625
  20
23.630859
  30
  0.0
  0
VERTEX
  8
0
  10
11.687500
  20
23.835938
  30
  0.0
  0
VERTEX
  8
0
  10
11.765625
  20
23.958984
  30
  0.0
  0
VERTEX
  8
0
  10
11.875000
  20
24.000000
  30
  0.0
  0
VERTEX
  8
0
  10
11.875000
  20
24.000000
  30
  0.0
  0
VERTEX
  8
0
  10
11.920410
  20
23.967285
  30
  0.0
  0
VERTEX
  8
0
  10
11.978516
  20
23.869141
  30
  0.0
  0
VERTEX
  8
0
  10
12.049316
  20
23.705566
  30
  0.0
  0
VERTEX
  8
0
  10
12.132812
  20
23.476562
  30
  0.0
  0
VERTEX
  8
0
  10
12.132812
  20
23.476562
  30
  0.0
  0
VERTEX
  8
0
  10
12.227051
  20
23.247559
  30
  0.0
  0
VERTEX
  8
0
  10
12.330078
  20
23.083984
  30
  0.0
  0
VERTEX
  8
0
  10
12.441895
  20
22.985840
  30
  0.0
  0
VERTEX
  8
0
  10
12.562500
  20
22.953125
  30
  0.0
  0
VERTEX
  8
0
  10
12.562500
  20
22.953125
  30
  0.0
  0
VERTEX
  8
0
  10
12.633789
  20
22.861328
  30
  0.0
  0
VERTEX
  8
0
  10
12.753906
  20
22.585938
  30
  0.0
  0
VERTEX
  8
0
  10
12.922852
  20
22.126953
  30
  0.0
  0
VERTEX
  8
0
  10
13.140625
  20
21.484375
  30
  0.0
  0
VERTEX
  8
0
  10
13.140625
  20
21.484375
  30
  0.0
  0
SEQEND
  0
POLYLINE
  8
0
  6
CONTINUOUS
  66
  1
  70
  1
  10
  0.0
  20
  0.0
  30
  0.0
  0
VERTEX
  8
0
  10
6.000000
  20
20.187500
  30
  0.0
  0
VERTEX
  8
0
  10
6.000000
  20
20.187500
  30
  0.0
  0
VERTEX
  8
0
  10
5.985352
  20
19.915039
  30
  0.0
  0
VERTEX
  8
0
  10
5.941406
  20
19.550781
  30
  0.0
  0
VERTEX
  8
0
  10
5.868164
  20
19.094727
  30
  0.0
  0
VERTEX
  8
0
  10
5.765625
  20
18.546875
  30
  0.0
  0
VERTEX
  8
0
  10
5.765625
  20
18.546875
  30
  0.0
  0
VERTEX
  8
0
  10
5.601074
  20
17.829590
  30
  0.0
  0
VERTEX
  8
0
  10
5.404297
  20
17.177734
  30
  0.0
  0
VERTEX
  8
0
  10
5.175293
  20
16.591309
  30
  0.0
  0
VERTEX
  8
0
  10
4.914062
  20
16.070312
  30
  0.0
  0
VERTEX
  8
0
  10
4.914062
  20
16.070312
  30
  0.0
  0
VERTEX
  8
0
  10
4.634277
  20
15.643066
  30
  0.0
  0
VERTEX
  8
0
  10
4.349609
  20
15.337891
  30
  0.0
  0
VERTEX
  8
0
  10
4.060059
  20
15.154785
  30
  0.0
  0
VERTEX
  8
0
  10
3.765625
  20
15.093750
  30
  0.0
  0
VERTEX
  8
0
  10
3.765625
  20
15.093750
  30
  0.0
  0
VERTEX
  8
0
  10
3.627930
  20
15.121582
  30
  0.0
  0
VERTEX
  8
0
  10
3.480469
  20
15.205078
  30
  0.0
  0
VERTEX
  8
0
  10
3.323242
  20
15.344238
  30
  0.0
  0
VERTEX
  8
0
  10
3.156250
  20
15.539062
  30
  0.0
  0
VERTEX
  8
0
  10
3.156250
  20
15.539062
  30
  0.0
  0
VERTEX
  8
0
  10
3.004883
  20
15.733887
  30
  0.0
  0
VERTEX
  8
0
  10
2.894531
  20
15.873047
  30
  0.0
  0
VERTEX
  8
0
  10
2.825195
  20
15.956543
  30
  0.0
  0
VERTEX
  8
0
  10
2.796875
  20
15.984375
  30
  0.0
  0
VERTEX
  8
0
  10
2.796875
  20
15.984375
  30
  0.0
  0
VERTEX
  8
0
  10
2.711426
  20
15.961914
  30
  0.0
  0
VERTEX
  8
0
  10
2.611328
  20
15.894531
  30
  0.0
  0
VERTEX
  8
0
  10
2.496582
  20
15.782227
  30
  0.0
  0
VERTEX
  8
0
  10
2.367188
  20
15.625000
  30
  0.0
  0
VERTEX
  8
0
  10
2.367188
  20
15.625000
  30
  0.0
  0
VERTEX
  8
0
  10
2.238770
  20
15.467773
  30
  0.0
  0
VERTEX
  8
0
  10
2.126953
  20
15.355469
  30
  0.0
  0
VERTEX
  8
0
  10
2.031738
  20
15.288086
  30
  0.0
  0
VERTEX
  8
0
  10
1.953125
  20
15.265625
  30
  0.0
  0
VERTEX
  8
0
  10
1.953125
  20
15.265625
  30
  0.0
  0
VERTEX
  8
0
  10
1.892090
  20
15.286621
  30
  0.0
  0
VERTEX
  8
0
  10
1.833984
  20
15.349609
  30
  0.0
  0
VERTEX
  8
0
  10
1.778809
  20
15.454590
  30
  0.0
  0
VERTEX
  8
0
  10
1.726562
  20
15.601562
  30
  0.0
  0
VERTEX
  8
0
  10
1.726562
  20
15.601562
  30
  0.0
  0
VERTEX
  8
0
  10
1.682129
  20
15.770996
  30
  0.0
  0
VERTEX
  8
0
  10
1.650391
  20
15.943359
  30
  0.0
  0
VERTEX
  8
0
  10
1.631348
  20
16.118652
  30
  0.0
  0
VERTEX
  8
0
  10
1.625000
  20
16.296875
  30
  0.0
  0
VERTEX
  8
0
  10
1.625000
  20
16.296875
  30
  0.0
  0
VERTEX
  8
0
  10
1.647949
  20
16.541016
  30
  0.0
  0
VERTEX
  8
0
  10
1.716797
  20
16.835938
  30
  0.0
  0
VERTEX
  8
0
  10
1.831543
  20
17.181641
  30
  0.0
  0
VERTEX
  8
0
  10
1.992188
  20
17.578125
  30
  0.0
  0
VERTEX
  8
0
  10
1.992188
  20
17.578125
  30
  0.0
  0
VERTEX
  8
0
  10
2.152832
  20
18.006836
  30
  0.0
  0
VERTEX
  8
0
  10
2.267578
  20
18.449219
  30
  0.0
  0
VERTEX
  8
0
  10
2.336426
  20
18.905273
  30
  0.0
  0
VERTEX
  8
0
  10
2.359375
  20
19.375000
  30
  0.0
  0
VERTEX
  8
0
  10
2.359375
  20
19.375000
  30
  0.0
  0
VERTEX
  8
0
  10
2.360352
  20
19.497070
  30
  0.0
  0
VERTEX
  8
0
  10
2.363281
  20
19.613281
  30
  0.0
  0
VERTEX
  8
0
  10
2.368164
  20
19.723633
  30
  0.0
  0
VERTEX
  8
0
  10
2.375000
  20
19.828125
  30
  0.0
  0
VERTEX
  8
0
  10
2.375000
  20
19.828125
  30
  0.0
  0
VERTEX
  8
0
  10
2.522949
  20
20.740234
  30
  0.0
  0
VERTEX
  8
0
  10
2.716797
  20
21.554688
  30
  0.0
  0
VERTEX
  8
0
  10
2.956543
  20
22.271484
  30
  0.0
  0
VERTEX
  8
0
  10
3.242188
  20
22.890625
  30
  0.0
  0
VERTEX
  8
0
  10
3.242188
  20
22.890625
  30
  0.0
  0
VERTEX
  8
0
  10
3.557129
  20
23.389648
  30
  0.0
  0
VERTEX
  8
0
  10
3.884766
  20
23.746094
  30
  0.0
  0
VERTEX
  8
0
  10
4.225098
  20
23.959961
  30
  0.0
  0
VERTEX
  8
0
  10
4.578125
  20
24.031250
  30
  0.0
  0
VERTEX
  8
0
  10
4.578125
  20
24.031250
  30
  0.0
  0
VERTEX
  8
0
  10
4.682617
  20
24.021484
  30
  0.0
  0
VERTEX
  8
0
  10
4.792969
  20
23.992188
  30
  0.0
  0
VERTEX
  8
0
  10
4.909180
  20
23.943359
  30
  0.0
  0
VERTEX
  8
0
  10
5.031250
  20
23.875000
  30
  0.0
  0
VERTEX
  8
0
  10
5.031250
  20
23.875000
  30
  0.0
  0
VERTEX
  8
0
  10
5.174805
  20
23.765625
  30
  0.0
  0
VERTEX
  8
0
  10
5.277344
  20
23.640625
  30
  0.0
  0
VERTEX
  8
0
  10
5.338867
  20
23.500000
  30
  0.0
  0
VERTEX
  8
0
  10
5.359375
  20
23.343750
  30
  0.0
  0
VERTEX
  8
0
  10
5.359375
  20
23.343750
  30
  0.0
  0
VERTEX
  8
0
  10
5.349609
  20
23.209961
  30
  0.0
  0
VERTEX
  8
0
  10
5.320312
  20
23.105469
  30
  0.0
  0
VERTEX
  8
0
  10
5.271484
  20
23.030273
  30
  0.0
  0
VERTEX
  8
0
  10
5.203125
  20
22.984375
  30
  0.0
  0
VERTEX
  8
0
  10
5.203125
  20
22.984375
  30
  0.0
  0
VERTEX
  8
0
  10
5.200195
  20
22.984375
  30
  0.0
  0
VERTEX
  8
0
  10
5.160156
  20
22.984375
  30
  0.0
  0
VERTEX
  8
0
  10
5.083008
  20
22.984375
  30
  0.0
  0
VERTEX
  8
0
  10
4.968750
  20
22.984375
  30
  0.0
  0
VERTEX
  8
0
  10
4.968750
  20
22.984375
  30
  0.0
  0
VERTEX
  8
0
  10
4.665039
  20
22.931641
  30
  0.0
  0
VERTEX
  8
0
  10
4.363281
  20
22.773438
  30
  0.0
  0
VERTEX
  8
0
  10
4.063477
  20
22.509766
  30
  0.0
  0
VERTEX
  8
0
  10
3.765625
  20
22.140625
  30
  0.0
  0
VERTEX
  8
0
  10
3.765625
  20
22.140625
  30
  0.0
  0
VERTEX
  8
0
  10
3.451172
  20
21.612305
  30
  0.0
  0
VERTEX
  8
0
  10
3.226562
  20
21.011719
  30
  0.0
  0
VERTEX
  8
0
  10
3.091797
  20
20.338867
  30
  0.0
  0
VERTEX
  8
0
  10
3.046875
  20
19.593750
  30
  0.0
  0
VERTEX
  8
0
  10
3.046875
  20
19.593750
  30
  0.0
  0
VERTEX
  8
0
  10
3.056641
  20
19.136719
  30
  0.0
  0
VERTEX
  8
0
  10
3.085938
  20
18.734375
  30
  0.0
  0
VERTEX
  8
0
  10
3.134766
  20
18.386719
  30
  0.0
  0
VERTEX
  8
0
  10
3.203125
  20
18.093750
  30
  0.0
  0
VERTEX
  8
0
  10
2.828125
  20
17.484375
  30
  0.0
  0
VERTEX
  8
0
  10
3.203125
  20
18.093750
  30
  0.0
  0
VERTEX
  8
0
  10
3.203125
  20
18.093750
  30
  0.0
  0
VERTEX
  8
0
  10
3.345703
  20
17.451172
  30
  0.0
  0
VERTEX
  8
0
  10
3.523438
  20
16.992188
  30
  0.0
  0
VERTEX
  8
0
  10
3.736328
  20
16.716797
  30
  0.0
  0
VERTEX
  8
0
  10
3.984375
  20
16.625000
  30
  0.0
  0
VERTEX
  8
0
  10
3.984375
  20
16.625000
  30
  0.0
  0
VERTEX
  8
0
  10
4.288086
  20
16.716797
  30
  0.0
  0
VERTEX
  8
0
  10
4.574219
  20
16.992188
  30
  0.0
  0
VERTEX
  8
0
  10
4.842773
  20
17.451172
  30
  0.0
  0
VERTEX
  8
0
  10
5.093750
  20
18.093750
  30
  0.0
  0
VERTEX
  8
0
  10
5.093750
  20
18.093750
  30
  0.0
  0
VERTEX
  8
0
  10
5.282227
  20
18.735352
  30
  0.0
  0
VERTEX
  8
0
  10
5.472656
  20
19.378906
  30
  0.0
  0
VERTEX
  8
0
  10
5.665039
  20
20.024414
  30
  0.0
  0
VERTEX
  8
0
  10
5.859375
  20
20.671875
  30
  0.0
  0
VERTEX
  8
0
  10
5.859375
  20
20.671875
  30
  0.0
  0
VERTEX
  8
0
  10
5.920898
  20
20.618164
  30
  0.0
  0
VERTEX
  8
0
  10
5.964844
  20
20.519531
  30
  0.0
  0
VERTEX
  8
0
  10
5.991211
  20
20.375977
  30
  0.0
  0
VERTEX
  8
0
  10
6.000000
  20
20.187500
  30
  0.0
  0
SEQEND
  0
POLYLINE
  8
0
  6
CONTINUOUS
  66
  1
  70
  1
  10
  0.0
  20
  0.0
  30
  0.0
  0
VERTEX
  8
0
  10
13.593750
  20
-0.156250
  30
  0.0
  0
VERTEX
  8
0
  10
13.593750
  20
-0.156250
  30
  0.0
  0
VERTEX
  8
0
  10
13.568359
  20
-0.491211
  30
  0.0
  0
VERTEX
  8
0
  10
13.492188
  20
-0.777344
  30
  0.0
  0
VERTEX
  8
0
  10
13.365234
  20
-1.014648
  30
  0.0
  0
VERTEX
  8
0
  10
13.187500
  20
-1.203125
  30
  0.0
  0
VERTEX
  8
0
  10
13.187500
  20
-1.203125
  30
  0.0
  0
VERTEX
  8
0
  10
12.982422
  20
-1.413086
  30
  0.0
  0
VERTEX
  8
0
  10
12.820312
  20
-1.652344
  30
  0.0
  0
VERTEX
  8
0
  10
12.701172
  20
-1.920898
  30
  0.0
  0
VERTEX
  8
0
  10
12.625000
  20
-2.218750
  30
  0.0
  0
VERTEX
  8
0
  10
12.625000
  20
-2.218750
  30
  0.0
  0
VERTEX
  8
0
  10
12.453125
  20
-3.111816
  30
  0.0
  0
VERTEX
  8
0
  10
12.265625
  20
-3.869141
  30
  0.0
  0
VERTEX
  8
0
  10
12.062500
  20
-4.490723
  30
  0.0
  0
VERTEX
  8
0
  10
11.843750
  20
-4.976562
  30
  0.0
  0
VERTEX
  8
0
  10
11.843750
  20
-4.976562
  30
  0.0
  0
VERTEX
  8
0
  10
11.597656
  20
-5.342285
  30
  0.0
  0
VERTEX
  8
0
  10
11.312500
  20
-5.603516
  30
  0.0
  0
VERTEX
  8
0
  10
10.988281
  20
-5.760254
  30
  0.0
  0
VERTEX
  8
0
  10
10.625000
  20
-5.812500
  30
  0.0
  0
VERTEX
  8
0
  10
10.625000
  20
-5.812500
  30
  0.0
  0
VERTEX
  8
0
  10
10.229492
  20
-5.754883
  30
  0.0
  0
VERTEX
  8
0
  10
9.886719
  20
-5.582031
  30
  0.0
  0
VERTEX
  8
0
  10
9.596680
  20
-5.293945
  30
  0.0
  0
VERTEX
  8
0
  10
9.359375
  20
-4.890625
  30
  0.0
  0
VERTEX
  8
0
  10
9.328125
  20
-4.406250
  30
  0.0
  0
VERTEX
  8
0
  10
9.453125
  20
-4.234375
  30
  0.0
  0
VERTEX
  8
0
  10
9.453125
  20
-4.234375
  30
  0.0
  0
VERTEX
  8
0
  10
9.597656
  20
-4.405273
  30
  0.0
  0
VERTEX
  8
0
  10
9.781250
  20
-4.527344
  30
  0.0
  0
VERTEX
  8
0
  10
10.003906
  20
-4.600586
  30
  0.0
  0
VERTEX
  8
0
  10
10.265625
  20
-4.625000
  30
  0.0
  0
VERTEX
  8
0
  10
10.265625
  20
-4.625000
  30
  0.0
  0
VERTEX
  8
0
  10
10.540039
  20
-4.592773
  30
  0.0
  0
VERTEX
  8
0
  10
10.800781
  20
-4.496094
  30
  0.0
  0
VERTEX
  8
0
  10
11.047852
  20
-4.334961
  30
  0.0
  0
VERTEX
  8
0
  10
11.281250
  20
-4.109375
  30
  0.0
  0
VERTEX
  8
0
  10
11.281250
  20
-4.109375
  30
  0.0
  0
VERTEX
  8
0
  10
11.547852
  20
-3.727539
  30
  0.0
  0
VERTEX
  8
0
  10
11.738281
  20
-3.269531
  30
  0.0
  0
VERTEX
  8
0
  10
11.852539
  20
-2.735352
  30
  0.0
  0
VERTEX
  8
0
  10
11.890625
  20
-2.125000
  30
  0.0
  0
VERTEX
  8
0
  10
11.890625
  20
-2.125000
  30
  0.0
  0
VERTEX
  8
0
  10
11.887695
  20
-1.850586
  30
  0.0
  0
VERTEX
  8
0
  10
11.878906
  20
-1.589844
  30
  0.0
  0
VERTEX
  8
0
  10
11.864258
  20
-1.342773
  30
  0.0
  0
VERTEX
  8
0
  10
11.843750
  20
-1.109375
  30
  0.0
  0
VERTEX
  8
0
  10
12.265625
  20
-0.875000
  30
  0.0
  0
VERTEX
  8
0
  10
11.843750
  20
-1.109375
  30
  0.0
  0
VERTEX
  8
0
  10
11.843750
  20
-1.109375
  30
  0.0
  0
VERTEX
  8
0
  10
11.722656
  20
-0.282227
  30
  0.0
  0
VERTEX
  8
0
  10
11.546875
  20
0.308594
  30
  0.0
  0
VERTEX
  8
0
  10
11.316406
  20
0.663086
  30
  0.0
  0
VERTEX
  8
0
  10
11.031250
  20
0.781250
  30
  0.0
  0
VERTEX
  8
0
  10
11.031250
  20
0.781250
  30
  0.0
  0
VERTEX
  8
0
  10
10.779785
  20
0.742676
  30
  0.0
  0
VERTEX
  8
0
  10
10.525391
  20
0.626953
  30
  0.0
  0
VERTEX
  8
0
  10
10.268066
  20
0.434082
  30
  0.0
  0
VERTEX
  8
0
  10
10.007812
  20
0.164062
  30
  0.0
  0
VERTEX
  8
0
  10
10.007812
  20
0.164062
  30
  0.0
  0
VERTEX
  8
0
  10
9.759277
  20
-0.171387
  30
  0.0
  0
VERTEX
  8
0
  10
9.537109
  20
-0.560547
  30
  0.0
  0
VERTEX
  8
0
  10
9.341309
  20
-1.003418
  30
  0.0
  0
VERTEX
  8
0
  10
9.171875
  20
-1.500000
  30
  0.0
  0
VERTEX
  8
0
  10
9.171875
  20
-1.500000
  30
  0.0
  0
VERTEX
  8
0
  10
9.110352
  20
-1.452148
  30
  0.0
  0
VERTEX
  8
0
  10
9.066406
  20
-1.371094
  30
  0.0
  0
VERTEX
  8
0
  10
9.040039
  20
-1.256836
  30
  0.0
  0
VERTEX
  8
0
  10
9.031250
  20
-1.109375
  30
  0.0
  0
VERTEX
  8
0
  10
9.031250
  20
-1.109375
  30
  0.0
  0
VERTEX
  8
0
  10
9.043945
  20
-0.964844
  30
  0.0
  0
VERTEX
  8
0
  10
9.082031
  20
-0.765625
  30
  0.0
  0
VERTEX
  8
0
  10
9.145508
  20
-0.511719
  30
  0.0
  0
VERTEX
  8
0
  10
9.234375
  20
-0.203125
  30
  0.0
  0
VERTEX
  8
0
  10
9.234375
  20
-0.203125
  30
  0.0
  0
VERTEX
  8
0
  10
9.639648
  20
0.883789
  30
  0.0
  0
VERTEX
  8
0
  10
10.089844
  20
1.660156
  30
  0.0
  0
VERTEX
  8
0
  10
10.584961
  20
2.125977
  30
  0.0
  0
VERTEX
  8
0
  10
11.125000
  20
2.281250
  30
  0.0
  0
VERTEX
  8
0
  10
11.125000
  20
2.281250
  30
  0.0
  0
VERTEX
  8
0
  10
11.359375
  20
2.232422
  30
  0.0
  0
VERTEX
  8
0
  10
11.593750
  20
2.085938
  30
  0.0
  0
VERTEX
  8
0
  10
11.828125
  20
1.841797
  30
  0.0
  0
VERTEX
  8
0
  10
12.062500
  20
1.500000
  30
  0.0
  0
VERTEX
  8
0
  10
12.062500
  20
1.500000
  30
  0.0
  0
VERTEX
  8
0
  10
12.267578
  20
1.158203
  30
  0.0
  0
VERTEX
  8
0
  10
12.414062
  20
0.914062
  30
  0.0
  0
VERTEX
  8
0
  10
12.501953
  20
0.767578
  30
  0.0
  0
VERTEX
  8
0
  10
12.531250
  20
0.718750
  30
  0.0
  0
VERTEX
  8
0
  10
12.531250
  20
0.718750
  30
  0.0
  0
VERTEX
  8
0
  10
12.600586
  20
0.724609
  30
  0.0
  0
VERTEX
  8
0
  10
12.683594
  20
0.742188
  30
  0.0
  0
VERTEX
  8
0
  10
12.780273
  20
0.771484
  30
  0.0
  0
VERTEX
  8
0
  10
12.890625
  20
0.812500
  30
  0.0
  0
VERTEX
  8
0
  10
12.890625
  20
0.812500
  30
  0.0
  0
VERTEX
  8
0
  10
13.000000
  20
0.853516
  30
  0.0
  0
VERTEX
  8
0
  10
13.093750
  20
0.882812
  30
  0.0
  0
VERTEX
  8
0
  10
13.171875
  20
0.900391
  30
  0.0
  0
VERTEX
  8
0
  10
13.234375
  20
0.906250
  30
  0.0
  0
VERTEX
  8
0
  10
13.234375
  20
0.906250
  30
  0.0
  0
VERTEX
  8
0
  10
13.296387
  20
0.885254
  30
  0.0
  0
VERTEX
  8
0
  10
13.357422
  20
0.822266
  30
  0.0
  0
VERTEX
  8
0
  10
13.417480
  20
0.717285
  30
  0.0
  0
VERTEX
  8
0
  10
13.476562
  20
0.570312
  30
  0.0
  0
VERTEX
  8
0
  10
13.476562
  20
0.570312
  30
  0.0
  0
VERTEX
  8
0
  10
13.527832
  20
0.398926
  30
  0.0
  0
VERTEX
  8
0
  10
13.564453
  20
0.220703
  30
  0.0
  0
VERTEX
  8
0
  10
13.586426
  20
0.035645
  30
  0.0
  0
VERTEX
  8
0
  10
13.593750
  20
-0.156250
  30
  0.0
  0
SEQEND
  0
POLYLINE
  8
0
  6
CONTINUOUS
  66
  1
  70
  1
  10
  0.0
  20
  0.0
  30
  0.0
  0
VERTEX
  8
0
  10
10.921875
  20
-0.453125
  30
  0.0
  0
VERTEX
  8
0
  10
10.921875
  20
-0.453125
  30
  0.0
  0
VERTEX
  8
0
  10
10.762695
  20
-1.139648
  30
  0.0
  0
VERTEX
  8
0
  10
10.582031
  20
-1.761719
  30
  0.0
  0
VERTEX
  8
0
  10
10.379883
  20
-2.319336
  30
  0.0
  0
VERTEX
  8
0
  10
10.156250
  20
-2.812500
  30
  0.0
  0
VERTEX
  8
0
  10
10.156250
  20
-2.812500
  30
  0.0
  0
VERTEX
  8
0
  10
9.896484
  20
-3.250000
  30
  0.0
  0
VERTEX
  8
0
  10
9.632812
  20
-3.562500
  30
  0.0
  0
VERTEX
  8
0
  10
9.365234
  20
-3.750000
  30
  0.0
  0
VERTEX
  8
0
  10
9.093750
  20
-3.812500
  30
  0.0
  0
VERTEX
  8
0
  10
9.093750
  20
-3.812500
  30
  0.0
  0
VERTEX
  8
0
  10
8.917480
  20
-3.771973
  30
  0.0
  0
VERTEX
  8
0
  10
8.748047
  20
-3.650391
  30
  0.0
  0
VERTEX
  8
0
  10
8.585449
  20
-3.447754
  30
  0.0
  0
VERTEX
  8
0
  10
8.429688
  20
-3.164062
  30
  0.0
  0
VERTEX
  8
0
  10
8.429688
  20
-3.164062
  30
  0.0
  0
VERTEX
  8
0
  10
8.299316
  20
-2.880371
  30
  0.0
  0
VERTEX
  8
0
  10
8.212891
  20
-2.677734
  30
  0.0
  0
VERTEX
  8
0
  10
8.170410
  20
-2.556152
  30
  0.0
  0
VERTEX
  8
0
  10
8.171875
  20
-2.515625
  30
  0.0
  0
VERTEX
  8
0
  10
8.171875
  20
-2.515625
  30
  0.0
  0
VERTEX
  8
0
  10
8.094238
  20
-2.525879
  30
  0.0
  0
VERTEX
  8
0
  10
8.001953
  20
-2.556641
  30
  0.0
  0
VERTEX
  8
0
  10
7.895020
  20
-2.607910
  30
  0.0
  0
VERTEX
  8
0
  10
7.773438
  20
-2.679688
  30
  0.0
  0
VERTEX
  8
0
  10
7.773438
  20
-2.679688
  30
  0.0
  0
VERTEX
  8
0
  10
7.651855
  20
-2.751465
  30
  0.0
  0
VERTEX
  8
0
  10
7.544922
  20
-2.802734
  30
  0.0
  0
VERTEX
  8
0
  10
7.452637
  20
-2.833496
  30
  0.0
  0
VERTEX
  8
0
  10
7.375000
  20
-2.843750
  30
  0.0
  0
VERTEX
  8
0
  10
7.375000
  20
-2.843750
  30
  0.0
  0
VERTEX
  8
0
  10
7.334473
  20
-2.820312
  30
  0.0
  0
VERTEX
  8
0
  10
7.291016
  20
-2.750000
  30
  0.0
  0
VERTEX
  8
0
  10
7.244629
  20
-2.632812
  30
  0.0
  0
VERTEX
  8
0
  10
7.195312
  20
-2.468750
  30
  0.0
  0
VERTEX
  8
0
  10
7.195312
  20
-2.468750
  30
  0.0
  0
VERTEX
  8
0
  10
7.150879
  20
-2.290039
  30
  0.0
  0
VERTEX
  8
0
  10
7.119141
  20
-2.128906
  30
  0.0
  0
VERTEX
  8
0
  10
7.100098
  20
-1.985352
  30
  0.0
  0
VERTEX
  8
0
  10
7.093750
  20
-1.859375
  30
  0.0
  0
VERTEX
  8
0
  10
7.093750
  20
-1.859375
  30
  0.0
  0
VERTEX
  8
0
  10
7.116211
  20
-1.555664
  30
  0.0
  0
VERTEX
  8
0
  10
7.183594
  20
-1.269531
  30
  0.0
  0
VERTEX
  8
0
  10
7.295898
  20
-1.000977
  30
  0.0
  0
VERTEX
  8
0
  10
7.453125
  20
-0.750000
  30
  0.0
  0
VERTEX
  8
0
  10
7.453125
  20
-0.750000
  30
  0.0
  0
VERTEX
  8
0
  10
7.634766
  20
-0.473633
  30
  0.0
  0
VERTEX
  8
0
  10
7.773438
  20
-0.191406
  30
  0.0
  0
VERTEX
  8
0
  10
7.869141
  20
0.096680
  30
  0.0
  0
VERTEX
  8
0
  10
7.921875
  20
0.390625
  30
  0.0
  0
VERTEX
  8
0
  10
7.921875
  20
0.390625
  30
  0.0
  0
VERTEX
  8
0
  10
8.020996
  20
1.237305
  30
  0.0
  0
VERTEX
  8
0
  10
8.146484
  20
1.949219
  30
  0.0
  0
VERTEX
  8
0
  10
8.298340
  20
2.526367
  30
  0.0
  0
VERTEX
  8
0
  10
8.476562
  20
2.968750
  30
  0.0
  0
VERTEX
  8
0
  10
8.476562
  20
2.968750
  30
  0.0
  0
VERTEX
  8
0
  10
8.687012
  20
3.296875
  30
  0.0
  0
VERTEX
  8
0
  10
8.935547
  20
3.531250
  30
  0.0
  0
VERTEX
  8
0
  10
9.222168
  20
3.671875
  30
  0.0
  0
VERTEX
  8
0
  10
9.546875
  20
3.718750
  30
  0.0
  0
VERTEX
  8
0
  10
9.546875
  20
3.718750
  30
  0.0
  0
VERTEX
  8
0
  10
9.963867
  20
3.671875
  30
  0.0
  0
VERTEX
  8
0
  10
10.261719
  20
3.531250
  30
  0.0
  0
VERTEX
  8
0
  10
10.440430
  20
3.296875
  30
  0.0
  0
VERTEX
  8
0
  10
10.500000
  20
2.968750
  30
  0.0
  0
VERTEX
  8
0
  10
10.500000
  20
2.968750
  30
  0.0
  0
VERTEX
  8
0
  10
10.496094
  20
2.811523
  30
  0.0
  0
VERTEX
  8
0
  10
10.484375
  20
2.699219
  30
  0.0
  0
VERTEX
  8
0
  10
10.464844
  20
2.631836
  30
  0.0
  0
VERTEX
  8
0
  10
10.437500
  20
2.609375
  30
  0.0
  0
VERTEX
  8
0
  10
10.437500
  20
2.609375
  30
  0.0
  0
VERTEX
  8
0
  10
10.378418
  20
2.612305
  30
  0.0
  0
VERTEX
  8
0
  10
10.310547
  20
2.621094
  30
  0.0
  0
VERTEX
  8
0
  10
10.233887
  20
2.635742
  30
  0.0
  0
VERTEX
  8
0
  10
10.148438
  20
2.656250
  30
  0.0
  0
VERTEX
  8
0
  10
10.148438
  20
2.656250
  30
  0.0
  0
VERTEX
  8
0
  10
10.064941
  20
2.676758
  30
  0.0
  0
VERTEX
  8
0
  10
9.994141
  20
2.691406
  30
  0.0
  0
VERTEX
  8
0
  10
9.936035
  20
2.700195
  30
  0.0
  0
VERTEX
  8
0
  10
9.890625
  20
2.703125
  30
  0.0
  0
VERTEX
  8
0
  10
9.890625
  20
2.703125
  30
  0.0
  0
VERTEX
  8
0
  10
9.658203
  20
2.678711
  30
  0.0
  0
VERTEX
  8
0
  10
9.445312
  20
2.605469
  30
  0.0
  0
VERTEX
  8
0
  10
9.251953
  20
2.483398
  30
  0.0
  0
VERTEX
  8
0
  10
9.078125
  20
2.312500
  30
  0.0
  0
VERTEX
  8
0
  10
9.078125
  20
2.312500
  30
  0.0
  0
VERTEX
  8
0
  10
8.879883
  20
2.001953
  30
  0.0
  0
VERTEX
  8
0
  10
8.738281
  20
1.617188
  30
  0.0
  0
VERTEX
  8
0
  10
8.653320
  20
1.158203
  30
  0.0
  0
VERTEX
  8
0
  10
8.625000
  20
0.625000
  30
  0.0
  0
VERTEX
  8
0
  10
8.625000
  20
0.625000
  30
  0.0
  0
VERTEX
  8
0
  10
8.631836
  20
0.295898
  30
  0.0
  0
VERTEX
  8
0
  10
8.652344
  20
-0.003906
  30
  0.0
  0
VERTEX
  8
0
  10
8.686523
  20
-0.274414
  30
  0.0
  0
VERTEX
  8
0
  10
8.734375
  20
-0.515625
  30
  0.0
  0
VERTEX
  8
0
  10
8.328125
  20
-0.984375
  30
  0.0
  0
VERTEX
  8
0
  10
8.734375
  20
-0.515625
  30
  0.0
  0
VERTEX
  8
0
  10
8.734375
  20
-0.515625
  30
  0.0
  0
VERTEX
  8
0
  10
8.827148
  20
-1.247070
  30
  0.0
  0
VERTEX
  8
0
  10
8.949219
  20
-1.769531
  30
  0.0
  0
VERTEX
  8
0
  10
9.100586
  20
-2.083008
  30
  0.0
  0
VERTEX
  8
0
  10
9.281250
  20
-2.187500
  30
  0.0
  0
VERTEX
  8
0
  10
9.281250
  20
-2.187500
  30
  0.0
  0
VERTEX
  8
0
  10
9.530273
  20
-2.125977
  30
  0.0
  0
VERTEX
  8
0
  10
9.777344
  20
-1.941406
  30
  0.0
  0
VERTEX
  8
0
  10
10.022461
  20
-1.633789
  30
  0.0
  0
VERTEX
  8
0
  10
10.265625
  20
-1.203125
  30
  0.0
  0
VERTEX
  8
0
  10
10.265625
  20
-1.203125
  30
  0.0
  0
VERTEX
  8
0
  10
10.397461
  20
-0.928711
  30
  0.0
  0
VERTEX
  8
0
  10
10.527344
  20
-0.652344
  30
  0.0
  0
VERTEX
  8
0
  10
10.655273
  20
-0.374023
  30
  0.0
  0
VERTEX
  8
0
  10
10.781250
  20
-0.093750
  30
  0.0
  0
SEQEND
  0
POLYLINE
  8
0
  6
CONTINUOUS
  66
  1
  70
  1
  10
  0.0
  20
  0.0
  30
  0.0
  0
VERTEX
  8
0
  10
2.765625
  20
23.218750
  30
  0.0
  0
VERTEX
  8
0
  10
2.765625
  20
23.218750
  30
  0.0
  0
VERTEX
  8
0
  10
2.755371
  20
22.874512
  30
  0.0
  0
VERTEX
  8
0
  10
2.724609
  20
22.560547
  30
  0.0
  0
VERTEX
  8
0
  10
2.673340
  20
22.276855
  30
  0.0
  0
VERTEX
  8
0
  10
2.601562
  20
22.023438
  30
  0.0
  0
VERTEX
  8
0
  10
2.601562
  20
22.023438
  30
  0.0
  0
VERTEX
  8
0
  10
2.514160
  20
21.814941
  30
  0.0
  0
VERTEX
  8
0
  10
2.416016
  20
21.666016
  30
  0.0
  0
VERTEX
  8
0
  10
2.307129
  20
21.576660
  30
  0.0
  0
VERTEX
  8
0
  10
2.187500
  20
21.546875
  30
  0.0
  0
VERTEX
  8
0
  10
2.187500
  20
21.546875
  30
  0.0
  0
VERTEX
  8
0
  10
2.075684
  20
21.568359
  30
  0.0
  0
VERTEX
  8
0
  10
1.943359
  20
21.632812
  30
  0.0
  0
VERTEX
  8
0
  10
1.790527
  20
21.740234
  30
  0.0
  0
VERTEX
  8
0
  10
1.617188
  20
21.890625
  30
  0.0
  0
VERTEX
  8
0
  10
1.617188
  20
21.890625
  30
  0.0
  0
VERTEX
  8
0
  10
1.444824
  20
22.041016
  30
  0.0
  0
VERTEX
  8
0
  10
1.294922
  20
22.148438
  30
  0.0
  0
VERTEX
  8
0
  10
1.167480
  20
22.212891
  30
  0.0
  0
VERTEX
  8
0
  10
1.062500
  20
22.234375
  30
  0.0
  0
VERTEX
  8
0
  10
1.062500
  20
22.234375
  30
  0.0
  0
VERTEX
  8
0
  10
1.026367
  20
22.220703
  30
  0.0
  0
VERTEX
  8
0
  10
0.980469
  20
22.179688
  30
  0.0
  0
VERTEX
  8
0
  10
0.924805
  20
22.111328
  30
  0.0
  0
VERTEX
  8
0
  10
0.859375
  20
22.015625
  30
  0.0
  0
VERTEX
  8
0
  10
0.859375
  20
21.750000
  30
  0.0
  0
VERTEX
  8
0
  10
0.859375
  20
21.750000
  30
  0.0
  0
VERTEX
  8
0
  10
0.865234
  20
21.205078
  30
  0.0
  0
VERTEX
  8
0
  10
0.898438
  20
20.554688
  30
  0.0
  0
VERTEX
  8
0
  10
0.958984
  20
19.798828
  30
  0.0
  0
VERTEX
  8
0
  10
1.046875
  20
18.937500
  30
  0.0
  0
VERTEX
  8
0
  10
1.046875
  20
18.937500
  30
  0.0
  0
VERTEX
  8
0
  10
1.134766
  20
18.166992
  30
  0.0
  0
VERTEX
  8
0
  10
1.226562
  20
17.449219
  30
  0.0
  0
VERTEX
  8
0
  10
1.322266
  20
16.784180
  30
  0.0
  0
VERTEX
  8
0
  10
1.421875
  20
16.171875
  30
  0.0
  0
VERTEX
  8
0
  10
1.421875
  20
16.171875
  30
  0.0
  0
VERTEX
  8
0
  10
1.408691
  20
15.932617
  30
  0.0
  0
VERTEX
  8
0
  10
1.369141
  20
15.699219
  30
  0.0
  0
VERTEX
  8
0
  10
1.303223
  20
15.471680
  30
  0.0
  0
VERTEX
  8
0
  10
1.210938
  20
15.250000
  30
  0.0
  0
VERTEX
  8
0
  10
1.210938
  20
15.250000
  30
  0.0
  0
VERTEX
  8
0
  10
1.108887
  20
15.058594
  30
  0.0
  0
VERTEX
  8
0
  10
1.013672
  20
14.921875
  30
  0.0
  0
VERTEX
  8
0
  10
0.925293
  20
14.839844
  30
  0.0
  0
VERTEX
  8
0
  10
0.843750
  20
14.812500
  30
  0.0
  0
VERTEX
  8
0
  10
0.843750
  20
14.812500
  30
  0.0
  0
VERTEX
  8
0
  10
0.745117
  20
14.863281
  30
  0.0
  0
VERTEX
  8
0
  10
0.652344
  20
15.015625
  30
  0.0
  0
VERTEX
  8
0
  10
0.565430
  20
15.269531
  30
  0.0
  0
VERTEX
  8
0
  10
0.484375
  20
15.625000
  30
  0.0
  0
VERTEX
  8
0
  10
0.484375
  20
15.625000
  30
  0.0
  0
VERTEX
  8
0
  10
0.429688
  20
15.965820
  30
  0.0
  0
VERTEX
  8
0
  10
0.390625
  20
16.300781
  30
  0.0
  0
VERTEX
  8
0
  10
0.367188
  20
16.629883
  30
  0.0
  0
VERTEX
  8
0
  10
0.359375
  20
16.953125
  30
  0.0
  0
VERTEX
  8
0
  10
0.359375
  20
16.953125
  30
  0.0
  0
VERTEX
  8
0
  10
0.370117
  20
17.037109
  30
  0.0
  0
VERTEX
  8
0
  10
0.402344
  20
17.148438
  30
  0.0
  0
VERTEX
  8
0
  10
0.456055
  20
17.287109
  30
  0.0
  0
VERTEX
  8
0
  10
0.531250
  20
17.453125
  30
  0.0
  0
VERTEX
  8
0
  10
0.531250
  20
17.453125
  30
  0.0
  0
VERTEX
  8
0
  10
0.610352
  20
17.612305
  30
  0.0
  0
VERTEX
  8
0
  10
0.675781
  20
17.730469
  30
  0.0
  0
VERTEX
  8
0
  10
0.727539
  20
17.807617
  30
  0.0
  0
VERTEX
  8
0
  10
0.765625
  20
17.843750
  30
  0.0
  0
VERTEX
  8
0
  10
0.906250
  20
16.765625
  30
  0.0
  0
VERTEX
  8
0
  10
0.906250
  20
16.765625
  30
  0.0
  0
VERTEX
  8
0
  10
0.714844
  20
18.338867
  30
  0.0
  0
VERTEX
  8
0
  10
0.578125
  20
19.839844
  30
  0.0
  0
VERTEX
  8
0
  10
0.496094
  20
21.268555
  30
  0.0
  0
VERTEX
  8
0
  10
0.468750
  20
22.625000
  30
  0.0
  0
VERTEX
  8
0
  10
0.468750
  20
22.625000
  30
  0.0
  0
VERTEX
  8
0
  10
0.486328
  20
23.171875
  30
  0.0
  0
VERTEX
  8
0
  10
0.539062
  20
23.562500
  30
  0.0
  0
VERTEX
  8
0
  10
0.626953
  20
23.796875
  30
  0.0
  0
VERTEX
  8
0
  10
0.750000
  20
23.875000
  30
  0.0
  0
VERTEX
  8
0
  10
0.750000
  20
23.875000
  30
  0.0
  0
VERTEX
  8
0
  10
0.797363
  20
23.845215
  30
  0.0
  0
VERTEX
  8
0
  10
0.876953
  20
23.755859
  30
  0.0
  0
VERTEX
  8
0
  10
0.988770
  20
23.606934
  30
  0.0
  0
VERTEX
  8
0
  10
1.132812
  20
23.398438
  30
  0.0
  0
VERTEX
  8
0
  10
1.132812
  20
23.398438
  30
  0.0
  0
VERTEX
  8
0
  10
1.283691
  20
23.189941
  30
  0.0
  0
VERTEX
  8
0
  10
1.416016
  20
23.041016
  30
  0.0
  0
VERTEX
  8
0
  10
1.529785
  20
22.951660
  30
  0.0
  0
VERTEX
  8
0
  10
1.625000
  20
22.921875
  30
  0.0
  0
VERTEX
  8
0
  10
1.625000
  20
22.921875
  30
  0.0
  0
VERTEX
  8
0
  10
1.719238
  20
22.956543
  30
  0.0
  0
VERTEX
  8
0
  10
1.798828
  20
23.060547
  30
  0.0
  0
VERTEX
  8
0
  10
1.863770
  20
23.233887
  30
  0.0
  0
VERTEX
  8
0
  10
1.914062
  20
23.476562
  30
  0.0
  0
VERTEX
  8
0
  10
1.914062
  20
23.476562
  30
  0.0
  0
VERTEX
  8
0
  10
1.954590
  20
23.719238
  30
  0.0
  0
VERTEX
  8
0
  10
1.990234
  20
23.892578
  30
  0.0
  0
VERTEX
  8
0
  10
2.020996
  20
23.996582
  30
  0.0
  0
VERTEX
  8
0
  10
2.046875
  20
24.031250
  30
  0.0
  0
VERTEX
  8
0
  10
2.046875
  20
24.031250
  30
  0.0
  0
VERTEX
  8
0
  10
2.083008
  20
24.000977
  30
  0.0
  0
VERTEX
  8
0
  10
2.113281
  20
23.910156
  30
  0.0
  0
VERTEX
  8
0
  10
2.137695
  20
23.758789
  30
  0.0
  0
VERTEX
  8
0
  10
2.156250
  20
23.546875
  30
  0.0
  0
VERTEX
  8
0
  10
2.156250
  20
23.546875
  30
  0.0
  0
VERTEX
  8
0
  10
2.128906
  20
23.259766
  30
  0.0
  0
VERTEX
  8
0
  10
2.109375
  20
23.054688
  30
  0.0
  0
VERTEX
  8
0
  10
2.097656
  20
22.931641
  30
  0.0
  0
VERTEX
  8
0
  10
2.093750
  20
22.890625
  30
  0.0
  0
VERTEX
  8
0
  10
2.093750
  20
22.890625
  30
  0.0
  0
VERTEX
  8
0
  10
2.103516
  20
22.733398
  30
  0.0
  0
VERTEX
  8
0
  10
2.132812
  20
22.621094
  30
  0.0
  0
VERTEX
  8
0
  10
2.181641
  20
22.553711
  30
  0.0
  0
VERTEX
  8
0
  10
2.250000
  20
22.531250
  30
  0.0
  0
VERTEX
  8
0
  10
2.250000
  20
22.531250
  30
  0.0
  0
VERTEX
  8
0
  10
2.341797
  20
22.573242
  30
  0.0
  0
VERTEX
  8
0
  10
2.414062
  20
22.699219
  30
  0.0
  0
VERTEX
  8
0
  10
2.466797
  20
22.909180
  30
  0.0
  0
VERTEX
  8
0
  10
2.500000
  20
23.203125
  30
  0.0
  0
VERTEX
  8
0
  10
2.500000
  20
23.203125
  30
  0.0
  0
VERTEX
  8
0
  10
2.526367
  20
23.497070
  30
  0.0
  0
VERTEX
  8
0
  10
2.558594
  20
23.707031
  30
  0.0
  0
VERTEX
  8
0
  10
2.596680
  20
23.833008
  30
  0.0
  0
VERTEX
  8
0
  10
2.640625
  20
23.875000
  30
  0.0
  0
VERTEX
  8
0
  10
2.640625
  20
23.875000
  30
  0.0
  0
VERTEX
  8
0
  10
2.695312
  20
23.833984
  30
  0.0
  0
VERTEX
  8
0
  10
2.734375
  20
23.710938
  30
  0.0
  0
VERTEX
  8
0
  10
2.757812
  20
23.505859
  30
  0.0
  0
VERTEX
  8
0
  10
2.765625
  20
23.218750
  30
  0.0
  0
SEQEND
  0
POLYLINE
  8
0
  6
CONTINUOUS
  66
  1
  70
  1
  10
  0.0
  20
  0.0
  30
  0.0
  0
VERTEX
  8
0
  10
9.281250
  20
5.015625
  30
  0.0
  0
VERTEX
  8
0
  10
9.281250
  20
5.015625
  30
  0.0
  0
VERTEX
  8
0
  10
9.182617
  20
4.756836
  30
  0.0
  0
VERTEX
  8
0
  10
9.074219
  20
4.589844
  30
  0.0
  0
VERTEX
  8
0
  10
8.956055
  20
4.514648
  30
  0.0
  0
VERTEX
  8
0
  10
8.828125
  20
4.531250
  30
  0.0
  0
VERTEX
  8
0
  10
8.828125
  20
4.531250
  30
  0.0
  0
VERTEX
  8
0
  10
8.257812
  20
3.451172
  30
  0.0
  0
VERTEX
  8
0
  10
7.671875
  20
2.679688
  30
  0.0
  0
VERTEX
  8
0
  10
7.070312
  20
2.216797
  30
  0.0
  0
VERTEX
  8
0
  10
6.453125
  20
2.062500
  30
  0.0
  0
VERTEX
  8
0
  10
6.453125
  20
2.062500
  30
  0.0
  0
VERTEX
  8
0
  10
6.363281
  20
2.074219
  30
  0.0
  0
VERTEX
  8
0
  10
6.218750
  20
2.109375
  30
  0.0
  0
VERTEX
  8
0
  10
6.019531
  20
2.167969
  30
  0.0
  0
VERTEX
  8
0
  10
5.765625
  20
2.250000
  30
  0.0
  0
VERTEX
  8
0
  10
5.765625
  20
2.250000
  30
  0.0
  0
VERTEX
  8
0
  10
5.692383
  20
2.434570
  30
  0.0
  0
VERTEX
  8
0
  10
5.628906
  20
2.566406
  30
  0.0
  0
VERTEX
  8
0
  10
5.575195
  20
2.645508
  30
  0.0
  0
VERTEX
  8
0
  10
5.531250
  20
2.671875
  30
  0.0
  0
VERTEX
  8
0
  10
5.531250
  20
2.671875
  30
  0.0
  0
VERTEX
  8
0
  10
5.486328
  20
2.641113
  30
  0.0
  0
VERTEX
  8
0
  10
5.445312
  20
2.548828
  30
  0.0
  0
VERTEX
  8
0
  10
5.408203
  20
2.395020
  30
  0.0
  0
VERTEX
  8
0
  10
5.375000
  20
2.179688
  30
  0.0
  0
VERTEX
  8
0
  10
5.375000
  20
2.179688
  30
  0.0
  0
VERTEX
  8
0
  10
5.340820
  20
1.964355
  30
  0.0
  0
VERTEX
  8
0
  10
5.300781
  20
1.810547
  30
  0.0
  0
VERTEX
  8
0
  10
5.254883
  20
1.718262
  30
  0.0
  0
VERTEX
  8
0
  10
5.203125
  20
1.687500
  30
  0.0
  0
VERTEX
  8
0
  10
5.203125
  20
1.687500
  30
  0.0
  0
VERTEX
  8
0
  10
5.163086
  20
1.714355
  30
  0.0
  0
VERTEX
  8
0
  10
5.121094
  20
1.794922
  30
  0.0
  0
VERTEX
  8
0
  10
5.077148
  20
1.929199
  30
  0.0
  0
VERTEX
  8
0
  10
5.031250
  20
2.117188
  30
  0.0
  0
VERTEX
  8
0
  10
5.031250
  20
2.117188
  30
  0.0
  0
VERTEX
  8
0
  10
4.985352
  20
2.309082
  30
  0.0
  0
VERTEX
  8
0
  10
4.941406
  20
2.455078
  30
  0.0
  0
VERTEX
  8
0
  10
4.899414
  20
2.555176
  30
  0.0
  0
VERTEX
  8
0
  10
4.859375
  20
2.609375
  30
  0.0
  0
VERTEX
  8
0
  10
4.859375
  20
2.609375
  30
  0.0
  0
VERTEX
  8
0
  10
4.565430
  20
2.848633
  30
  0.0
  0
VERTEX
  8
0
  10
4.183594
  20
3.019531
  30
  0.0
  0
VERTEX
  8
0
  10
3.713867
  20
3.122070
  30
  0.0
  0
VERTEX
  8
0
  10
3.156250
  20
3.156250
  30
  0.0
  0
VERTEX
  8
0
  10
3.156250
  20
3.156250
  30
  0.0
  0
VERTEX
  8
0
  10
3.052246
  20
3.140137
  30
  0.0
  0
VERTEX
  8
0
  10
2.958984
  20
3.091797
  30
  0.0
  0
VERTEX
  8
0
  10
2.876465
  20
3.011230
  30
  0.0
  0
VERTEX
  8
0
  10
2.804688
  20
2.898438
  30
  0.0
  0
VERTEX
  8
0
  10
2.804688
  20
2.898438
  30
  0.0
  0
VERTEX
  8
0
  10
2.744629
  20
2.785645
  30
  0.0
  0
VERTEX
  8
0
  10
2.697266
  20
2.705078
  30
  0.0
  0
VERTEX
  8
0
  10
2.662598
  20
2.656738
  30
  0.0
  0
VERTEX
  8
0
  10
2.640625
  20
2.640625
  30
  0.0
  0
VERTEX
  8
0
  10
2.375000
  20
3.156250
  30
  0.0
  0
VERTEX
  8
0
  10
2.375000
  20
3.156250
  30
  0.0
  0
VERTEX
  8
0
  10
2.349121
  20
3.136230
  30
  0.0
  0
VERTEX
  8
0
  10
2.318359
  20
3.076172
  30
  0.0
  0
VERTEX
  8
0
  10
2.282715
  20
2.976074
  30
  0.0
  0
VERTEX
  8
0
  10
2.242188
  20
2.835938
  30
  0.0
  0
VERTEX
  8
0
  10
2.242188
  20
2.835938
  30
  0.0
  0
VERTEX
  8
0
  10
2.195801
  20
2.695801
  30
  0.0
  0
VERTEX
  8
0
  10
2.142578
  20
2.595703
  30
  0.0
  0
VERTEX
  8
0
  10
2.082520
  20
2.535645
  30
  0.0
  0
VERTEX
  8
0
  10
2.015625
  20
2.515625
  30
  0.0
  0
VERTEX
  8
0
  10
2.015625
  20
2.515625
  30
  0.0
  0
VERTEX
  8
0
  10
1.963867
  20
2.497070
  30
  0.0
  0
VERTEX
  8
0
  10
1.886719
  20
2.441406
  30
  0.0
  0
VERTEX
  8
0
  10
1.784180
  20
2.348633
  30
  0.0
  0
VERTEX
  8
0
  10
1.656250
  20
2.218750
  30
  0.0
  0
VERTEX
  8
0
  10
1.656250
  20
2.218750
  30
  0.0
  0
VERTEX
  8
0
  10
1.515625
  20
2.044922
  30
  0.0
  0
VERTEX
  8
0
  10
1.406250
  20
1.851562
  30
  0.0
  0
VERTEX
  8
0
  10
1.328125
  20
1.638672
  30
  0.0
  0
VERTEX
  8
0
  10
1.281250
  20
1.406250
  30
  0.0
  0
VERTEX
  8
0
  10
1.281250
  20
1.406250
  30
  0.0
  0
VERTEX
  8
0
  10
1.256836
  20
1.076172
  30
  0.0
  0
VERTEX
  8
0
  10
1.230469
  20
0.742188
  30
  0.0
  0
VERTEX
  8
0
  10
1.202148
  20
0.404297
  30
  0.0
  0
VERTEX
  8
0
  10
1.171875
  20
0.062500
  30
  0.0
  0
VERTEX
  8
0
  10
1.171875
  20
0.062500
  30
  0.0
  0
VERTEX
  8
0
  10
1.143555
  20
-0.216797
  30
  0.0
  0
VERTEX
  8
0
  10
1.089844
  20
-0.507812
  30
  0.0
  0
VERTEX
  8
0
  10
1.010742
  20
-0.810547
  30
  0.0
  0
VERTEX
  8
0
  10
0.906250
  20
-1.125000
  30
  0.0
  0
VERTEX
  8
0
  10
0.906250
  20
-1.125000
  30
  0.0
  0
VERTEX
  8
0
  10
0.791016
  20
-1.407227
  30
  0.0
  0
VERTEX
  8
0
  10
0.679688
  20
-1.613281
  30
  0.0
  0
VERTEX
  8
0
  10
0.572266
  20
-1.743164
  30
  0.0
  0
VERTEX
  8
0
  10
0.468750
  20
-1.796875
  30
  0.0
  0
VERTEX
  8
0
  10
0.421875
  20
-1.437500
  30
  0.0
  0
VERTEX
  8
0
  10
0.421875
  20
-1.437500
  30
  0.0
  0
VERTEX
  8
0
  10
0.435547
  20
-1.369141
  30
  0.0
  0
VERTEX
  8
0
  10
0.476562
  20
-1.226562
  30
  0.0
  0
VERTEX
  8
0
  10
0.544922
  20
-1.009766
  30
  0.0
  0
VERTEX
  8
0
  10
0.640625
  20
-0.718750
  30
  0.0
  0
VERTEX
  8
0
  10
0.640625
  20
-0.718750
  30
  0.0
  0
VERTEX
  8
0
  10
0.736328
  20
-0.380859
  30
  0.0
  0
VERTEX
  8
0
  10
0.804688
  20
-0.023438
  30
  0.0
  0
VERTEX
  8
0
  10
0.845703
  20
0.353516
  30
  0.0
  0
VERTEX
  8
0
  10
0.859375
  20
0.750000
  30
  0.0
  0
VERTEX
  8
0
  10
0.859375
  20
0.750000
  30
  0.0
  0
VERTEX
  8
0
  10
0.855957
  20
0.876953
  30
  0.0
  0
VERTEX
  8
0
  10
0.845703
  20
1.023438
  30
  0.0
  0
VERTEX
  8
0
  10
0.828613
  20
1.189453
  30
  0.0
  0
VERTEX
  8
0
  10
0.804688
  20
1.375000
  30
  0.0
  0
VERTEX
  8
0
  10
0.804688
  20
1.375000
  30
  0.0
  0
VERTEX
  8
0
  10
0.780762
  20
1.557617
  30
  0.0
  0
VERTEX
  8
0
  10
0.763672
  20
1.714844
  30
  0.0
  0
VERTEX
  8
0
  10
0.753418
  20
1.846680
  30
  0.0
  0
VERTEX
  8
0
  10
0.750000
  20
1.953125
  30
  0.0
  0
VERTEX
  8
0
  10
0.750000
  20
1.953125
  30
  0.0
  0
VERTEX
  8
0
  10
0.778320
  20
2.317383
  30
  0.0
  0
VERTEX
  8
0
  10
0.863281
  20
2.628906
  30
  0.0
  0
VERTEX
  8
0
  10
1.004883
  20
2.887695
  30
  0.0
  0
VERTEX
  8
0
  10
1.203125
  20
3.093750
  30
  0.0
  0
VERTEX
  8
0
  10
1.203125
  20
3.093750
  30
  0.0
  0
VERTEX
  8
0
  10
1.401367
  20
3.281250
  30
  0.0
  0
VERTEX
  8
0
  10
1.542969
  20
3.484375
  30
  0.0
  0
VERTEX
  8
0
  10
1.627930
  20
3.703125
  30
  0.0
  0
VERTEX
  8
0
  10
1.656250
  20
3.937500
  30
  0.0
  0
VERTEX
  8
0
  10
1.656250
  20
3.937500
  30
  0.0
  0
VERTEX
  8
0
  10
1.644531
  20
4.054688
  30
  0.0
  0
VERTEX
  8
0
  10
1.609375
  20
4.203125
  30
  0.0
  0
VERTEX
  8
0
  10
1.550781
  20
4.382812
  30
  0.0
  0
VERTEX
  8
0
  10
1.468750
  20
4.593750
  30
  0.0
  0
VERTEX
  8
0
  10
1.421875
  20
4.765625
  30
  0.0
  0
VERTEX
  8
0
  10
1.421875
  20
4.765625
  30
  0.0
  0
VERTEX
  8
0
  10
1.436523
  20
4.895508
  30
  0.0
  0
VERTEX
  8
0
  10
1.464844
  20
4.988281
  30
  0.0
  0
VERTEX
  8
0
  10
1.506836
  20
5.043945
  30
  0.0
  0
VERTEX
  8
0
  10
1.562500
  20
5.062500
  30
  0.0
  0
VERTEX
  8
0
  10
1.562500
  20
5.062500
  30
  0.0
  0
VERTEX
  8
0
  10
1.643555
  20
5.032715
  30
  0.0
  0
VERTEX
  8
0
  10
1.730469
  20
4.943359
  30
  0.0
  0
VERTEX
  8
0
  10
1.823242
  20
4.794434
  30
  0.0
  0
VERTEX
  8
0
  10
1.921875
  20
4.585938
  30
  0.0
  0
VERTEX
  8
0
  10
1.921875
  20
4.585938
  30
  0.0
  0
VERTEX
  8
0
  10
2.012695
  20
4.377441
  30
  0.0
  0
VERTEX
  8
0
  10
2.082031
  20
4.228516
  30
  0.0
  0
VERTEX
  8
0
  10
2.129883
  20
4.139160
  30
  0.0
  0
VERTEX
  8
0
  10
2.156250
  20
4.109375
  30
  0.0
  0
VERTEX
  8
0
  10
2.156250
  20
4.109375
  30
  0.0
  0
VERTEX
  8
0
  10
2.183105
  20
4.127930
  30
  0.0
  0
VERTEX
  8
0
  10
2.216797
  20
4.183594
  30
  0.0
  0
VERTEX
  8
0
  10
2.257324
  20
4.276367
  30
  0.0
  0
VERTEX
  8
0
  10
2.304688
  20
4.406250
  30
  0.0
  0
VERTEX
  8
0
  10
2.304688
  20
4.406250
  30
  0.0
  0
VERTEX
  8
0
  10
2.354980
  20
4.536133
  30
  0.0
  0
VERTEX
  8
0
  10
2.404297
  20
4.628906
  30
  0.0
  0
VERTEX
  8
0
  10
2.452637
  20
4.684570
  30
  0.0
  0
VERTEX
  8
0
  10
2.500000
  20
4.703125
  30
  0.0
  0
VERTEX
  8
0
  10
2.500000
  20
4.703125
  30
  0.0
  0
VERTEX
  8
0
  10
2.587891
  20
4.573242
  30
  0.0
  0
VERTEX
  8
0
  10
2.695312
  20
4.480469
  30
  0.0
  0
VERTEX
  8
0
  10
2.822266
  20
4.424805
  30
  0.0
  0
VERTEX
  8
0
  10
2.968750
  20
4.406250
  30
  0.0
  0
VERTEX
  8
0
  10
4.750000
  20
4.406250
  30
  0.0
  0
VERTEX
  8
0
  10
4.750000
  20
4.406250
  30
  0.0
  0
VERTEX
  8
0
  10
4.801758
  20
4.423340
  30
  0.0
  0
VERTEX
  8
0
  10
4.847656
  20
4.474609
  30
  0.0
  0
VERTEX
  8
0
  10
4.887695
  20
4.560059
  30
  0.0
  0
VERTEX
  8
0
  10
4.921875
  20
4.679688
  30
  0.0
  0
VERTEX
  8
0
  10
4.921875
  20
4.679688
  30
  0.0
  0
VERTEX
  8
0
  10
4.953125
  20
4.799316
  30
  0.0
  0
VERTEX
  8
0
  10
4.984375
  20
4.884766
  30
  0.0
  0
VERTEX
  8
0
  10
5.015625
  20
4.936035
  30
  0.0
  0
VERTEX
  8
0
  10
5.046875
  20
4.953125
  30
  0.0
  0
VERTEX
  8
0
  10
5.046875
  20
4.953125
  30
  0.0
  0
VERTEX
  8
0
  10
5.104980
  20
4.921875
  30
  0.0
  0
VERTEX
  8
0
  10
5.154297
  20
4.828125
  30
  0.0
  0
VERTEX
  8
0
  10
5.194824
  20
4.671875
  30
  0.0
  0
VERTEX
  8
0
  10
5.226562
  20
4.453125
  30
  0.0
  0
VERTEX
  8
0
  10
5.226562
  20
4.453125
  30
  0.0
  0
VERTEX
  8
0
  10
5.257324
  20
4.234375
  30
  0.0
  0
VERTEX
  8
0
  10
5.294922
  20
4.078125
  30
  0.0
  0
VERTEX
  8
0
  10
5.339355
  20
3.984375
  30
  0.0
  0
VERTEX
  8
0
  10
5.390625
  20
3.953125
  30
  0.0
  0
VERTEX
  8
0
  10
5.390625
  20
3.953125
  30
  0.0
  0
VERTEX
  8
0
  10
5.429199
  20
3.983398
  30
  0.0
  0
VERTEX
  8
0
  10
5.466797
  20
4.074219
  30
  0.0
  0
VERTEX
  8
0
  10
5.503418
  20
4.225586
  30
  0.0
  0
VERTEX
  8
0
  10
5.539062
  20
4.437500
  30
  0.0
  0
VERTEX
  8
0
  10
5.539062
  20
4.437500
  30
  0.0
  0
VERTEX
  8
0
  10
5.577637
  20
4.649414
  30
  0.0
  0
VERTEX
  8
0
  10
5.623047
  20
4.800781
  30
  0.0
  0
VERTEX
  8
0
  10
5.675293
  20
4.891602
  30
  0.0
  0
VERTEX
  8
0
  10
5.734375
  20
4.921875
  30
  0.0
  0
VERTEX
  8
0
  10
5.734375
  20
4.921875
  30
  0.0
  0
VERTEX
  8
0
  10
5.784668
  20
4.902344
  30
  0.0
  0
VERTEX
  8
0
  10
5.841797
  20
4.843750
  30
  0.0
  0
VERTEX
  8
0
  10
5.905762
  20
4.746094
  30
  0.0
  0
VERTEX
  8
0
  10
5.976562
  20
4.609375
  30
  0.0
  0
VERTEX
  8
0
  10
5.976562
  20
4.609375
  30
  0.0
  0
VERTEX
  8
0
  10
6.047363
  20
4.472656
  30
  0.0
  0
VERTEX
  8
0
  10
6.111328
  20
4.375000
  30
  0.0
  0
VERTEX
  8
0
  10
6.168457
  20
4.316406
  30
  0.0
  0
VERTEX
  8
0
  10
6.218750
  20
4.296875
  30
  0.0
  0
VERTEX
  8
0
  10
6.218750
  20
4.296875
  30
  0.0
  0
VERTEX
  8
0
  10
6.415527
  20
4.347168
  30
  0.0
  0
VERTEX
  8
0
  10
6.646484
  20
4.498047
  30
  0.0
  0
VERTEX
  8
0
  10
6.911621
  20
4.749512
  30
  0.0
  0
VERTEX
  8
0
  10
7.210938
  20
5.101562
  30
  0.0
  0
VERTEX
  8
0
  10
7.210938
  20
5.101562
  30
  0.0
  0
VERTEX
  8
0
  10
7.501465
  20
5.498535
  30
  0.0
  0
VERTEX
  8
0
  10
7.740234
  20
5.884766
  30
  0.0
  0
VERTEX
  8
0
  10
7.927246
  20
6.260254
  30
  0.0
  0
VERTEX
  8
0
  10
8.062500
  20
6.625000
  30
  0.0
  0
VERTEX
  8
0
  10
8.062500
  20
6.625000
  30
  0.0
  0
VERTEX
  8
0
  10
8.055664
  20
6.720703
  30
  0.0
  0
VERTEX
  8
0
  10
8.050781
  20
6.789062
  30
  0.0
  0
VERTEX
  8
0
  10
8.047852
  20
6.830078
  30
  0.0
  0
VERTEX
  8
0
  10
8.046875
  20
6.843750
  30
  0.0
  0
VERTEX
  8
0
  10
8.046875
  20
6.843750
  30
  0.0
  0
VERTEX
  8
0
  10
8.072266
  20
7.094727
  30
  0.0
  0
VERTEX
  8
0
  10
8.148438
  20
7.378906
  30
  0.0
  0
VERTEX
  8
0
  10
8.275391
  20
7.696289
  30
  0.0
  0
VERTEX
  8
0
  10
8.453125
  20
8.046875
  30
  0.0
  0
VERTEX
  8
0
  10
8.453125
  20
8.046875
  30
  0.0
  0
VERTEX
  8
0
  10
8.554688
  20
7.687500
  30
  0.0
  0
VERTEX
  8
0
  10
8.656250
  20
7.312500
  30
  0.0
  0
VERTEX
  8
0
  10
8.757812
  20
6.921875
  30
  0.0
  0
VERTEX
  8
0
  10
8.859375
  20
6.515625
  30
  0.0
  0
VERTEX
  8
0
  10
8.421875
  20
5.453125
  30
  0.0
  0
VERTEX
  8
0
  10
8.859375
  20
6.515625
  30
  0.0
  0
SEQEND
  0
POLYLINE
  8
0
  6
CONTINUOUS
  66
  1
  70
  1
  10
  0.0
  20
  0.0
  30
  0.0
  0
VERTEX
  8
0
  10
7.140625
  20
0.187500
  30
  0.0
  0
VERTEX
  8
0
  10
7.140625
  20
0.187500
  30
  0.0
  0
VERTEX
  8
0
  10
7.125000
  20
-0.037598
  30
  0.0
  0
VERTEX
  8
0
  10
7.078125
  20
-0.291016
  30
  0.0
  0
VERTEX
  8
0
  10
7.000000
  20
-0.572754
  30
  0.0
  0
VERTEX
  8
0
  10
6.890625
  20
-0.882812
  30
  0.0
  0
VERTEX
  8
0
  10
6.890625
  20
-0.882812
  30
  0.0
  0
VERTEX
  8
0
  10
6.781250
  20
-1.185059
  30
  0.0
  0
VERTEX
  8
0
  10
6.703125
  20
-1.443359
  30
  0.0
  0
VERTEX
  8
0
  10
6.656250
  20
-1.657715
  30
  0.0
  0
VERTEX
  8
0
  10
6.640625
  20
-1.828125
  30
  0.0
  0
VERTEX
  8
0
  10
6.640625
  20
-1.828125
  30
  0.0
  0
VERTEX
  8
0
  10
6.652832
  20
-1.970703
  30
  0.0
  0
VERTEX
  8
0
  10
6.689453
  20
-2.132812
  30
  0.0
  0
VERTEX
  8
0
  10
6.750488
  20
-2.314453
  30
  0.0
  0
VERTEX
  8
0
  10
6.835938
  20
-2.515625
  30
  0.0
  0
VERTEX
  8
0
  10
6.835938
  20
-2.515625
  30
  0.0
  0
VERTEX
  8
0
  10
6.923340
  20
-2.716797
  30
  0.0
  0
VERTEX
  8
0
  10
6.990234
  20
-2.898438
  30
  0.0
  0
VERTEX
  8
0
  10
7.036621
  20
-3.060547
  30
  0.0
  0
VERTEX
  8
0
  10
7.062500
  20
-3.203125
  30
  0.0
  0
VERTEX
  8
0
  10
7.062500
  20
-3.203125
  30
  0.0
  0
VERTEX
  8
0
  10
7.038574
  20
-3.355469
  30
  0.0
  0
VERTEX
  8
0
  10
6.982422
  20
-3.562500
  30
  0.0
  0
VERTEX
  8
0
  10
6.894043
  20
-3.824219
  30
  0.0
  0
VERTEX
  8
0
  10
6.773438
  20
-4.140625
  30
  0.0
  0
VERTEX
  8
0
  10
6.773438
  20
-4.140625
  30
  0.0
  0
VERTEX
  8
0
  10
6.648926
  20
-4.445312
  30
  0.0
  0
VERTEX
  8
0
  10
6.548828
  20
-4.671875
  30
  0.0
  0
VERTEX
  8
0
  10
6.473145
  20
-4.820312
  30
  0.0
  0
VERTEX
  8
0
  10
6.421875
  20
-4.890625
  30
  0.0
  0
VERTEX
  8
0
  10
6.250000
  20
-4.687500
  30
  0.0
  0
VERTEX
  8
0
  10
6.250000
  20
-4.687500
  30
  0.0
  0
VERTEX
  8
0
  10
6.179688
  20
-4.151367
  30
  0.0
  0
VERTEX
  8
0
  10
6.109375
  20
-3.511719
  30
  0.0
  0
VERTEX
  8
0
  10
6.039062
  20
-2.768555
  30
  0.0
  0
VERTEX
  8
0
  10
5.968750
  20
-1.921875
  30
  0.0
  0
VERTEX
  8
0
  10
6.187500
  20
-1.296875
  30
  0.0
  0
VERTEX
  8
0
  10
5.968750
  20
-1.921875
  30
  0.0
  0
VERTEX
  8
0
  10
5.968750
  20
-1.921875
  30
  0.0
  0
VERTEX
  8
0
  10
5.834961
  20
-1.726562
  30
  0.0
  0
VERTEX
  8
0
  10
5.699219
  20
-1.531250
  30
  0.0
  0
VERTEX
  8
0
  10
5.561523
  20
-1.335938
  30
  0.0
  0
VERTEX
  8
0
  10
5.421875
  20
-1.140625
  30
  0.0
  0
VERTEX
  8
0
  10
5.421875
  20
-1.140625
  30
  0.0
  0
VERTEX
  8
0
  10
5.244141
  20
-0.833008
  30
  0.0
  0
VERTEX
  8
0
  10
5.117188
  20
-0.566406
  30
  0.0
  0
VERTEX
  8
0
  10
5.041016
  20
-0.340820
  30
  0.0
  0
VERTEX
  8
0
  10
5.015625
  20
-0.156250
  30
  0.0
  0
VERTEX
  8
0
  10
5.015625
  20
-0.156250
  30
  0.0
  0
VERTEX
  8
0
  10
5.034668
  20
-0.004883
  30
  0.0
  0
VERTEX
  8
0
  10
5.091797
  20
0.199219
  30
  0.0
  0
VERTEX
  8
0
  10
5.187012
  20
0.456055
  30
  0.0
  0
VERTEX
  8
0
  10
5.320312
  20
0.765625
  30
  0.0
  0
VERTEX
  8
0
  10
5.320312
  20
0.765625
  30
  0.0
  0
VERTEX
  8
0
  10
5.458496
  20
1.059570
  30
  0.0
  0
VERTEX
  8
0
  10
5.568359
  20
1.269531
  30
  0.0
  0
VERTEX
  8
0
  10
5.649902
  20
1.395508
  30
  0.0
  0
VERTEX
  8
0
  10
5.703125
  20
1.437500
  30
  0.0
  0
VERTEX
  8
0
  10
5.703125
  20
1.437500
  30
  0.0
  0
VERTEX
  8
0
  10
5.762207
  20
1.394531
  30
  0.0
  0
VERTEX
  8
0
  10
5.814453
  20
1.265625
  30
  0.0
  0
VERTEX
  8
0
  10
5.859863
  20
1.050781
  30
  0.0
  0
VERTEX
  8
0
  10
5.898438
  20
0.750000
  30
  0.0
  0
VERTEX
  8
0
  10
5.898438
  20
0.750000
  30
  0.0
  0
VERTEX
  8
0
  10
5.938965
  20
0.449219
  30
  0.0
  0
VERTEX
  8
0
  10
5.990234
  20
0.234375
  30
  0.0
  0
VERTEX
  8
0
  10
6.052246
  20
0.105469
  30
  0.0
  0
VERTEX
  8
0
  10
6.125000
  20
0.062500
  30
  0.0
  0
VERTEX
  8
0
  10
6.125000
  20
0.062500
  30
  0.0
  0
VERTEX
  8
0
  10
6.167480
  20
0.092285
  30
  0.0
  0
VERTEX
  8
0
  10
6.232422
  20
0.181641
  30
  0.0
  0
VERTEX
  8
0
  10
6.319824
  20
0.330566
  30
  0.0
  0
VERTEX
  8
0
  10
6.429688
  20
0.539062
  30
  0.0
  0
VERTEX
  8
0
  10
6.429688
  20
0.539062
  30
  0.0
  0
VERTEX
  8
0
  10
6.544434
  20
0.747559
  30
  0.0
  0
VERTEX
  8
0
  10
6.646484
  20
0.896484
  30
  0.0
  0
VERTEX
  8
0
  10
6.735840
  20
0.985840
  30
  0.0
  0
VERTEX
  8
0
  10
6.812500
  20
1.015625
  30
  0.0
  0
VERTEX
  8
0
  10
6.812500
  20
1.015625
  30
  0.0
  0
VERTEX
  8
0
  10
6.873535
  20
1.000000
  30
  0.0
  0
VERTEX
  8
0
  10
6.931641
  20
0.953125
  30
  0.0
  0
VERTEX
  8
0
  10
6.986816
  20
0.875000
  30
  0.0
  0
VERTEX
  8
0
  10
7.039062
  20
0.765625
  30
  0.0
  0
VERTEX
  8
0
  10
7.039062
  20
0.765625
  30
  0.0
  0
VERTEX
  8
0
  10
7.083496
  20
0.635742
  30
  0.0
  0
VERTEX
  8
0
  10
7.115234
  20
0.496094
  30
  0.0
  0
VERTEX
  8
0
  10
7.134277
  20
0.346680
  30
  0.0
  0
VERTEX
  8
0
  10
7.140625
  20
0.187500
  30
  0.0
  0
SEQEND
  0
POLYLINE
  8
0
  6
CONTINUOUS
  66
  1
  70
  1
  10
  0.0
  20
  0.0
  30
  0.0
  0
VERTEX
  8
0
  10
5.921875
  20
-4.562500
  30
  0.0
  0
VERTEX
  8
0
  10
5.921875
  20
-4.562500
  30
  0.0
  0
VERTEX
  8
0
  10
5.912109
  20
-4.835938
  30
  0.0
  0
VERTEX
  8
0
  10
5.882812
  20
-5.031250
  30
  0.0
  0
VERTEX
  8
0
  10
5.833984
  20
-5.148438
  30
  0.0
  0
VERTEX
  8
0
  10
5.765625
  20
-5.187500
  30
  0.0
  0
VERTEX
  8
0
  10
5.765625
  20
-5.187500
  30
  0.0
  0
VERTEX
  8
0
  10
5.674805
  20
-5.144531
  30
  0.0
  0
VERTEX
  8
0
  10
5.496094
  20
-5.015625
  30
  0.0
  0
VERTEX
  8
0
  10
5.229492
  20
-4.800781
  30
  0.0
  0
VERTEX
  8
0
  10
4.875000
  20
-4.500000
  30
  0.0
  0
VERTEX
  8
0
  10
4.812500
  20
-3.750000
  30
  0.0
  0
VERTEX
  8
0
  10
4.875000
  20
-4.500000
  30
  0.0
  0
VERTEX
  8
0
  10
4.875000
  20
-4.500000
  30
  0.0
  0
VERTEX
  8
0
  10
4.828125
  20
-4.650391
  30
  0.0
  0
VERTEX
  8
0
  10
4.687500
  20
-4.945312
  30
  0.0
  0
VERTEX
  8
0
  10
4.453125
  20
-5.384766
  30
  0.0
  0
VERTEX
  8
0
  10
4.125000
  20
-5.968750
  30
  0.0
  0
VERTEX
  8
0
  10
4.125000
  20
-5.968750
  30
  0.0
  0
VERTEX
  8
0
  10
4.001953
  20
-5.854492
  30
  0.0
  0
VERTEX
  8
0
  10
3.914062
  20
-5.511719
  30
  0.0
  0
VERTEX
  8
0
  10
3.861328
  20
-4.940430
  30
  0.0
  0
VERTEX
  8
0
  10
3.843750
  20
-4.140625
  30
  0.0
  0
VERTEX
  8
0
  10
3.843750
  20
-4.140625
  30
  0.0
  0
VERTEX
  8
0
  10
3.857422
  20
-3.979492
  30
  0.0
  0
VERTEX
  8
0
  10
3.898438
  20
-3.855469
  30
  0.0
  0
VERTEX
  8
0
  10
3.966797
  20
-3.768555
  30
  0.0
  0
VERTEX
  8
0
  10
4.062500
  20
-3.718750
  30
  0.0
  0
VERTEX
  8
0
  10
4.062500
  20
-3.718750
  30
  0.0
  0
VERTEX
  8
0
  10
4.133789
  20
-3.701172
  30
  0.0
  0
VERTEX
  8
0
  10
4.207031
  20
-3.679688
  30
  0.0
  0
VERTEX
  8
0
  10
4.282227
  20
-3.654297
  30
  0.0
  0
VERTEX
  8
0
  10
4.359375
  20
-3.625000
  30
  0.0
  0
VERTEX
  8
0
  10
4.359375
  20
-3.625000
  30
  0.0
  0
VERTEX
  8
0
  10
4.414062
  20
-3.533203
  30
  0.0
  0
VERTEX
  8
0
  10
4.453125
  20
-3.398438
  30
  0.0
  0
VERTEX
  8
0
  10
4.476562
  20
-3.220703
  30
  0.0
  0
VERTEX
  8
0
  10
4.484375
  20
-3.000000
  30
  0.0
  0
VERTEX
  8
0
  10
4.484375
  20
-3.000000
  30
  0.0
  0
VERTEX
  8
0
  10
4.484375
  20
-3.160156
  30
  0.0
  0
VERTEX
  8
0
  10
4.484375
  20
-3.078125
  30
  0.0
  0
VERTEX
  8
0
  10
4.484375
  20
-2.753906
  30
  0.0
  0
VERTEX
  8
0
  10
4.484375
  20
-2.187500
  30
  0.0
  0
VERTEX
  8
0
  10
4.484375
  20
-2.187500
  30
  0.0
  0
VERTEX
  8
0
  10
4.502930
  20
-1.797852
  30
  0.0
  0
VERTEX
  8
0
  10
4.558594
  20
-1.519531
  30
  0.0
  0
VERTEX
  8
0
  10
4.651367
  20
-1.352539
  30
  0.0
  0
VERTEX
  8
0
  10
4.781250
  20
-1.296875
  30
  0.0
  0
VERTEX
  8
0
  10
4.781250
  20
-1.296875
  30
  0.0
  0
VERTEX
  8
0
  10
4.895020
  20
-1.358398
  30
  0.0
  0
VERTEX
  8
0
  10
4.986328
  20
-1.542969
  30
  0.0
  0
VERTEX
  8
0
  10
5.055176
  20
-1.850586
  30
  0.0
  0
VERTEX
  8
0
  10
5.101562
  20
-2.281250
  30
  0.0
  0
VERTEX
  8
0
  10
5.101562
  20
-2.281250
  30
  0.0
  0
VERTEX
  8
0
  10
5.141113
  20
-2.711914
  30
  0.0
  0
VERTEX
  8
0
  10
5.189453
  20
-3.019531
  30
  0.0
  0
VERTEX
  8
0
  10
5.246582
  20
-3.204102
  30
  0.0
  0
VERTEX
  8
0
  10
5.312500
  20
-3.265625
  30
  0.0
  0
VERTEX
  8
0
  10
5.671875
  20
-2.843750
  30
  0.0
  0
VERTEX
  8
0
  10
5.671875
  20
-2.843750
  30
  0.0
  0
VERTEX
  8
0
  10
5.699219
  20
-2.847656
  30
  0.0
  0
VERTEX
  8
0
  10
5.734375
  20
-2.890625
  30
  0.0
  0
VERTEX
  8
0
  10
5.777344
  20
-2.972656
  30
  0.0
  0
VERTEX
  8
0
  10
5.828125
  20
-3.093750
  30
  0.0
  0
VERTEX
  8
0
  10
5.828125
  20
-3.093750
  30
  0.0
  0
VERTEX
  8
0
  10
5.837891
  20
-3.191406
  30
  0.0
  0
VERTEX
  8
0
  10
5.851562
  20
-3.343750
  30
  0.0
  0
VERTEX
  8
0
  10
5.869141
  20
-3.550781
  30
  0.0
  0
VERTEX
  8
0
  10
5.890625
  20
-3.812500
  30
  0.0
  0
VERTEX
  8
0
  10
5.890625
  20
-3.812500
  30
  0.0
  0
VERTEX
  8
0
  10
5.904297
  20
-4.029297
  30
  0.0
  0
VERTEX
  8
0
  10
5.914062
  20
-4.226562
  30
  0.0
  0
VERTEX
  8
0
  10
5.919922
  20
-4.404297
  30
  0.0
  0
VERTEX
  8
0
  10
5.921875
  20
-4.562500
  30
  0.0
  0
SEQEND
  0
POLYLINE
  8
0
  6
CONTINUOUS
  66
  1
  70
  1
  10
  0.0
  20
  0.0
  30
  0.0
  0
VERTEX
  8
0
  10
4.687500
  20
0.843750
  30
  0.0
  0
VERTEX
  8
0
  10
4.687500
  20
0.843750
  30
  0.0
  0
VERTEX
  8
0
  10
4.686523
  20
0.448242
  30
  0.0
  0
VERTEX
  8
0
  10
4.683594
  20
0.136719
  30
  0.0
  0
VERTEX
  8
0
  10
4.678711
  20
-0.090820
  30
  0.0
  0
VERTEX
  8
0
  10
4.671875
  20
-0.234375
  30
  0.0
  0
VERTEX
  8
0
  10
4.671875
  20
-0.234375
  30
  0.0
  0
VERTEX
  8
0
  10
4.640625
  20
-0.528320
  30
  0.0
  0
VERTEX
  8
0
  10
4.593750
  20
-0.738281
  30
  0.0
  0
VERTEX
  8
0
  10
4.531250
  20
-0.864258
  30
  0.0
  0
VERTEX
  8
0
  10
4.453125
  20
-0.906250
  30
  0.0
  0
VERTEX
  8
0
  10
4.453125
  20
-0.906250
  30
  0.0
  0
VERTEX
  8
0
  10
4.417969
  20
-0.899414
  30
  0.0
  0
VERTEX
  8
0
  10
4.375000
  20
-0.878906
  30
  0.0
  0
VERTEX
  8
0
  10
4.324219
  20
-0.844727
  30
  0.0
  0
VERTEX
  8
0
  10
4.265625
  20
-0.796875
  30
  0.0
  0
VERTEX
  8
0
  10
4.265625
  20
-0.796875
  30
  0.0
  0
VERTEX
  8
0
  10
4.206055
  20
-0.749023
  30
  0.0
  0
VERTEX
  8
0
  10
4.152344
  20
-0.714844
  30
  0.0
  0
VERTEX
  8
0
  10
4.104492
  20
-0.694336
  30
  0.0
  0
VERTEX
  8
0
  10
4.062500
  20
-0.687500
  30
  0.0
  0
VERTEX
  8
0
  10
4.062500
  20
-0.687500
  30
  0.0
  0
VERTEX
  8
0
  10
3.985840
  20
-0.731445
  30
  0.0
  0
VERTEX
  8
0
  10
3.927734
  20
-0.863281
  30
  0.0
  0
VERTEX
  8
0
  10
3.888184
  20
-1.083008
  30
  0.0
  0
VERTEX
  8
0
  10
3.867188
  20
-1.390625
  30
  0.0
  0
VERTEX
  8
0
  10
3.867188
  20
-1.390625
  30
  0.0
  0
VERTEX
  8
0
  10
3.855957
  20
-1.742188
  30
  0.0
  0
VERTEX
  8
0
  10
3.845703
  20
-2.093750
  30
  0.0
  0
VERTEX
  8
0
  10
3.836426
  20
-2.445312
  30
  0.0
  0
VERTEX
  8
0
  10
3.828125
  20
-2.796875
  30
  0.0
  0
VERTEX
  8
0
  10
3.828125
  20
-2.796875
  30
  0.0
  0
VERTEX
  8
0
  10
3.776367
  20
-3.125000
  30
  0.0
  0
VERTEX
  8
0
  10
3.699219
  20
-3.359375
  30
  0.0
  0
VERTEX
  8
0
  10
3.596680
  20
-3.500000
  30
  0.0
  0
VERTEX
  8
0
  10
3.468750
  20
-3.546875
  30
  0.0
  0
VERTEX
  8
0
  10
3.468750
  20
-3.546875
  30
  0.0
  0
VERTEX
  8
0
  10
3.335449
  20
-3.461426
  30
  0.0
  0
VERTEX
  8
0
  10
3.232422
  20
-3.205078
  30
  0.0
  0
VERTEX
  8
0
  10
3.159668
  20
-2.777832
  30
  0.0
  0
VERTEX
  8
0
  10
3.117188
  20
-2.179688
  30
  0.0
  0
VERTEX
  8
0
  10
3.117188
  20
-2.179688
  30
  0.0
  0
VERTEX
  8
0
  10
3.080566
  20
-1.581543
  30
  0.0
  0
VERTEX
  8
0
  10
3.025391
  20
-1.154297
  30
  0.0
  0
VERTEX
  8
0
  10
2.951660
  20
-0.897949
  30
  0.0
  0
VERTEX
  8
0
  10
2.859375
  20
-0.812500
  30
  0.0
  0
VERTEX
  8
0
  10
2.859375
  20
-0.812500
  30
  0.0
  0
VERTEX
  8
0
  10
2.814941
  20
-0.823730
  30
  0.0
  0
VERTEX
  8
0
  10
2.759766
  20
-0.857422
  30
  0.0
  0
VERTEX
  8
0
  10
2.693848
  20
-0.913574
  30
  0.0
  0
VERTEX
  8
0
  10
2.617188
  20
-0.992188
  30
  0.0
  0
VERTEX
  8
0
  10
2.617188
  20
-0.992188
  30
  0.0
  0
VERTEX
  8
0
  10
2.540527
  20
-1.070801
  30
  0.0
  0
VERTEX
  8
0
  10
2.474609
  20
-1.126953
  30
  0.0
  0
VERTEX
  8
0
  10
2.419434
  20
-1.160645
  30
  0.0
  0
VERTEX
  8
0
  10
2.375000
  20
-1.171875
  30
  0.0
  0
VERTEX
  8
0
  10
2.375000
  20
-1.171875
  30
  0.0
  0
VERTEX
  8
0
  10
2.292969
  20
-1.080078
  30
  0.0
  0
VERTEX
  8
0
  10
2.234375
  20
-0.804688
  30
  0.0
  0
VERTEX
  8
0
  10
2.199219
  20
-0.345703
  30
  0.0
  0
VERTEX
  8
0
  10
2.187500
  20
0.296875
  30
  0.0
  0
VERTEX
  8
0
  10
2.187500
  20
0.296875
  30
  0.0
  0
VERTEX
  8
0
  10
2.187500
  20
0.713867
  30
  0.0
  0
VERTEX
  8
0
  10
2.187500
  20
1.027344
  30
  0.0
  0
VERTEX
  8
0
  10
2.187500
  20
1.237305
  30
  0.0
  0
VERTEX
  8
0
  10
2.187500
  20
1.343750
  30
  0.0
  0
VERTEX
  8
0
  10
2.187500
  20
1.343750
  30
  0.0
  0
VERTEX
  8
0
  10
2.211914
  20
1.658203
  30
  0.0
  0
VERTEX
  8
0
  10
2.253906
  20
1.882812
  30
  0.0
  0
VERTEX
  8
0
  10
2.313477
  20
2.017578
  30
  0.0
  0
VERTEX
  8
0
  10
2.390625
  20
2.062500
  30
  0.0
  0
VERTEX
  8
0
  10
2.390625
  20
2.062500
  30
  0.0
  0
VERTEX
  8
0
  10
2.491211
  20
1.993164
  30
  0.0
  0
VERTEX
  8
0
  10
2.699219
  20
1.785156
  30
  0.0
  0
VERTEX
  8
0
  10
3.014648
  20
1.438477
  30
  0.0
  0
VERTEX
  8
0
  10
3.437500
  20
0.953125
  30
  0.0
  0
VERTEX
  8
0
  10
3.468750
  20
-0.125000
  30
  0.0
  0
VERTEX
  8
0
  10
3.437500
  20
0.953125
  30
  0.0
  0
VERTEX
  8
0
  10
3.437500
  20
0.953125
  30
  0.0
  0
VERTEX
  8
0
  10
3.841797
  20
1.561523
  30
  0.0
  0
VERTEX
  8
0
  10
4.148438
  20
1.996094
  30
  0.0
  0
VERTEX
  8
0
  10
4.357422
  20
2.256836
  30
  0.0
  0
VERTEX
  8
0
  10
4.468750
  20
2.343750
  30
  0.0
  0
VERTEX
  8
0
  10
4.468750
  20
2.343750
  30
  0.0
  0
VERTEX
  8
0
  10
4.564453
  20
2.250000
  30
  0.0
  0
VERTEX
  8
0
  10
4.632812
  20
1.968750
  30
  0.0
  0
VERTEX
  8
0
  10
4.673828
  20
1.500000
  30
  0.0
  0
VERTEX
  8
0
  10
4.687500
  20
0.843750
  30
  0.0
  0
SEQEND
  0
POLYLINE
  8
0
  6
CONTINUOUS
  66
  1
  70
  1
  10
  0.0
  20
  0.0
  30
  0.0
  0
VERTEX
  8
0
  10
2.968750
  20
-4.343750
  30
  0.0
  0
VERTEX
  8
0
  10
2.968750
  20
-4.343750
  30
  0.0
  0
VERTEX
  8
0
  10
2.966797
  20
-4.632812
  30
  0.0
  0
VERTEX
  8
0
  10
2.960938
  20
-4.890625
  30
  0.0
  0
VERTEX
  8
0
  10
2.951172
  20
-5.117188
  30
  0.0
  0
VERTEX
  8
0
  10
2.937500
  20
-5.312500
  30
  0.0
  0
VERTEX
  8
0
  10
2.937500
  20
-5.312500
  30
  0.0
  0
VERTEX
  8
0
  10
2.901367
  20
-5.572266
  30
  0.0
  0
VERTEX
  8
0
  10
2.855469
  20
-5.757812
  30
  0.0
  0
VERTEX
  8
0
  10
2.799805
  20
-5.869141
  30
  0.0
  0
VERTEX
  8
0
  10
2.734375
  20
-5.906250
  30
  0.0
  0
VERTEX
  8
0
  10
2.734375
  20
-5.906250
  30
  0.0
  0
VERTEX
  8
0
  10
2.487305
  20
-5.652344
  30
  0.0
  0
VERTEX
  8
0
  10
2.230469
  20
-5.359375
  30
  0.0
  0
VERTEX
  8
0
  10
1.963867
  20
-5.027344
  30
  0.0
  0
VERTEX
  8
0
  10
1.687500
  20
-4.656250
  30
  0.0
  0
VERTEX
  8
0
  10
1.656250
  20
-3.515625
  30
  0.0
  0
VERTEX
  8
0
  10
1.687500
  20
-4.656250
  30
  0.0
  0
VERTEX
  8
0
  10
1.687500
  20
-4.656250
  30
  0.0
  0
VERTEX
  8
0
  10
1.610352
  20
-4.767090
  30
  0.0
  0
VERTEX
  8
0
  10
1.488281
  20
-4.927734
  30
  0.0
  0
VERTEX
  8
0
  10
1.321289
  20
-5.138184
  30
  0.0
  0
VERTEX
  8
0
  10
1.109375
  20
-5.398438
  30
  0.0
  0
VERTEX
  8
0
  10
1.109375
  20
-5.398438
  30
  0.0
  0
VERTEX
  8
0
  10
0.901367
  20
-5.647949
  30
  0.0
  0
VERTEX
  8
0
  10
0.746094
  20
-5.826172
  30
  0.0
  0
VERTEX
  8
0
  10
0.643555
  20
-5.933105
  30
  0.0
  0
VERTEX
  8
0
  10
0.593750
  20
-5.968750
  30
  0.0
  0
VERTEX
  8
0
  10
0.593750
  20
-5.968750
  30
  0.0
  0
VERTEX
  8
0
  10
0.523438
  20
-5.897461
  30
  0.0
  0
VERTEX
  8
0
  10
0.468750
  20
-5.683594
  30
  0.0
  0
VERTEX
  8
0
  10
0.429688
  20
-5.327148
  30
  0.0
  0
VERTEX
  8
0
  10
0.406250
  20
-4.828125
  30
  0.0
  0
VERTEX
  8
0
  10
0.406250
  20
-4.828125
  30
  0.0
  0
VERTEX
  8
0
  10
0.406250
  20
-4.787109
  30
  0.0
  0
VERTEX
  8
0
  10
0.406250
  20
-4.539062
  30
  0.0
  0
VERTEX
  8
0
  10
0.406250
  20
-4.083984
  30
  0.0
  0
VERTEX
  8
0
  10
0.406250
  20
-3.421875
  30
  0.0
  0
VERTEX
  8
0
  10
0.406250
  20
-3.421875
  30
  0.0
  0
VERTEX
  8
0
  10
0.418945
  20
-3.080078
  30
  0.0
  0
VERTEX
  8
0
  10
0.457031
  20
-2.835938
  30
  0.0
  0
VERTEX
  8
0
  10
0.520508
  20
-2.689453
  30
  0.0
  0
VERTEX
  8
0
  10
0.609375
  20
-2.640625
  30
  0.0
  0
VERTEX
  8
0
  10
0.609375
  20
-2.640625
  30
  0.0
  0
VERTEX
  8
0
  10
0.660645
  20
-2.649902
  30
  0.0
  0
VERTEX
  8
0
  10
0.720703
  20
-2.677734
  30
  0.0
  0
VERTEX
  8
0
  10
0.789551
  20
-2.724121
  30
  0.0
  0
VERTEX
  8
0
  10
0.867188
  20
-2.789062
  30
  0.0
  0
VERTEX
  8
0
  10
0.867188
  20
-2.789062
  30
  0.0
  0
VERTEX
  8
0
  10
0.943848
  20
-2.854004
  30
  0.0
  0
VERTEX
  8
0
  10
1.009766
  20
-2.900391
  30
  0.0
  0
VERTEX
  8
0
  10
1.064941
  20
-2.928223
  30
  0.0
  0
VERTEX
  8
0
  10
1.109375
  20
-2.937500
  30
  0.0
  0
VERTEX
  8
0
  10
1.109375
  20
-2.937500
  30
  0.0
  0
VERTEX
  8
0
  10
1.185547
  20
-2.893555
  30
  0.0
  0
VERTEX
  8
0
  10
1.242188
  20
-2.761719
  30
  0.0
  0
VERTEX
  8
0
  10
1.279297
  20
-2.541992
  30
  0.0
  0
VERTEX
  8
0
  10
1.296875
  20
-2.234375
  30
  0.0
  0
VERTEX
  8
0
  10
1.296875
  20
-2.234375
  30
  0.0
  0
VERTEX
  8
0
  10
1.304688
  20
-1.883789
  30
  0.0
  0
VERTEX
  8
0
  10
1.312500
  20
-1.535156
  30
  0.0
  0
VERTEX
  8
0
  10
1.320312
  20
-1.188477
  30
  0.0
  0
VERTEX
  8
0
  10
1.328125
  20
-0.843750
  30
  0.0
  0
VERTEX
  8
0
  10
1.328125
  20
-0.843750
  30
  0.0
  0
VERTEX
  8
0
  10
1.374023
  20
-0.515625
  30
  0.0
  0
VERTEX
  8
0
  10
1.449219
  20
-0.281250
  30
  0.0
  0
VERTEX
  8
0
  10
1.553711
  20
-0.140625
  30
  0.0
  0
VERTEX
  8
0
  10
1.687500
  20
-0.093750
  30
  0.0
  0
VERTEX
  8
0
  10
1.687500
  20
-0.093750
  30
  0.0
  0
VERTEX
  8
0
  10
1.801758
  20
-0.140625
  30
  0.0
  0
VERTEX
  8
0
  10
1.894531
  20
-0.281250
  30
  0.0
  0
VERTEX
  8
0
  10
1.965820
  20
-0.515625
  30
  0.0
  0
VERTEX
  8
0
  10
2.015625
  20
-0.843750
  30
  0.0
  0
VERTEX
  8
0
  10
2.015625
  20
-0.843750
  30
  0.0
  0
VERTEX
  8
0
  10
2.024902
  20
-1.188477
  30
  0.0
  0
VERTEX
  8
0
  10
2.037109
  20
-1.535156
  30
  0.0
  0
VERTEX
  8
0
  10
2.052246
  20
-1.883789
  30
  0.0
  0
VERTEX
  8
0
  10
2.070312
  20
-2.234375
  30
  0.0
  0
VERTEX
  8
0
  10
2.070312
  20
-2.234375
  30
  0.0
  0
VERTEX
  8
0
  10
2.099121
  20
-2.541992
  30
  0.0
  0
VERTEX
  8
0
  10
2.146484
  20
-2.761719
  30
  0.0
  0
VERTEX
  8
0
  10
2.212402
  20
-2.893555
  30
  0.0
  0
VERTEX
  8
0
  10
2.296875
  20
-2.937500
  30
  0.0
  0
VERTEX
  8
0
  10
2.296875
  20
-2.937500
  30
  0.0
  0
VERTEX
  8
0
  10
2.340820
  20
-2.927246
  30
  0.0
  0
VERTEX
  8
0
  10
2.394531
  20
-2.896484
  30
  0.0
  0
VERTEX
  8
0
  10
2.458008
  20
-2.845215
  30
  0.0
  0
VERTEX
  8
0
  10
2.531250
  20
-2.773438
  30
  0.0
  0
VERTEX
  8
0
  10
2.531250
  20
-2.773438
  30
  0.0
  0
VERTEX
  8
0
  10
2.604492
  20
-2.701660
  30
  0.0
  0
VERTEX
  8
0
  10
2.667969
  20
-2.650391
  30
  0.0
  0
VERTEX
  8
0
  10
2.721680
  20
-2.619629
  30
  0.0
  0
VERTEX
  8
0
  10
2.765625
  20
-2.609375
  30
  0.0
  0
VERTEX
  8
0
  10
2.765625
  20
-2.609375
  30
  0.0
  0
VERTEX
  8
0
  10
2.842773
  20
-2.652344
  30
  0.0
  0
VERTEX
  8
0
  10
2.902344
  20
-2.781250
  30
  0.0
  0
VERTEX
  8
0
  10
2.944336
  20
-2.996094
  30
  0.0
  0
VERTEX
  8
0
  10
2.968750
  20
-3.296875
  30
  0.0
  0
VERTEX
  8
0
  10
2.968750
  20
-3.296875
  30
  0.0
  0
VERTEX
  8
0
  10
2.968750
  20
-3.555664
  30
  0.0
  0
VERTEX
  8
0
  10
2.968750
  20
-3.816406
  30
  0.0
  0
VERTEX
  8
0
  10
2.968750
  20
-4.079102
  30
  0.0
  0
VERTEX
  8
0
  10
2.968750
  20
-4.343750
  30
  0.0
  0
SEQEND
  0
POLYLINE
  8
0
  6
CONTINUOUS
  66
  1
  70
  1
  10
  0.0
  20
  0.0
  30
  0.0
  0
VERTEX
  8
0
  10
28.046875
  20
21.546875
  30
  0.0
  0
VERTEX
  8
0
  10
28.046875
  20
21.546875
  30
  0.0
  0
VERTEX
  8
0
  10
28.032227
  20
21.909180
  30
  0.0
  0
VERTEX
  8
0
  10
27.988281
  20
22.167969
  30
  0.0
  0
VERTEX
  8
0
  10
27.915039
  20
22.323242
  30
  0.0
  0
VERTEX
  8
0
  10
27.812500
  20
22.375000
  30
  0.0
  0
VERTEX
  8
0
  10
27.812500
  20
22.375000
  30
  0.0
  0
VERTEX
  8
0
  10
27.753906
  20
22.360352
  30
  0.0
  0
VERTEX
  8
0
  10
27.703125
  20
22.316406
  30
  0.0
  0
VERTEX
  8
0
  10
27.660156
  20
22.243164
  30
  0.0
  0
VERTEX
  8
0
  10
27.625000
  20
22.140625
  30
  0.0
  0
VERTEX
  8
0
  10
27.625000
  20
22.140625
  30
  0.0
  0
VERTEX
  8
0
  10
27.614258
  20
21.992188
  30
  0.0
  0
VERTEX
  8
0
  10
27.597656
  20
21.812500
  30
  0.0
  0
VERTEX
  8
0
  10
27.575195
  20
21.601562
  30
  0.0
  0
VERTEX
  8
0
  10
27.546875
  20
21.359375
  30
  0.0
  0
VERTEX
  8
0
  10
27.546875
  20
21.359375
  30
  0.0
  0
VERTEX
  8
0
  10
27.539062
  20
21.281250
  30
  0.0
  0
VERTEX
  8
0
  10
27.515625
  20
21.140625
  30
  0.0
  0
VERTEX
  8
0
  10
27.476562
  20
20.937500
  30
  0.0
  0
VERTEX
  8
0
  10
27.421875
  20
20.671875
  30
  0.0
  0
VERTEX
  8
0
  10
27.421875
  20
20.671875
  30
  0.0
  0
VERTEX
  8
0
  10
27.374023
  20
20.449219
  30
  0.0
  0
VERTEX
  8
0
  10
27.339844
  20
20.265625
  30
  0.0
  0
VERTEX
  8
0
  10
27.319336
  20
20.121094
  30
  0.0
  0
VERTEX
  8
0
  10
27.312500
  20
20.015625
  30
  0.0
  0
VERTEX
  8
0
  10
27.312500
  20
20.015625
  30
  0.0
  0
VERTEX
  8
0
  10
27.330078
  20
19.811523
  30
  0.0
  0
VERTEX
  8
0
  10
27.382812
  20
19.683594
  30
  0.0
  0
VERTEX
  8
0
  10
27.470703
  20
19.631836
  30
  0.0
  0
VERTEX
  8
0
  10
27.593750
  20
19.656250
  30
  0.0
  0
VERTEX
  8
0
  10
27.593750
  20
19.656250
  30
  0.0
  0
VERTEX
  8
0
  10
27.738281
  20
19.505859
  30
  0.0
  0
VERTEX
  8
0
  10
27.843750
  20
19.398438
  30
  0.0
  0
VERTEX
  8
0
  10
27.910156
  20
19.333984
  30
  0.0
  0
VERTEX
  8
0
  10
27.937500
  20
19.312500
  30
  0.0
  0
VERTEX
  8
0
  10
27.937500
  20
19.312500
  30
  0.0
  0
VERTEX
  8
0
  10
27.958984
  20
19.324219
  30
  0.0
  0
VERTEX
  8
0
  10
27.976562
  20
19.359375
  30
  0.0
  0
VERTEX
  8
0
  10
27.990234
  20
19.417969
  30
  0.0
  0
VERTEX
  8
0
  10
28.000000
  20
19.500000
  30
  0.0
  0
VERTEX
  8
0
  10
28.000000
  20
19.500000
  30
  0.0
  0
VERTEX
  8
0
  10
28.005859
  20
19.567383
  30
  0.0
  0
VERTEX
  8
0
  10
28.007812
  20
19.644531
  30
  0.0
  0
VERTEX
  8
0
  10
28.005859
  20
19.731445
  30
  0.0
  0
VERTEX
  8
0
  10
28.000000
  20
19.828125
  30
  0.0
  0
VERTEX
  8
0
  10
28.000000
  20
19.828125
  30
  0.0
  0
VERTEX
  8
0
  10
27.993164
  20
19.958008
  30
  0.0
  0
VERTEX
  8
0
  10
27.988281
  20
20.050781
  30
  0.0
  0
VERTEX
  8
0
  10
27.985352
  20
20.106445
  30
  0.0
  0
VERTEX
  8
0
  10
27.984375
  20
20.125000
  30
  0.0
  0
VERTEX
  8
0
  10
27.984375
  20
20.125000
  30
  0.0
  0
VERTEX
  8
0
  10
27.986328
  20
20.263184
  30
  0.0
  0
VERTEX
  8
0
  10
27.992188
  20
20.427734
  30
  0.0
  0
VERTEX
  8
0
  10
28.001953
  20
20.618652
  30
  0.0
  0
VERTEX
  8
0
  10
28.015625
  20
20.835938
  30
  0.0
  0
VERTEX
  8
0
  10
28.015625
  20
20.835938
  30
  0.0
  0
VERTEX
  8
0
  10
28.029297
  20
21.053223
  30
  0.0
  0
VERTEX
  8
0
  10
28.039062
  20
21.244141
  30
  0.0
  0
VERTEX
  8
0
  10
28.044922
  20
21.408691
  30
  0.0
  0
VERTEX
  8
0
  10
28.046875
  20
21.546875
  30
  0.0
  0
SEQEND
  0
POLYLINE
  8
0
  6
CONTINUOUS
  66
  1
  70
  1
  10
  0.0
  20
  0.0
  30
  0.0
  0
VERTEX
  8
0
  10
27.281250
  20
22.078125
  30
  0.0
  0
VERTEX
  8
0
  10
27.281250
  20
22.078125
  30
  0.0
  0
VERTEX
  8
0
  10
27.270508
  20
22.262695
  30
  0.0
  0
VERTEX
  8
0
  10
27.238281
  20
22.394531
  30
  0.0
  0
VERTEX
  8
0
  10
27.184570
  20
22.473633
  30
  0.0
  0
VERTEX
  8
0
  10
27.109375
  20
22.500000
  30
  0.0
  0
VERTEX
  8
0
  10
27.109375
  20
22.500000
  30
  0.0
  0
VERTEX
  8
0
  10
27.043945
  20
22.383789
  30
  0.0
  0
VERTEX
  8
0
  10
26.941406
  20
22.300781
  30
  0.0
  0
VERTEX
  8
0
  10
26.801758
  20
22.250977
  30
  0.0
  0
VERTEX
  8
0
  10
26.625000
  20
22.234375
  30
  0.0
  0
VERTEX
  8
0
  10
26.625000
  20
22.234375
  30
  0.0
  0
VERTEX
  8
0
  10
26.588867
  20
22.204102
  30
  0.0
  0
VERTEX
  8
0
  10
26.558594
  20
22.113281
  30
  0.0
  0
VERTEX
  8
0
  10
26.534180
  20
21.961914
  30
  0.0
  0
VERTEX
  8
0
  10
26.515625
  20
21.750000
  30
  0.0
  0
VERTEX
  8
0
  10
26.515625
  20
21.750000
  30
  0.0
  0
VERTEX
  8
0
  10
26.538086
  20
21.495117
  30
  0.0
  0
VERTEX
  8
0
  10
26.558594
  20
21.246094
  30
  0.0
  0
VERTEX
  8
0
  10
26.577148
  20
21.002930
  30
  0.0
  0
VERTEX
  8
0
  10
26.593750
  20
20.765625
  30
  0.0
  0
VERTEX
  8
0
  10
26.593750
  20
20.765625
  30
  0.0
  0
VERTEX
  8
0
  10
26.641602
  20
20.458008
  30
  0.0
  0
VERTEX
  8
0
  10
26.691406
  20
20.238281
  30
  0.0
  0
VERTEX
  8
0
  10
26.743164
  20
20.106445
  30
  0.0
  0
VERTEX
  8
0
  10
26.796875
  20
20.062500
  30
  0.0
  0
VERTEX
  8
0
  10
26.796875
  20
20.062500
  30
  0.0
  0
VERTEX
  8
0
  10
26.881836
  20
20.109375
  30
  0.0
  0
VERTEX
  8
0
  10
26.964844
  20
20.250000
  30
  0.0
  0
VERTEX
  8
0
  10
27.045898
  20
20.484375
  30
  0.0
  0
VERTEX
  8
0
  10
27.125000
  20
20.812500
  30
  0.0
  0
VERTEX
  8
0
  10
27.125000
  20
20.812500
  30
  0.0
  0
VERTEX
  8
0
  10
27.193359
  20
21.172852
  30
  0.0
  0
VERTEX
  8
0
  10
27.242188
  20
21.503906
  30
  0.0
  0
VERTEX
  8
0
  10
27.271484
  20
21.805664
  30
  0.0
  0
VERTEX
  8
0
  10
27.281250
  20
22.078125
  30
  0.0
  0
SEQEND
  0
POLYLINE
  8
0
  6
CONTINUOUS
  66
  1
  70
  1
  10
  0.0
  20
  0.0
  30
  0.0
  0
VERTEX
  8
0
  10
25.281250
  20
22.437500
  30
  0.0
  0
VERTEX
  8
0
  10
25.187500
  20
22.656250
  30
  0.0
  0
VERTEX
  8
0
  10
25.187500
  20
22.656250
  30
  0.0
  0
VERTEX
  8
0
  10
25.120117
  20
22.508789
  30
  0.0
  0
VERTEX
  8
0
  10
25.042969
  20
22.347656
  30
  0.0
  0
VERTEX
  8
0
  10
24.956055
  20
22.172852
  30
  0.0
  0
VERTEX
  8
0
  10
24.859375
  20
21.984375
  30
  0.0
  0
VERTEX
  8
0
  10
24.859375
  20
21.656250
  30
  0.0
  0
VERTEX
  8
0
  10
25.140625
  20
21.328125
  30
  0.0
  0
VERTEX
  8
0
  10
25.140625
  20
21.328125
  30
  0.0
  0
VERTEX
  8
0
  10
25.184570
  20
21.409180
  30
  0.0
  0
VERTEX
  8
0
  10
25.222656
  20
21.621094
  30
  0.0
  0
VERTEX
  8
0
  10
25.254883
  20
21.963867
  30
  0.0
  0
VERTEX
  8
0
  10
25.281250
  20
22.437500
  30
  0.0
  0
SEQEND
  0
POLYLINE
  8
0
  6
CONTINUOUS
  66
  1
  70
  1
  10
  0.0
  20
  0.0
  30
  0.0
  0
VERTEX
  8
0
  10
19.468750
  20
21.812500
  30
  0.0
  0
VERTEX
  8
0
  10
19.468750
  20
21.812500
  30
  0.0
  0
VERTEX
  8
0
  10
19.340820
  20
22.126953
  30
  0.0
  0
VERTEX
  8
0
  10
19.238281
  20
22.351562
  30
  0.0
  0
VERTEX
  8
0
  10
19.161133
  20
22.486328
  30
  0.0
  0
VERTEX
  8
0
  10
19.109375
  20
22.531250
  30
  0.0
  0
VERTEX
  8
0
  10
19.109375
  20
22.531250
  30
  0.0
  0
VERTEX
  8
0
  10
19.061523
  20
22.506836
  30
  0.0
  0
VERTEX
  8
0
  10
19.027344
  20
22.433594
  30
  0.0
  0
VERTEX
  8
0
  10
19.006836
  20
22.311523
  30
  0.0
  0
VERTEX
  8
0
  10
19.000000
  20
22.140625
  30
  0.0
  0
VERTEX
  8
0
  10
19.000000
  20
22.140625
  30
  0.0
  0
VERTEX
  8
0
  10
19.002441
  20
22.104492
  30
  0.0
  0
VERTEX
  8
0
  10
19.009766
  20
22.027344
  30
  0.0
  0
VERTEX
  8
0
  10
19.021973
  20
21.909180
  30
  0.0
  0
VERTEX
  8
0
  10
19.039062
  20
21.750000
  30
  0.0
  0
VERTEX
  8
0
  10
19.039062
  20
21.750000
  30
  0.0
  0
VERTEX
  8
0
  10
19.056152
  20
21.586914
  30
  0.0
  0
VERTEX
  8
0
  10
19.068359
  20
21.457031
  30
  0.0
  0
VERTEX
  8
0
  10
19.075684
  20
21.360352
  30
  0.0
  0
VERTEX
  8
0
  10
19.078125
  20
21.296875
  30
  0.0
  0
VERTEX
  8
0
  10
19.078125
  20
21.296875
  30
  0.0
  0
VERTEX
  8
0
  10
19.119141
  20
21.283203
  30
  0.0
  0
VERTEX
  8
0
  10
19.148438
  20
21.273438
  30
  0.0
  0
VERTEX
  8
0
  10
19.166016
  20
21.267578
  30
  0.0
  0
VERTEX
  8
0
  10
19.171875
  20
21.265625
  30
  0.0
  0
VERTEX
  8
0
  10
19.171875
  20
21.265625
  30
  0.0
  0
VERTEX
  8
0
  10
19.206543
  20
21.275879
  30
  0.0
  0
VERTEX
  8
0
  10
19.248047
  20
21.306641
  30
  0.0
  0
VERTEX
  8
0
  10
19.296387
  20
21.357910
  30
  0.0
  0
VERTEX
  8
0
  10
19.351562
  20
21.429688
  30
  0.0
  0
VERTEX
  8
0
  10
19.351562
  20
21.429688
  30
  0.0
  0
VERTEX
  8
0
  10
19.402832
  20
21.515137
  30
  0.0
  0
VERTEX
  8
0
  10
19.439453
  20
21.607422
  30
  0.0
  0
VERTEX
  8
0
  10
19.461426
  20
21.706543
  30
  0.0
  0
VERTEX
  8
0
  10
19.468750
  20
21.812500
  30
  0.0
  0
SEQEND
  0
POLYLINE
  8
0
  6
CONTINUOUS
  66
  1
  70
  1
  10
  0.0
  20
  0.0
  30
  0.0
  0
VERTEX
  8
0
  10
17.750000
  20
21.593750
  30
  0.0
  0
VERTEX
  8
0
  10
17.703125
  20
21.906250
  30
  0.0
  0
VERTEX
  8
0
  10
17.703125
  20
21.906250
  30
  0.0
  0
VERTEX
  8
0
  10
17.649902
  20
21.970703
  30
  0.0
  0
VERTEX
  8
0
  10
17.583984
  20
22.023438
  30
  0.0
  0
VERTEX
  8
0
  10
17.505371
  20
22.064453
  30
  0.0
  0
VERTEX
  8
0
  10
17.414062
  20
22.093750
  30
  0.0
  0
VERTEX
  8
0
  10
17.414062
  20
22.093750
  30
  0.0
  0
VERTEX
  8
0
  10
17.322754
  20
22.122070
  30
  0.0
  0
VERTEX
  8
0
  10
17.244141
  20
22.160156
  30
  0.0
  0
VERTEX
  8
0
  10
17.178223
  20
22.208008
  30
  0.0
  0
VERTEX
  8
0
  10
17.125000
  20
22.265625
  30
  0.0
  0
VERTEX
  8
0
  10
17.125000
  20
22.265625
  30
  0.0
  0
VERTEX
  8
0
  10
17.091797
  20
22.240234
  30
  0.0
  0
VERTEX
  8
0
  10
17.054688
  20
22.195312
  30
  0.0
  0
VERTEX
  8
0
  10
17.013672
  20
22.130859
  30
  0.0
  0
VERTEX
  8
0
  10
16.968750
  20
22.046875
  30
  0.0
  0
VERTEX
  8
0
  10
16.968750
  20
21.656250
  30
  0.0
  0
VERTEX
  8
0
  10
16.968750
  20
21.656250
  30
  0.0
  0
VERTEX
  8
0
  10
17.109375
  20
20.897461
  30
  0.0
  0
VERTEX
  8
0
  10
17.234375
  20
20.355469
  30
  0.0
  0
VERTEX
  8
0
  10
17.343750
  20
20.030273
  30
  0.0
  0
VERTEX
  8
0
  10
17.437500
  20
19.921875
  30
  0.0
  0
VERTEX
  8
0
  10
17.437500
  20
19.921875
  30
  0.0
  0
VERTEX
  8
0
  10
17.516602
  20
19.960938
  30
  0.0
  0
VERTEX
  8
0
  10
17.582031
  20
20.078125
  30
  0.0
  0
VERTEX
  8
0
  10
17.633789
  20
20.273438
  30
  0.0
  0
VERTEX
  8
0
  10
17.671875
  20
20.546875
  30
  0.0
  0
VERTEX
  8
0
  10
17.671875
  20
20.546875
  30
  0.0
  0
VERTEX
  8
0
  10
17.688477
  20
20.805664
  30
  0.0
  0
VERTEX
  8
0
  10
17.707031
  20
21.066406
  30
  0.0
  0
VERTEX
  8
0
  10
17.727539
  20
21.329102
  30
  0.0
  0
VERTEX
  8
0
  10
17.750000
  20
21.593750
  30
  0.0
  0
SEQEND
  0
POLYLINE
  8
0
  6
CONTINUOUS
  66
  1
  70
  1
  10
  0.0
  20
  0.0
  30
  0.0
  0
VERTEX
  8
0
  10
17.000000
  20
19.859375
  30
  0.0
  0
VERTEX
  8
0
  10
17.000000
  20
19.859375
  30
  0.0
  0
VERTEX
  8
0
  10
16.938477
  20
20.188477
  30
  0.0
  0
VERTEX
  8
0
  10
16.878906
  20
20.519531
  30
  0.0
  0
VERTEX
  8
0
  10
16.821289
  20
20.852539
  30
  0.0
  0
VERTEX
  8
0
  10
16.765625
  20
21.187500
  30
  0.0
  0
VERTEX
  8
0
  10
16.765625
  20
21.187500
  30
  0.0
  0
VERTEX
  8
0
  10
16.683594
  20
21.618164
  30
  0.0
  0
VERTEX
  8
0
  10
16.609375
  20
21.925781
  30
  0.0
  0
VERTEX
  8
0
  10
16.542969
  20
22.110352
  30
  0.0
  0
VERTEX
  8
0
  10
16.484375
  20
22.171875
  30
  0.0
  0
VERTEX
  8
0
  10
16.484375
  20
22.171875
  30
  0.0
  0
VERTEX
  8
0
  10
16.375000
  20
22.128906
  30
  0.0
  0
VERTEX
  8
0
  10
16.296875
  20
22.000000
  30
  0.0
  0
VERTEX
  8
0
  10
16.250000
  20
21.785156
  30
  0.0
  0
VERTEX
  8
0
  10
16.234375
  20
21.484375
  30
  0.0
  0
VERTEX
  8
0
  10
16.234375
  20
21.484375
  30
  0.0
  0
VERTEX
  8
0
  10
16.237305
  20
21.186523
  30
  0.0
  0
VERTEX
  8
0
  10
16.246094
  20
20.871094
  30
  0.0
  0
VERTEX
  8
0
  10
16.260742
  20
20.538086
  30
  0.0
  0
VERTEX
  8
0
  10
16.281250
  20
20.187500
  30
  0.0
  0
VERTEX
  8
0
  10
16.281250
  20
20.187500
  30
  0.0
  0
VERTEX
  8
0
  10
16.314453
  20
19.743164
  30
  0.0
  0
VERTEX
  8
0
  10
16.351562
  20
19.425781
  30
  0.0
  0
VERTEX
  8
0
  10
16.392578
  20
19.235352
  30
  0.0
  0
VERTEX
  8
0
  10
16.437500
  20
19.171875
  30
  0.0
  0
VERTEX
  8
0
  10
16.437500
  20
19.171875
  30
  0.0
  0
VERTEX
  8
0
  10
16.482422
  20
19.181152
  30
  0.0
  0
VERTEX
  8
0
  10
16.539062
  20
19.208984
  30
  0.0
  0
VERTEX
  8
0
  10
16.607422
  20
19.255371
  30
  0.0
  0
VERTEX
  8
0
  10
16.687500
  20
19.320312
  30
  0.0
  0
VERTEX
  8
0
  10
16.687500
  20
19.320312
  30
  0.0
  0
VERTEX
  8
0
  10
16.767578
  20
19.387207
  30
  0.0
  0
VERTEX
  8
0
  10
16.835938
  20
19.439453
  30
  0.0
  0
VERTEX
  8
0
  10
16.892578
  20
19.477051
  30
  0.0
  0
VERTEX
  8
0
  10
16.937500
  20
19.500000
  30
  0.0
  0
SEQEND
0
ENDSEC
0
EOF
