ISO-10303-21;
HEADER;
/* Generated by software containing ST-Developer
 * from STEP Tools, Inc. (www.steptools.com) 
 */

FILE_DESCRIPTION(
/* description */ (''),
/* implementation_level */ '2;1');

FILE_NAME(
/* name */ 'Weight Plate.step',
/* time_stamp */ '2025-11-06T12:06:56-08:00',
/* author */ (''),
/* organization */ (''),
/* preprocessor_version */ 'ST-DEVELOPER v20.1',
/* originating_system */ 'Autodesk Translation Framework v14.17.0.0',
/* authorisation */ '');

FILE_SCHEMA (('AUTOMOTIVE_DESIGN { 1 0 10303 214 3 1 1 }'));
ENDSEC;

DATA;
#10=MECHANICAL_DESIGN_GEOMETRIC_PRESENTATION_REPRESENTATION('',(#20,#21),
#186);
#11=CONTEXT_DEPENDENT_OVER_RIDING_STYLED_ITEM('',(#217),#200,#21,(#15));
#12=MAPPED_ITEM('',#13,#123);
#13=REPRESENTATION_MAP(#123,#199);
#14=ITEM_DEFINED_TRANSFORMATION($,$,#110,#122);
#15=(
REPRESENTATION_RELATIONSHIP($,$,#200,#199)
REPRESENTATION_RELATIONSHIP_WITH_TRANSFORMATION(#14)
SHAPE_REPRESENTATION_RELATIONSHIP()
);
#16=CONTEXT_DEPENDENT_SHAPE_REPRESENTATION(#15,#198);
#17=NEXT_ASSEMBLY_USAGE_OCCURRENCE('Weight Plate:1','Weight Plate:1',
'Weight Plate:1',#202,#203,'Weight Plate:1');
#18=SHAPE_REPRESENTATION_RELATIONSHIP('SRR','None',#200,#19);
#19=ADVANCED_BREP_SHAPE_REPRESENTATION('',(#22),#185);
#20=STYLED_ITEM('',(#217),#22);
#21=STYLED_ITEM('',(#220),#12);
#22=MANIFOLD_SOLID_BREP('Body1',#96);
#23=FACE_BOUND('',#38,.T.);
#24=FACE_BOUND('',#39,.T.);
#25=FACE_BOUND('',#41,.T.);
#26=FACE_BOUND('',#42,.T.);
#27=PLANE('',#120);
#28=PLANE('',#121);
#29=FACE_OUTER_BOUND('',#34,.T.);
#30=FACE_OUTER_BOUND('',#35,.T.);
#31=FACE_OUTER_BOUND('',#36,.T.);
#32=FACE_OUTER_BOUND('',#37,.T.);
#33=FACE_OUTER_BOUND('',#40,.T.);
#34=EDGE_LOOP('',(#70,#71,#72,#73));
#35=EDGE_LOOP('',(#74,#75,#76,#77));
#36=EDGE_LOOP('',(#78,#79,#80,#81));
#37=EDGE_LOOP('',(#82));
#38=EDGE_LOOP('',(#83));
#39=EDGE_LOOP('',(#84));
#40=EDGE_LOOP('',(#85));
#41=EDGE_LOOP('',(#86));
#42=EDGE_LOOP('',(#87));
#43=LINE('',#163,#46);
#44=LINE('',#169,#47);
#45=LINE('',#175,#48);
#46=VECTOR('',#132,0.078740157480315);
#47=VECTOR('',#139,0.078740157480315);
#48=VECTOR('',#146,3.25);
#49=CIRCLE('',#112,0.078740157480315);
#50=CIRCLE('',#113,0.078740157480315);
#51=CIRCLE('',#115,0.078740157480315);
#52=CIRCLE('',#116,0.078740157480315);
#53=CIRCLE('',#118,3.25);
#54=CIRCLE('',#119,3.25);
#55=VERTEX_POINT('',#160);
#56=VERTEX_POINT('',#162);
#57=VERTEX_POINT('',#166);
#58=VERTEX_POINT('',#168);
#59=VERTEX_POINT('',#172);
#60=VERTEX_POINT('',#174);
#61=EDGE_CURVE('',#55,#55,#49,.T.);
#62=EDGE_CURVE('',#55,#56,#43,.T.);
#63=EDGE_CURVE('',#56,#56,#50,.T.);
#64=EDGE_CURVE('',#57,#57,#51,.T.);
#65=EDGE_CURVE('',#57,#58,#44,.T.);
#66=EDGE_CURVE('',#58,#58,#52,.T.);
#67=EDGE_CURVE('',#59,#59,#53,.T.);
#68=EDGE_CURVE('',#59,#60,#45,.T.);
#69=EDGE_CURVE('',#60,#60,#54,.T.);
#70=ORIENTED_EDGE('',*,*,#61,.F.);
#71=ORIENTED_EDGE('',*,*,#62,.T.);
#72=ORIENTED_EDGE('',*,*,#63,.T.);
#73=ORIENTED_EDGE('',*,*,#62,.F.);
#74=ORIENTED_EDGE('',*,*,#64,.F.);
#75=ORIENTED_EDGE('',*,*,#65,.T.);
#76=ORIENTED_EDGE('',*,*,#66,.T.);
#77=ORIENTED_EDGE('',*,*,#65,.F.);
#78=ORIENTED_EDGE('',*,*,#67,.F.);
#79=ORIENTED_EDGE('',*,*,#68,.T.);
#80=ORIENTED_EDGE('',*,*,#69,.T.);
#81=ORIENTED_EDGE('',*,*,#68,.F.);
#82=ORIENTED_EDGE('',*,*,#67,.T.);
#83=ORIENTED_EDGE('',*,*,#64,.T.);
#84=ORIENTED_EDGE('',*,*,#61,.T.);
#85=ORIENTED_EDGE('',*,*,#69,.F.);
#86=ORIENTED_EDGE('',*,*,#66,.F.);
#87=ORIENTED_EDGE('',*,*,#63,.F.);
#88=CYLINDRICAL_SURFACE('',#111,0.078740157480315);
#89=CYLINDRICAL_SURFACE('',#114,0.078740157480315);
#90=CYLINDRICAL_SURFACE('',#117,3.25);
#91=ADVANCED_FACE('',(#29),#88,.F.);
#92=ADVANCED_FACE('',(#30),#89,.F.);
#93=ADVANCED_FACE('',(#31),#90,.T.);
#94=ADVANCED_FACE('',(#32,#23,#24),#27,.T.);
#95=ADVANCED_FACE('',(#33,#25,#26),#28,.F.);
#96=CLOSED_SHELL('',(#91,#92,#93,#94,#95));
#97=DERIVED_UNIT_ELEMENT(#99,1.);
#98=DERIVED_UNIT_ELEMENT(#190,-3.);
#99=(
MASS_UNIT()
NAMED_UNIT(*)
SI_UNIT(.KILO.,.GRAM.)
);
#100=DERIVED_UNIT((#97,#98));
#101=MEASURE_REPRESENTATION_ITEM('density measure',
POSITIVE_RATIO_MEASURE(7850.),#100);
#102=PROPERTY_DEFINITION_REPRESENTATION(#107,#104);
#103=PROPERTY_DEFINITION_REPRESENTATION(#108,#105);
#104=REPRESENTATION('material name',(#106),#185);
#105=REPRESENTATION('density',(#101),#185);
#106=DESCRIPTIVE_REPRESENTATION_ITEM('Steel','Steel');
#107=PROPERTY_DEFINITION('material property','material name',#203);
#108=PROPERTY_DEFINITION('material property','density of part',#203);
#109=AXIS2_PLACEMENT_3D('',#157,#124,#125);
#110=AXIS2_PLACEMENT_3D('',#158,#126,#127);
#111=AXIS2_PLACEMENT_3D('',#159,#128,#129);
#112=AXIS2_PLACEMENT_3D('',#161,#130,#131);
#113=AXIS2_PLACEMENT_3D('',#164,#133,#134);
#114=AXIS2_PLACEMENT_3D('',#165,#135,#136);
#115=AXIS2_PLACEMENT_3D('',#167,#137,#138);
#116=AXIS2_PLACEMENT_3D('',#170,#140,#141);
#117=AXIS2_PLACEMENT_3D('',#171,#142,#143);
#118=AXIS2_PLACEMENT_3D('',#173,#144,#145);
#119=AXIS2_PLACEMENT_3D('',#176,#147,#148);
#120=AXIS2_PLACEMENT_3D('',#177,#149,#150);
#121=AXIS2_PLACEMENT_3D('',#178,#151,#152);
#122=AXIS2_PLACEMENT_3D('',#179,#153,#154);
#123=AXIS2_PLACEMENT_3D('',#180,#155,#156);
#124=DIRECTION('axis',(0.,0.,1.));
#125=DIRECTION('refdir',(1.,0.,0.));
#126=DIRECTION('axis',(0.,0.,1.));
#127=DIRECTION('refdir',(1.,0.,0.));
#128=DIRECTION('center_axis',(0.,0.,1.));
#129=DIRECTION('ref_axis',(1.,0.,0.));
#130=DIRECTION('center_axis',(0.,0.,-1.));
#131=DIRECTION('ref_axis',(1.,0.,0.));
#132=DIRECTION('',(0.,0.,-1.));
#133=DIRECTION('center_axis',(0.,0.,-1.));
#134=DIRECTION('ref_axis',(1.,0.,0.));
#135=DIRECTION('center_axis',(0.,0.,1.));
#136=DIRECTION('ref_axis',(1.,0.,0.));
#137=DIRECTION('center_axis',(0.,0.,-1.));
#138=DIRECTION('ref_axis',(1.,0.,0.));
#139=DIRECTION('',(0.,0.,-1.));
#140=DIRECTION('center_axis',(0.,0.,-1.));
#141=DIRECTION('ref_axis',(1.,0.,0.));
#142=DIRECTION('center_axis',(0.,0.,1.));
#143=DIRECTION('ref_axis',(1.,0.,0.));
#144=DIRECTION('center_axis',(0.,0.,1.));
#145=DIRECTION('ref_axis',(1.,0.,0.));
#146=DIRECTION('',(0.,0.,-1.));
#147=DIRECTION('center_axis',(0.,0.,1.));
#148=DIRECTION('ref_axis',(1.,0.,0.));
#149=DIRECTION('center_axis',(0.,0.,1.));
#150=DIRECTION('ref_axis',(1.,0.,0.));
#151=DIRECTION('center_axis',(0.,0.,1.));
#152=DIRECTION('ref_axis',(1.,0.,0.));
#153=DIRECTION('',(-4.53876577224798E-69,-5.46842815762928E-18,1.));
#154=DIRECTION('',(1.,0.,0.));
#155=DIRECTION('center_axis',(0.,0.,1.));
#156=DIRECTION('ref_axis',(1.,0.,0.));
#157=CARTESIAN_POINT('',(0.,0.,0.));
#158=CARTESIAN_POINT('',(0.,0.,0.));
#159=CARTESIAN_POINT('Origin',(0.,-0.196850393700787,0.));
#160=CARTESIAN_POINT('',(-0.078740157480315,-0.196850393700787,0.125));
#161=CARTESIAN_POINT('Origin',(0.,-0.196850393700787,0.125));
#162=CARTESIAN_POINT('',(-0.078740157480315,-0.196850393700787,0.));
#163=CARTESIAN_POINT('',(-0.078740157480315,-0.196850393700787,0.));
#164=CARTESIAN_POINT('Origin',(0.,-0.196850393700787,0.));
#165=CARTESIAN_POINT('Origin',(0.,0.196850393700787,0.));
#166=CARTESIAN_POINT('',(-0.078740157480315,0.196850393700787,0.125));
#167=CARTESIAN_POINT('Origin',(0.,0.196850393700787,0.125));
#168=CARTESIAN_POINT('',(-0.078740157480315,0.196850393700787,0.));
#169=CARTESIAN_POINT('',(-0.078740157480315,0.196850393700787,0.));
#170=CARTESIAN_POINT('Origin',(0.,0.196850393700787,0.));
#171=CARTESIAN_POINT('Origin',(0.,0.,0.));
#172=CARTESIAN_POINT('',(-3.25,-3.93386111087654E-16,0.125));
#173=CARTESIAN_POINT('Origin',(0.,0.,0.125));
#174=CARTESIAN_POINT('',(-3.25,-3.9801020972289E-16,0.));
#175=CARTESIAN_POINT('',(-3.25,-3.9801020972289E-16,0.));
#176=CARTESIAN_POINT('Origin',(0.,0.,0.));
#177=CARTESIAN_POINT('Origin',(0.,0.,0.125));
#178=CARTESIAN_POINT('Origin',(0.,0.,0.));
#179=CARTESIAN_POINT('',(0.0194441795981258,-0.221291352926828,-2.09935441379209));
#180=CARTESIAN_POINT('Origin',(0.,0.,0.));
#181=UNCERTAINTY_MEASURE_WITH_UNIT(LENGTH_MEASURE(0.000393700787401575),
#188,'DISTANCE_ACCURACY_VALUE',
'Maximum model space distance between geometric entities at asserted c
onnectivities');
#182=UNCERTAINTY_MEASURE_WITH_UNIT(LENGTH_MEASURE(0.000393700787401575),
#188,'DISTANCE_ACCURACY_VALUE',
'Maximum model space distance between geometric entities at asserted c
onnectivities');
#183=UNCERTAINTY_MEASURE_WITH_UNIT(LENGTH_MEASURE(0.000393700787401575),
#188,'DISTANCE_ACCURACY_VALUE',
'Maximum model space distance between geometric entities at asserted c
onnectivities');
#184=(
GEOMETRIC_REPRESENTATION_CONTEXT(3)
GLOBAL_UNCERTAINTY_ASSIGNED_CONTEXT((#181))
GLOBAL_UNIT_ASSIGNED_CONTEXT((#188,#192,#193))
REPRESENTATION_CONTEXT('','3D')
);
#185=(
GEOMETRIC_REPRESENTATION_CONTEXT(3)
GLOBAL_UNCERTAINTY_ASSIGNED_CONTEXT((#182))
GLOBAL_UNIT_ASSIGNED_CONTEXT((#188,#192,#193))
REPRESENTATION_CONTEXT('','3D')
);
#186=(
GEOMETRIC_REPRESENTATION_CONTEXT(3)
GLOBAL_UNCERTAINTY_ASSIGNED_CONTEXT((#183))
GLOBAL_UNIT_ASSIGNED_CONTEXT((#188,#192,#193))
REPRESENTATION_CONTEXT('','3D')
);
#187=DIMENSIONAL_EXPONENTS(1.,0.,0.,0.,0.,0.,0.);
#188=(
CONVERSION_BASED_UNIT('inch',#191)
LENGTH_UNIT()
NAMED_UNIT(#187)
);
#189=(
LENGTH_UNIT()
NAMED_UNIT(*)
SI_UNIT(.MILLI.,.METRE.)
);
#190=(
LENGTH_UNIT()
NAMED_UNIT(*)
SI_UNIT($,.METRE.)
);
#191=LENGTH_MEASURE_WITH_UNIT(LENGTH_MEASURE(25.4),#189);
#192=(
NAMED_UNIT(*)
PLANE_ANGLE_UNIT()
SI_UNIT($,.RADIAN.)
);
#193=(
NAMED_UNIT(*)
SI_UNIT($,.STERADIAN.)
SOLID_ANGLE_UNIT()
);
#194=SHAPE_DEFINITION_REPRESENTATION(#196,#199);
#195=SHAPE_DEFINITION_REPRESENTATION(#197,#200);
#196=PRODUCT_DEFINITION_SHAPE('',$,#202);
#197=PRODUCT_DEFINITION_SHAPE('',$,#203);
#198=PRODUCT_DEFINITION_SHAPE($,$,#17);
#199=SHAPE_REPRESENTATION('',(#109,#122),#184);
#200=SHAPE_REPRESENTATION('',(#110),#185);
#201=PRODUCT_DEFINITION_CONTEXT('part definition',#209,'design');
#202=PRODUCT_DEFINITION('Cauldron (Chained)','Cauldron (Chained)',#204,
#201);
#203=PRODUCT_DEFINITION('2025-10-29-08-10-52-388','Weight Plate',#205,#201);
#204=PRODUCT_DEFINITION_FORMATION('',$,#211);
#205=PRODUCT_DEFINITION_FORMATION('',$,#212);
#206=PRODUCT_RELATED_PRODUCT_CATEGORY('Cauldron (Chained)',
'Cauldron (Chained)',(#211));
#207=PRODUCT_RELATED_PRODUCT_CATEGORY('Weight Plate','Weight Plate',(#212));
#208=APPLICATION_PROTOCOL_DEFINITION('international standard',
'automotive_design',2009,#209);
#209=APPLICATION_CONTEXT(
'Core Data for Automotive Mechanical Design Process');
#210=PRODUCT_CONTEXT('part definition',#209,'mechanical');
#211=PRODUCT('Cauldron (Chained)','Cauldron (Chained)',$,(#210));
#212=PRODUCT('2025-10-29-08-10-52-388','Weight Plate',$,(#210));
#213=PRESENTATION_STYLE_ASSIGNMENT((#221));
#214=PRESENTATION_STYLE_ASSIGNMENT((#222));
#215=PRESENTATION_STYLE_ASSIGNMENT((#223));
#216=PRESENTATION_STYLE_ASSIGNMENT((#224));
#217=PRESENTATION_STYLE_ASSIGNMENT((#225));
#218=PRESENTATION_STYLE_ASSIGNMENT((#226));
#219=PRESENTATION_STYLE_ASSIGNMENT((#227));
#220=PRESENTATION_STYLE_ASSIGNMENT((NULL_STYLE(.NULL.)));
#221=SURFACE_STYLE_USAGE(.BOTH.,#228);
#222=SURFACE_STYLE_USAGE(.BOTH.,#229);
#223=SURFACE_STYLE_USAGE(.BOTH.,#230);
#224=SURFACE_STYLE_USAGE(.BOTH.,#231);
#225=SURFACE_STYLE_USAGE(.BOTH.,#232);
#226=SURFACE_STYLE_USAGE(.BOTH.,#233);
#227=SURFACE_STYLE_USAGE(.BOTH.,#234);
#228=SURFACE_SIDE_STYLE('',(#235));
#229=SURFACE_SIDE_STYLE('',(#236));
#230=SURFACE_SIDE_STYLE('',(#237));
#231=SURFACE_SIDE_STYLE('',(#238));
#232=SURFACE_SIDE_STYLE('',(#239));
#233=SURFACE_SIDE_STYLE('',(#240));
#234=SURFACE_SIDE_STYLE('',(#241));
#235=SURFACE_STYLE_FILL_AREA(#242);
#236=SURFACE_STYLE_FILL_AREA(#243);
#237=SURFACE_STYLE_FILL_AREA(#244);
#238=SURFACE_STYLE_FILL_AREA(#245);
#239=SURFACE_STYLE_FILL_AREA(#246);
#240=SURFACE_STYLE_FILL_AREA(#247);
#241=SURFACE_STYLE_FILL_AREA(#248);
#242=FILL_AREA_STYLE('Opaque(2,2,0)',(#249));
#243=FILL_AREA_STYLE('Steel - Satin',(#250));
#244=FILL_AREA_STYLE('Nylon 6-6 (White)',(#251));
#245=FILL_AREA_STYLE('Opaque(255,238,34)',(#252));
#246=FILL_AREA_STYLE('Paint - Metallic (Green)',(#253));
#247=FILL_AREA_STYLE('LED (Green)',(#254));
#248=FILL_AREA_STYLE('ABS (White)',(#255));
#249=FILL_AREA_STYLE_COLOUR('Opaque(2,2,0)',#256);
#250=FILL_AREA_STYLE_COLOUR('Steel - Satin',#257);
#251=FILL_AREA_STYLE_COLOUR('Nylon 6-6 (White)',#258);
#252=FILL_AREA_STYLE_COLOUR('Opaque(255,238,34)',#259);
#253=FILL_AREA_STYLE_COLOUR('Paint - Metallic (Green)',#260);
#254=FILL_AREA_STYLE_COLOUR('LED (Green)',#261);
#255=FILL_AREA_STYLE_COLOUR('ABS (White)',#262);
#256=COLOUR_RGB('Opaque(2,2,0)',0.00784313725490196,0.00784313725490196,
0.);
#257=COLOUR_RGB('Steel - Satin',0.627450980392157,0.627450980392157,0.627450980392157);
#258=COLOUR_RGB('Nylon 6-6 (White)',0.,0.,0.);
#259=COLOUR_RGB('Opaque(255,238,34)',1.,0.933333333333333,0.133333333333333);
#260=COLOUR_RGB('Paint - Metallic (Green)',0.823529411764706,0.52156862745098,
0.258823529411765);
#261=COLOUR_RGB('LED (Green)',1.,0.654901960784314,0.101960784313725);
#262=COLOUR_RGB('ABS (White)',0.00784313725490196,0.00784313725490196,0.);
ENDSEC;
END-ISO-10303-21;
