ISO-10303-21;
HEADER;
FILE_DESCRIPTION(('FreeCAD Model'),'2;1');
FILE_NAME('Open CASCADE Shape Model','2025-06-23T20:41:53',(''),(''),
  'Open CASCADE STEP processor 7.8','FreeCAD','Unknown');
FILE_SCHEMA(('AUTOMOTIVE_DESIGN { 1 0 10303 214 1 1 1 1 }'));
ENDSEC;
DATA;
#1 = APPLICATION_PROTOCOL_DEFINITION('international standard',
  'automotive_design',2000,#2);
#2 = APPLICATION_CONTEXT(
  'core data for automotive mechanical design processes');
#3 = SHAPE_DEFINITION_REPRESENTATION(#4,#10);
#4 = PRODUCT_DEFINITION_SHAPE('','',#5);
#5 = PRODUCT_DEFINITION('design','',#6,#9);
#6 = PRODUCT_DEFINITION_FORMATION('','',#7);
#7 = PRODUCT('LilConnector023','LilConnector023','',(#8));
#8 = PRODUCT_CONTEXT('',#2,'mechanical');
#9 = PRODUCT_DEFINITION_CONTEXT('part definition',#2,'design');
#10 = ADVANCED_BREP_SHAPE_REPRESENTATION('',(#11,#15),#231);
#11 = AXIS2_PLACEMENT_3D('',#12,#13,#14);
#12 = CARTESIAN_POINT('',(0.,0.,0.));
#13 = DIRECTION('',(0.,0.,1.));
#14 = DIRECTION('',(1.,0.,-0.));
#15 = MANIFOLD_SOLID_BREP('',#16);
#16 = CLOSED_SHELL('',(#17,#73,#104,#128,#152,#176,#200,#217));
#17 = ADVANCED_FACE('',(#18),#68,.F.);
#18 = FACE_BOUND('',#19,.F.);
#19 = EDGE_LOOP('',(#20,#30,#38,#46,#54,#62));
#20 = ORIENTED_EDGE('',*,*,#21,.T.);
#21 = EDGE_CURVE('',#22,#24,#26,.T.);
#22 = VERTEX_POINT('',#23);
#23 = CARTESIAN_POINT('',(-11.39792475021,131.64240764974,8.));
#24 = VERTEX_POINT('',#25);
#25 = CARTESIAN_POINT('',(-11.39792475021,122.14593526779,8.));
#26 = LINE('',#27,#28);
#27 = CARTESIAN_POINT('',(-11.39792475021,131.64240764974,8.));
#28 = VECTOR('',#29,1.);
#29 = DIRECTION('',(1.328E-14,-1.,0.));
#30 = ORIENTED_EDGE('',*,*,#31,.T.);
#31 = EDGE_CURVE('',#24,#32,#34,.T.);
#32 = VERTEX_POINT('',#33);
#33 = CARTESIAN_POINT('',(0.,125.2,8.));
#34 = LINE('',#35,#36);
#35 = CARTESIAN_POINT('',(-11.39792475021,122.14593526779,8.));
#36 = VECTOR('',#37,1.);
#37 = DIRECTION('',(0.965925826289,0.258819045103,0.));
#38 = ORIENTED_EDGE('',*,*,#39,.T.);
#39 = EDGE_CURVE('',#32,#40,#42,.T.);
#40 = VERTEX_POINT('',#41);
#41 = CARTESIAN_POINT('',(11.397924750211,122.14593526779,8.));
#42 = LINE('',#43,#44);
#43 = CARTESIAN_POINT('',(0.,125.2,8.));
#44 = VECTOR('',#45,1.);
#45 = DIRECTION('',(0.965925826289,-0.258819045103,0.));
#46 = ORIENTED_EDGE('',*,*,#47,.T.);
#47 = EDGE_CURVE('',#40,#48,#50,.T.);
#48 = VERTEX_POINT('',#49);
#49 = CARTESIAN_POINT('',(11.397924750211,131.64240764974,8.));
#50 = LINE('',#51,#52);
#51 = CARTESIAN_POINT('',(11.397924750211,122.14593526779,8.));
#52 = VECTOR('',#53,1.);
#53 = DIRECTION('',(1.347E-14,1.,0.));
#54 = ORIENTED_EDGE('',*,*,#55,.T.);
#55 = EDGE_CURVE('',#48,#56,#58,.T.);
#56 = VERTEX_POINT('',#57);
#57 = CARTESIAN_POINT('',(0.,128.58834291754,8.));
#58 = LINE('',#59,#60);
#59 = CARTESIAN_POINT('',(11.397924750211,131.64240764974,8.));
#60 = VECTOR('',#61,1.);
#61 = DIRECTION('',(-0.965925826289,-0.258819045103,0.));
#62 = ORIENTED_EDGE('',*,*,#63,.T.);
#63 = EDGE_CURVE('',#56,#22,#64,.T.);
#64 = LINE('',#65,#66);
#65 = CARTESIAN_POINT('',(0.,128.58834291754,8.));
#66 = VECTOR('',#67,1.);
#67 = DIRECTION('',(-0.965925826289,0.258819045103,-0.));
#68 = PLANE('',#69);
#69 = AXIS2_PLACEMENT_3D('',#70,#71,#72);
#70 = CARTESIAN_POINT('',(2.1E-16,126.89417145877,8.));
#71 = DIRECTION('',(0.,0.,1.));
#72 = DIRECTION('',(1.,0.,0.));
#73 = ADVANCED_FACE('',(#74),#99,.F.);
#74 = FACE_BOUND('',#75,.F.);
#75 = EDGE_LOOP('',(#76,#77,#85,#93));
#76 = ORIENTED_EDGE('',*,*,#21,.F.);
#77 = ORIENTED_EDGE('',*,*,#78,.T.);
#78 = EDGE_CURVE('',#22,#79,#81,.T.);
#79 = VERTEX_POINT('',#80);
#80 = CARTESIAN_POINT('',(-11.39792475021,131.64240764974,12.));
#81 = LINE('',#82,#83);
#82 = CARTESIAN_POINT('',(-11.39792475021,131.64240764974,8.));
#83 = VECTOR('',#84,1.);
#84 = DIRECTION('',(0.,0.,1.));
#85 = ORIENTED_EDGE('',*,*,#86,.F.);
#86 = EDGE_CURVE('',#87,#79,#89,.T.);
#87 = VERTEX_POINT('',#88);
#88 = CARTESIAN_POINT('',(-11.39792475021,122.14593526779,12.));
#89 = LINE('',#90,#91);
#90 = CARTESIAN_POINT('',(-11.39792475021,129.26828955425,12.));
#91 = VECTOR('',#92,1.);
#92 = DIRECTION('',(-1.328E-14,1.,0.));
#93 = ORIENTED_EDGE('',*,*,#94,.F.);
#94 = EDGE_CURVE('',#24,#87,#95,.T.);
#95 = LINE('',#96,#97);
#96 = CARTESIAN_POINT('',(-11.39792475021,122.14593526779,8.));
#97 = VECTOR('',#98,1.);
#98 = DIRECTION('',(0.,0.,1.));
#99 = PLANE('',#100);
#100 = AXIS2_PLACEMENT_3D('',#101,#102,#103);
#101 = CARTESIAN_POINT('',(-11.39792475021,131.64240764974,8.));
#102 = DIRECTION('',(1.,1.328E-14,0.));
#103 = DIRECTION('',(1.328E-14,-1.,0.));
#104 = ADVANCED_FACE('',(#105),#123,.F.);
#105 = FACE_BOUND('',#106,.F.);
#106 = EDGE_LOOP('',(#107,#108,#116,#122));
#107 = ORIENTED_EDGE('',*,*,#63,.F.);
#108 = ORIENTED_EDGE('',*,*,#109,.T.);
#109 = EDGE_CURVE('',#56,#110,#112,.T.);
#110 = VERTEX_POINT('',#111);
#111 = CARTESIAN_POINT('',(0.,128.58834291754,12.));
#112 = LINE('',#113,#114);
#113 = CARTESIAN_POINT('',(0.,128.58834291754,8.));
#114 = VECTOR('',#115,1.);
#115 = DIRECTION('',(0.,0.,1.));
#116 = ORIENTED_EDGE('',*,*,#117,.F.);
#117 = EDGE_CURVE('',#79,#110,#118,.T.);
#118 = LINE('',#119,#120);
#119 = CARTESIAN_POINT('',(0.211771432346,128.53159893326,12.));
#120 = VECTOR('',#121,1.);
#121 = DIRECTION('',(0.965925826289,-0.258819045103,0.));
#122 = ORIENTED_EDGE('',*,*,#78,.F.);
#123 = PLANE('',#124);
#124 = AXIS2_PLACEMENT_3D('',#125,#126,#127);
#125 = CARTESIAN_POINT('',(0.,128.58834291754,8.));
#126 = DIRECTION('',(-0.258819045103,-0.965925826289,0.));
#127 = DIRECTION('',(-0.965925826289,0.258819045103,0.));
#128 = ADVANCED_FACE('',(#129),#147,.F.);
#129 = FACE_BOUND('',#130,.F.);
#130 = EDGE_LOOP('',(#131,#132,#140,#146));
#131 = ORIENTED_EDGE('',*,*,#55,.F.);
#132 = ORIENTED_EDGE('',*,*,#133,.T.);
#133 = EDGE_CURVE('',#48,#134,#136,.T.);
#134 = VERTEX_POINT('',#135);
#135 = CARTESIAN_POINT('',(11.397924750211,131.64240764974,12.));
#136 = LINE('',#137,#138);
#137 = CARTESIAN_POINT('',(11.397924750211,131.64240764974,8.));
#138 = VECTOR('',#139,1.);
#139 = DIRECTION('',(0.,0.,1.));
#140 = ORIENTED_EDGE('',*,*,#141,.F.);
#141 = EDGE_CURVE('',#110,#134,#142,.T.);
#142 = LINE('',#143,#144);
#143 = CARTESIAN_POINT('',(5.487190942759,130.05863129936,12.));
#144 = VECTOR('',#145,1.);
#145 = DIRECTION('',(0.965925826289,0.258819045103,0.));
#146 = ORIENTED_EDGE('',*,*,#109,.F.);
#147 = PLANE('',#148);
#148 = AXIS2_PLACEMENT_3D('',#149,#150,#151);
#149 = CARTESIAN_POINT('',(11.397924750211,131.64240764974,8.));
#150 = DIRECTION('',(0.258819045103,-0.965925826289,0.));
#151 = DIRECTION('',(-0.965925826289,-0.258819045103,0.));
#152 = ADVANCED_FACE('',(#153),#171,.F.);
#153 = FACE_BOUND('',#154,.F.);
#154 = EDGE_LOOP('',(#155,#156,#164,#170));
#155 = ORIENTED_EDGE('',*,*,#47,.F.);
#156 = ORIENTED_EDGE('',*,*,#157,.T.);
#157 = EDGE_CURVE('',#40,#158,#160,.T.);
#158 = VERTEX_POINT('',#159);
#159 = CARTESIAN_POINT('',(11.397924750211,122.14593526779,12.));
#160 = LINE('',#161,#162);
#161 = CARTESIAN_POINT('',(11.397924750211,122.14593526779,8.));
#162 = VECTOR('',#163,1.);
#163 = DIRECTION('',(0.,0.,1.));
#164 = ORIENTED_EDGE('',*,*,#165,.F.);
#165 = EDGE_CURVE('',#134,#158,#166,.T.);
#166 = LINE('',#167,#168);
#167 = CARTESIAN_POINT('',(11.397924750211,124.52005336328,12.));
#168 = VECTOR('',#169,1.);
#169 = DIRECTION('',(-1.347E-14,-1.,0.));
#170 = ORIENTED_EDGE('',*,*,#133,.F.);
#171 = PLANE('',#172);
#172 = AXIS2_PLACEMENT_3D('',#173,#174,#175);
#173 = CARTESIAN_POINT('',(11.397924750211,122.14593526779,8.));
#174 = DIRECTION('',(-1.,1.347E-14,0.));
#175 = DIRECTION('',(1.347E-14,1.,0.));
#176 = ADVANCED_FACE('',(#177),#195,.F.);
#177 = FACE_BOUND('',#178,.F.);
#178 = EDGE_LOOP('',(#179,#180,#188,#194));
#179 = ORIENTED_EDGE('',*,*,#39,.F.);
#180 = ORIENTED_EDGE('',*,*,#181,.T.);
#181 = EDGE_CURVE('',#32,#182,#184,.T.);
#182 = VERTEX_POINT('',#183);
#183 = CARTESIAN_POINT('',(0.,125.2,12.));
#184 = LINE('',#185,#186);
#185 = CARTESIAN_POINT('',(0.,125.2,8.));
#186 = VECTOR('',#187,1.);
#187 = DIRECTION('',(0.,0.,1.));
#188 = ORIENTED_EDGE('',*,*,#189,.F.);
#189 = EDGE_CURVE('',#158,#182,#190,.T.);
#190 = LINE('',#191,#192);
#191 = CARTESIAN_POINT('',(-0.211771432346,125.25674398427,12.));
#192 = VECTOR('',#193,1.);
#193 = DIRECTION('',(-0.965925826289,0.258819045103,0.));
#194 = ORIENTED_EDGE('',*,*,#157,.F.);
#195 = PLANE('',#196);
#196 = AXIS2_PLACEMENT_3D('',#197,#198,#199);
#197 = CARTESIAN_POINT('',(0.,125.2,8.));
#198 = DIRECTION('',(0.258819045103,0.965925826289,0.));
#199 = DIRECTION('',(0.965925826289,-0.258819045103,0.));
#200 = ADVANCED_FACE('',(#201),#212,.F.);
#201 = FACE_BOUND('',#202,.F.);
#202 = EDGE_LOOP('',(#203,#204,#205,#211));
#203 = ORIENTED_EDGE('',*,*,#31,.F.);
#204 = ORIENTED_EDGE('',*,*,#94,.T.);
#205 = ORIENTED_EDGE('',*,*,#206,.F.);
#206 = EDGE_CURVE('',#182,#87,#207,.T.);
#207 = LINE('',#208,#209);
#208 = CARTESIAN_POINT('',(-5.487190942759,123.72971161817,12.));
#209 = VECTOR('',#210,1.);
#210 = DIRECTION('',(-0.965925826289,-0.258819045103,0.));
#211 = ORIENTED_EDGE('',*,*,#181,.F.);
#212 = PLANE('',#213);
#213 = AXIS2_PLACEMENT_3D('',#214,#215,#216);
#214 = CARTESIAN_POINT('',(-11.39792475021,122.14593526779,8.));
#215 = DIRECTION('',(-0.258819045103,0.965925826289,0.));
#216 = DIRECTION('',(0.965925826289,0.258819045103,0.));
#217 = ADVANCED_FACE('',(#218),#226,.T.);
#218 = FACE_BOUND('',#219,.T.);
#219 = EDGE_LOOP('',(#220,#221,#222,#223,#224,#225));
#220 = ORIENTED_EDGE('',*,*,#206,.F.);
#221 = ORIENTED_EDGE('',*,*,#189,.F.);
#222 = ORIENTED_EDGE('',*,*,#165,.F.);
#223 = ORIENTED_EDGE('',*,*,#141,.F.);
#224 = ORIENTED_EDGE('',*,*,#117,.F.);
#225 = ORIENTED_EDGE('',*,*,#86,.F.);
#226 = PLANE('',#227);
#227 = AXIS2_PLACEMENT_3D('',#228,#229,#230);
#228 = CARTESIAN_POINT('',(2.1E-16,126.89417145877,12.));
#229 = DIRECTION('',(0.,0.,1.));
#230 = DIRECTION('',(1.,0.,0.));
#231 = ( GEOMETRIC_REPRESENTATION_CONTEXT(3) 
GLOBAL_UNCERTAINTY_ASSIGNED_CONTEXT((#235)) GLOBAL_UNIT_ASSIGNED_CONTEXT
((#232,#233,#234)) REPRESENTATION_CONTEXT('Context #1',
  '3D Context with UNIT and UNCERTAINTY') );
#232 = ( LENGTH_UNIT() NAMED_UNIT(*) SI_UNIT(.MILLI.,.METRE.) );
#233 = ( NAMED_UNIT(*) PLANE_ANGLE_UNIT() SI_UNIT($,.RADIAN.) );
#234 = ( NAMED_UNIT(*) SI_UNIT($,.STERADIAN.) SOLID_ANGLE_UNIT() );
#235 = UNCERTAINTY_MEASURE_WITH_UNIT(LENGTH_MEASURE(5.E-06),#232,
  'distance_accuracy_value','confusion accuracy');
#236 = PRODUCT_RELATED_PRODUCT_CATEGORY('part',$,(#7));
#237 = MECHANICAL_DESIGN_GEOMETRIC_PRESENTATION_REPRESENTATION('',(#238)
  ,#231);
#238 = STYLED_ITEM('color',(#239),#15);
#239 = PRESENTATION_STYLE_ASSIGNMENT((#240,#246));
#240 = SURFACE_STYLE_USAGE(.BOTH.,#241);
#241 = SURFACE_SIDE_STYLE('',(#242));
#242 = SURFACE_STYLE_FILL_AREA(#243);
#243 = FILL_AREA_STYLE('',(#244));
#244 = FILL_AREA_STYLE_COLOUR('',#245);
#245 = COLOUR_RGB('',0.678431390124,0.709803936702,0.741176476869);
#246 = CURVE_STYLE('',#247,POSITIVE_LENGTH_MEASURE(0.1),#248);
#247 = DRAUGHTING_PRE_DEFINED_CURVE_FONT('continuous');
#248 = COLOUR_RGB('',9.803921802644E-02,9.803921802644E-02,
  9.803921802644E-02);
ENDSEC;
END-ISO-10303-21;
