  0
SECTION
  2
HEADER
  9
$ACADVER
  1
AC1021
  9
$ACADMAINTVER
 70
    25
  9
$DWGCODEPAGE
  3
ANSI_1252
  9
$LASTSAVEDBY
  1
admin
  9
$INSBASE
 10
0.0
 20
0.0
 30
0.0
  9
$EXTMIN
 10
1.000000000000000E+20
 20
1.000000000000000E+20
 30
1.000000000000000E+20
  9
$EXTMAX
 10
-1.000000000000000E+20
 20
-1.000000000000000E+20
 30
-1.000000000000000E+20
  9
$LIMMIN
 10
0.0
 20
0.0
  9
$LIMMAX
 10
12.0
 20
9.0
  9
$ORTHOMODE
 70
     0
  9
$REGENMODE
 70
     1
  9
$FILLMODE
 70
     1
  9
$QTEXTMODE
 70
     0
  9
$MIRRTEXT
 70
     1
  9
$LTSCALE
 40
1.0
  9
$ATTMODE
 70
     1
  9
$TEXTSIZE
 40
0.2
  9
$TRACEWID
 40
0.05
  9
$TEXTSTYLE
  7
Standard
  9
$CLAYER
  8
0
  9
$CELTYPE
  6
ByLayer
  9
$CECOLOR
 62
   256
  9
$CELTSCALE
 40
1.0
  9
$DISPSILH
 70
     0
  9
$DIMSCALE
 40
1.0
  9
$DIMASZ
 40
0.18
  9
$DIMEXO
 40
0.0625
  9
$DIMDLI
 40
0.38
  9
$DIMRND
 40
0.0
  9
$DIMDLE
 40
0.0
  9
$DIMEXE
 40
0.18
  9
$DIMTP
 40
0.0
  9
$DIMTM
 40
0.0
  9
$DIMTXT
 40
0.18
  9
$DIMCEN
 40
0.09
  9
$DIMTSZ
 40
0.0
  9
$DIMTOL
 70
     0
  9
$DIMLIM
 70
     0
  9
$DIMTIH
 70
     1
  9
$DIMTOH
 70
     1
  9
$DIMSE1
 70
     0
  9
$DIMSE2
 70
     0
  9
$DIMTAD
 70
     0
  9
$DIMZIN
 70
     0
  9
$DIMBLK
  1

  9
$DIMASO
 70
     1
  9
$DIMSHO
 70
     1
  9
$DIMPOST
  1

  9
$DIMAPOST
  1

  9
$DIMALT
 70
     0
  9
$DIMALTD
 70
     2
  9
$DIMALTF
 40
25.4
  9
$DIMLFAC
 40
1.0
  9
$DIMTOFL
 70
     0
  9
$DIMTVP
 40
0.0
  9
$DIMTIX
 70
     0
  9
$DIMSOXD
 70
     0
  9
$DIMSAH
 70
     0
  9
$DIMBLK1
  1

  9
$DIMBLK2
  1

  9
$DIMSTYLE
  2
STANDARD_ACAD
  9
$DIMCLRD
 70
     0
  9
$DIMCLRE
 70
     0
  9
$DIMCLRT
 70
     0
  9
$DIMTFAC
 40
1.0
  9
$DIMGAP
 40
0.09
  9
$DIMJUST
 70
     0
  9
$DIMSD1
 70
     0
  9
$DIMSD2
 70
     0
  9
$DIMTOLJ
 70
     1
  9
$DIMTZIN
 70
     0
  9
$DIMALTZ
 70
     0
  9
$DIMALTTZ
 70
     0
  9
$DIMUPT
 70
     0
  9
$DIMDEC
 70
     4
  9
$DIMTDEC
 70
     4
  9
$DIMALTU
 70
     2
  9
$DIMALTTD
 70
     2
  9
$DIMTXSTY
  7
Standard
  9
$DIMAUNIT
 70
     0
  9
$DIMADEC
 70
     0
  9
$DIMALTRND
 40
0.0
  9
$DIMAZIN
 70
     0
  9
$DIMDSEP
 70
    46
  9
$DIMATFIT
 70
     3
  9
$DIMFRAC
 70
     0
  9
$DIMLDRBLK
  1

  9
$DIMLUNIT
 70
     2
  9
$DIMLWD
 70
    -2
  9
$DIMLWE
 70
    -2
  9
$DIMTMOVE
 70
     2
  9
$DIMFXL
 40
1.0
  9
$DIMFXLON
 70
     0
  9
$DIMJOGANG
 40
0.7853981633974483
  9
$DIMTFILL
 70
     0
  9
$DIMTFILLCLR
 70
     0
  9
$DIMARCSYM
 70
     0
  9
$DIMLTYPE
  6

  9
$DIMLTEX1
  6

  9
$DIMLTEX2
  6

  9
$LUNITS
 70
     2
  9
$LUPREC
 70
     2
  9
$SKETCHINC
 40
0.1
  9
$FILLETRAD
 40
0.0
  9
$AUNITS
 70
     0
  9
$AUPREC
 70
     0
  9
$MENU
  1
.
  9
$ELEVATION
 40
0.0
  9
$PELEVATION
 40
0.0
  9
$THICKNESS
 40
0.0
  9
$LIMCHECK
 70
     0
  9
$CHAMFERA
 40
0.0
  9
$CHAMFERB
 40
0.0
  9
$CHAMFERC
 40
0.0
  9
$CHAMFERD
 40
0.0
  9
$SKPOLY
 70
     0
  9
$TDCREATE
 40
2460970.581343819
  9
$TDUCREATE
 40
2460970.248010486
  9
$TDUPDATE
 40
2460970.581354745
  9
$TDUUPDATE
 40
2460970.248021412
  9
$TDINDWG
 40
0.0000000116
  9
$TDUSRTIMER
 40
0.0000000116
  9
$USRTIMER
 70
     1
  9
$ANGBASE
 50
0.0
  9
$ANGDIR
 70
     0
  9
$PDMODE
 70
     0
  9
$PDSIZE
 40
0.0
  9
$PLINEWID
 40
0.0
  9
$SPLFRAME
 70
     0
  9
$SPLINETYPE
 70
     6
  9
$SPLINESEGS
 70
     8
  9
$HANDSEED
  5
196
  9
$SURFTAB1
 70
     6
  9
$SURFTAB2
 70
     6
  9
$SURFTYPE
 70
     6
  9
$SURFU
 70
     6
  9
$SURFV
 70
     6
  9
$UCSBASE
  2

  9
$UCSNAME
  2

  9
$UCSORG
 10
0.0
 20
0.0
 30
0.0
  9
$UCSXDIR
 10
1.0
 20
0.0
 30
0.0
  9
$UCSYDIR
 10
0.0
 20
1.0
 30
0.0
  9
$UCSORTHOREF
  2

  9
$UCSORTHOVIEW
 70
     0
  9
$UCSORGTOP
 10
0.0
 20
0.0
 30
0.0
  9
$UCSORGBOTTOM
 10
0.0
 20
0.0
 30
0.0
  9
$UCSORGLEFT
 10
0.0
 20
0.0
 30
0.0
  9
$UCSORGRIGHT
 10
0.0
 20
0.0
 30
0.0
  9
$UCSORGFRONT
 10
0.0
 20
0.0
 30
0.0
  9
$UCSORGBACK
 10
0.0
 20
0.0
 30
0.0
  9
$PUCSBASE
  2

  9
$PUCSNAME
  2

  9
$PUCSORG
 10
0.0
 20
0.0
 30
0.0
  9
$PUCSXDIR
 10
1.0
 20
0.0
 30
0.0
  9
$PUCSYDIR
 10
0.0
 20
1.0
 30
0.0
  9
$PUCSORTHOREF
  2

  9
$PUCSORTHOVIEW
 70
     0
  9
$PUCSORGTOP
 10
0.0
 20
0.0
 30
0.0
  9
$PUCSORGBOTTOM
 10
0.0
 20
0.0
 30
0.0
  9
$PUCSORGLEFT
 10
0.0
 20
0.0
 30
0.0
  9
$PUCSORGRIGHT
 10
0.0
 20
0.0
 30
0.0
  9
$PUCSORGFRONT
 10
0.0
 20
0.0
 30
0.0
  9
$PUCSORGBACK
 10
0.0
 20
0.0
 30
0.0
  9
$USERI1
 70
     0
  9
$USERI2
 70
     0
  9
$USERI3
 70
     0
  9
$USERI4
 70
     0
  9
$USERI5
 70
     0
  9
$USERR1
 40
0.0
  9
$USERR2
 40
0.0
  9
$USERR3
 40
0.0
  9
$USERR4
 40
0.0
  9
$USERR5
 40
0.0
  9
$WORLDVIEW
 70
     1
  9
$SHADEDGE
 70
     3
  9
$SHADEDIF
 70
    70
  9
$TILEMODE
 70
     1
  9
$MAXACTVP
 70
    64
  9
$PINSBASE
 10
0.0
 20
0.0
 30
0.0
  9
$PLIMCHECK
 70
     0
  9
$PEXTMIN
 10
1.000000000000000E+20
 20
1.000000000000000E+20
 30
1.000000000000000E+20
  9
$PEXTMAX
 10
-1.000000000000000E+20
 20
-1.000000000000000E+20
 30
-1.000000000000000E+20
  9
$PLIMMIN
 10
0.0
 20
0.0
  9
$PLIMMAX
 10
12.0
 20
9.0
  9
$UNITMODE
 70
     0
  9
$VISRETAIN
 70
     1
  9
$PLINEGEN
 70
     0
  9
$PSLTSCALE
 70
     1
  9
$TREEDEPTH
 70
  3020
  9
$CMLSTYLE
  2
Standard
  9
$CMLJUST
 70
     0
  9
$CMLSCALE
 40
1.0
  9
$PROXYGRAPHICS
 70
     1
  9
$MEASUREMENT
 70
     1
  9
$CELWEIGHT
370
    -1
  9
$ENDCAPS
280
     0
  9
$JOINSTYLE
280
     0
  9
$LWDISPLAY
290
     0
  9
$INSUNITS
 70
     5
  9
$HYPERLINKBASE
  1

  9
$STYLESHEET
  1

  9
$XEDIT
290
     1
  9
$CEPSNTYPE
380
     0
  9
$PSTYLEMODE
290
     1
  9
$FINGERPRINTGUID
  2
{0f7e88d2-bd52-4535-b0c0-f9867525bf36}
  9
$VERSIONGUID
  2
{FAEB1C32-E019-11D5-929B-00C0DF256EC4}
  9
$EXTNAMES
290
     1
  9
$PSVPSCALE
 40
0.0
  9
$OLESTARTUP
290
     0
  9
$SORTENTS
280
   127
  9
$INDEXCTL
280
     0
  9
$HIDETEXT
280
     1
  9
$XCLIPFRAME
290
     0
  9
$HALOGAP
280
     0
  9
$OBSCOLOR
 70
   257
  9
$OBSLTYPE
280
     0
  9
$INTERSECTIONDISPLAY
280
     0
  9
$INTERSECTIONCOLOR
 70
   257
  9
$DIMASSOC
280
     2
  9
$PROJECTNAME
  1

  9
$CAMERADISPLAY
290
     0
  9
$LENSLENGTH
 40
50.0
  9
$CAMERAHEIGHT
 40
0.0
  9
$STEPSPERSEC
 40
2.0
  9
$STEPSIZE
 40
6.0
  9
$3DDWFPREC
 40
2.0
  9
$PSOLWIDTH
 40
0.25
  9
$PSOLHEIGHT
 40
4.0
  9
$LOFTANG1
 40
1.570796326794897
  9
$LOFTANG2
 40
1.570796326794897
  9
$LOFTMAG1
 40
0.0
  9
$LOFTMAG2
 40
0.0
  9
$LOFTPARAM
 70
     7
  9
$LOFTNORMALS
280
     1
  9
$LATITUDE
 40
37.795
  9
$LONGITUDE
 40
-122.394
  9
$NORTHDIRECTION
 40
0.0
  9
$TIMEZONE
 70
 -8000
  9
$LIGHTGLYPHDISPLAY
280
     1
  9
$TILEMODELIGHTSYNCH
280
     1
  9
$CMATERIAL
347
44
  9
$SOLIDHIST
280
     0
  9
$SHOWHIST
280
     1
  9
$DWFFRAME
280
     2
  9
$DGNFRAME
280
     2
  9
$REALWORLDSCALE
290
     1
  9
$INTERFERECOLOR
 62
   256
  9
$CSHADOW
280
     0
  9
$SHADOWPLANELOCATION
 40
0.0
  0
ENDSEC
  0
SECTION
  2
CLASSES
  0
CLASS
  1
ACDBDICTIONARYWDFLT
  2
AcDbDictionaryWithDefault
  3
ObjectDBX Classes
 90
        0
 91
        3
280
     0
281
     0
  0
CLASS
  1
VISUALSTYLE
  2
AcDbVisualStyle
  3
ObjectDBX Classes
 90
     4095
 91
        3
280
     0
281
     0
  0
CLASS
  1
MATERIAL
  2
AcDbMaterial
  3
ObjectDBX Classes
 90
     1153
 91
        3
280
     0
281
     0
  0
CLASS
  1
SCALE
  2
AcDbScale
  3
ObjectDBX Classes
 90
     1153
 91
        3
280
     0
281
     0
  0
CLASS
  1
TABLESTYLE
  2
AcDbTableStyle
  3
ObjectDBX Classes
 90
     4095
 91
        3
280
     0
281
     0
  0
CLASS
  1
MLEADERSTYLE
  2
AcDbMLeaderStyle
  3
ACDB_MLEADERSTYLE_CLASS
 90
     4095
 91
        3
280
     0
281
     0
  0
CLASS
  1
SUN
  2
AcDbSun
  3
SCENEOE
 90
     1153
 91
        3
280
     0
281
     0
  0
CLASS
  1
DICTIONARYVAR
  2
AcDbDictionaryVar
  3
ObjectDBX Classes
 90
        0
 91
        3
280
     0
281
     0
  0
CLASS
  1
CELLSTYLEMAP
  2
AcDbCellStyleMap
  3
ObjectDBX Classes
 90
     1152
 91
        3
280
     0
281
     0
  0
ENDSEC
  0
SECTION
  2
TABLES
  0
TABLE
  2
VPORT
  5
8
330
0
100
AcDbSymbolTable
 70
     1
  0
VPORT
  5
29
330
8
100
AcDbSymbolTableRecord
100
AcDbViewportTableRecord
  2
*Active
 70
     0
 10
0.0
 20
0.0
 11
1.0
 21
1.0
 12
10.42990654205607
 22
4.5
 13
0.0
 23
0.0
 14
0.5
 24
0.5
 15
0.5
 25
0.5
 16
0.0
 26
0.0
 36
1.0
 17
0.0
 27
0.0
 37
0.0
 40
9.0
 41
1.972972972850329
 42
50.0
 43
0.0
 44
0.0
 50
0.0
 51
0.0
 71
     0
 72
   100
 73
     1
 74
     3
 75
     0
 76
     0
 77
     0
 78
     0
281
     0
 65
     1
110
0.0
120
0.0
130
0.0
111
1.0
121
0.0
131
0.0
112
0.0
122
1.0
132
0.0
 79
     0
146
0.0
348
2F
 60
     3
 61
     5
292
     1
282
     1
141
0.0
142
0.0
 63
   250
361
5D
  0
ENDTAB
  0
TABLE
  2
LTYPE
  5
5
330
0
100
AcDbSymbolTable
 70
     1
  0
LTYPE
  5
14
330
5
100
AcDbSymbolTableRecord
100
AcDbLinetypeTableRecord
  2
ByBlock
 70
     0
  3

 72
    65
 73
     0
 40
0.0
  0
LTYPE
  5
15
330
5
100
AcDbSymbolTableRecord
100
AcDbLinetypeTableRecord
  2
ByLayer
 70
     0
  3

 72
    65
 73
     0
 40
0.0
  0
LTYPE
  5
16
330
5
100
AcDbSymbolTableRecord
100
AcDbLinetypeTableRecord
  2
Continuous
 70
     0
  3
Solid line
 72
    65
 73
     0
 40
0.0
  0
ENDTAB
  0
TABLE
  2
LAYER
  5
2
330
0
100
AcDbSymbolTable
 70
     3
  0
LAYER
  5
10
330
2
100
AcDbSymbolTableRecord
100
AcDbLayerTableRecord
  2
0
 70
     0
 62
     7
  6
Continuous
370
    -3
390
F
347
46
  0
LAYER
  5
5F
330
2
100
AcDbSymbolTableRecord
100
AcDbLayerTableRecord
  2
图层 03
 70
     0
 62
     4
420
    65529
  6
Continuous
370
    -3
390
F
347
46
  0
LAYER
  5
152
330
2
100
AcDbSymbolTableRecord
100
AcDbLayerTableRecord
  2
图层01
 70
     0
 62
    12
420
 13107200
  6
Continuous
370
    -3
390
F
347
46
  0
ENDTAB
  0
TABLE
  2
STYLE
  5
3
330
0
100
AcDbSymbolTable
 70
     1
  0
STYLE
  5
11
330
3
100
AcDbSymbolTableRecord
100
AcDbTextStyleTableRecord
  2
Standard
 70
     0
 40
0.0
 41
1.0
 50
0.0
 71
     0
 42
0.2
  3
txt
  4

  0
ENDTAB
  0
TABLE
  2
VIEW
  5
6
330
0
100
AcDbSymbolTable
 70
     0
  0
ENDTAB
  0
TABLE
  2
UCS
  5
7
330
0
100
AcDbSymbolTable
 70
     0
  0
ENDTAB
  0
TABLE
  2
APPID
  5
9
330
0
100
AcDbSymbolTable
 70
     3
  0
APPID
  5
12
330
9
100
AcDbSymbolTableRecord
100
AcDbRegAppTableRecord
  2
ACAD
 70
     0
  0
APPID
  5
5E
330
9
100
AcDbSymbolTableRecord
100
AcDbRegAppTableRecord
  2
Rhino
 70
     0
  0
APPID
  5
18E
330
9
100
AcDbSymbolTableRecord
100
AcDbRegAppTableRecord
  2
ACAD_MLEADERVER
 70
     0
  0
ENDTAB
  0
TABLE
  2
DIMSTYLE
  5
A
330
0
100
AcDbSymbolTable
 70
     1
100
AcDbDimStyleTable
  0
DIMSTYLE
105
27
330
A
100
AcDbSymbolTableRecord
100
AcDbDimStyleTableRecord
  2
STANDARD_ACAD
 70
     0
178
     0
340
11
  0
ENDTAB
  0
TABLE
  2
BLOCK_RECORD
  5
1
330
0
100
AcDbSymbolTable
 70
     1
  0
BLOCK_RECORD
  5
1F
330
1
100
AcDbSymbolTableRecord
100
AcDbBlockTableRecord
  2
*Model_Space
340
22
 70
     0
280
     1
281
     0
  0
BLOCK_RECORD
  5
1B
330
1
100
AcDbSymbolTableRecord
100
AcDbBlockTableRecord
  2
*Paper_Space
340
1E
 70
     0
280
     1
281
     0
  0
BLOCK_RECORD
  5
23
330
1
100
AcDbSymbolTableRecord
100
AcDbBlockTableRecord
  2
*Paper_Space0
340
26
 70
     0
280
     1
281
     0
  0
ENDTAB
  0
ENDSEC
  0
SECTION
  2
BLOCKS
  0
BLOCK
  5
20
330
1F
100
AcDbEntity
  8
0
100
AcDbBlockBegin
  2
*Model_Space
 70
     0
 10
0.0
 20
0.0
 30
0.0
  3
*Model_Space
  1

  0
ENDBLK
  5
21
330
1F
100
AcDbEntity
  8
0
100
AcDbBlockEnd
  0
BLOCK
  5
1C
330
1B
100
AcDbEntity
 67
     1
  8
0
100
AcDbBlockBegin
  2
*Paper_Space
 70
     0
 10
0.0
 20
0.0
 30
0.0
  3
*Paper_Space
  1

  0
ENDBLK
  5
1D
330
1B
100
AcDbEntity
 67
     1
  8
0
100
AcDbBlockEnd
  0
BLOCK
  5
24
330
23
100
AcDbEntity
  8
0
100
AcDbBlockBegin
  2
*Paper_Space0
 70
     0
 10
0.0
 20
0.0
 30
0.0
  3
*Paper_Space0
  1

  0
ENDBLK
  5
25
330
23
100
AcDbEntity
  8
0
100
AcDbBlockEnd
  0
ENDSEC
  0
SECTION
  2
ENTITIES
  0
SPLINE
  5
60
330
1F
100
AcDbEntity
  8
图层 03
100
AcDbSpline
210
0.0
220
0.0
230
1.0
 70
     8
 71
     3
 72
     8
 73
     4
 74
     0
 42
0.0000000001
 43
0.0000000001
 40
642.5275289492446
 40
642.5275289492446
 40
642.5275289492446
 40
642.5275289492446
 40
672.6419647964608
 40
672.6419647964608
 40
672.6419647964608
 40
672.6419647964608
 10
4279.276695184602
 20
48.88833603627063
 30
-0.0000000000004832
 10
4277.672370099477
 20
47.33605416584305
 30
-0.0000000000004832
 10
4276.074304481677
 20
45.77677418363385
 30
-0.0000000000004832
 10
4274.486108134038
 20
44.20704011315797
 30
-0.0000000000004832
  0
SPLINE
  5
61
330
1F
100
AcDbEntity
  8
图层 03
100
AcDbSpline
210
0.0
220
0.0
230
1.0
 70
     8
 71
     3
 72
     8
 73
     4
 74
     0
 42
0.0000000001
 43
0.0000000001
 40
672.6419647964608
 40
672.6419647964608
 40
672.6419647964608
 40
672.6419647964608
 40
698.7789630891602
 40
698.7789630891602
 40
698.7789630891602
 40
698.7789630891602
 10
4274.486108134038
 20
44.20704011315797
 30
-0.0000000000004832
 10
4273.054222197486
 20
42.90419326966605
 30
-0.0000000000004832
 10
4271.620876104327
 20
41.60303070281429
 30
-0.0000000000004832
 10
4270.185949920953
 20
40.30371404719608
 30
-0.0000000000004832
  0
SPLINE
  5
62
330
1F
100
AcDbEntity
  8
图层 03
100
AcDbSpline
210
0.0
220
0.0
230
1.0
 70
     8
 71
     3
 72
     8
 73
     4
 74
     0
 42
0.0000000001
 43
0.0000000001
 40
698.7789630891602
 40
698.7789630891602
 40
698.7789630891602
 40
698.7789630891602
 40
723.2582117758485
 40
723.2582117758485
 40
723.2582117758485
 40
723.2582117758485
 10
4270.185949920953
 20
40.30371404719608
 30
-0.0000000000004832
 10
4268.884094756118
 20
39.03941675069814
 30
-0.0000000000004832
 10
4267.586514662969
 20
37.77040195312668
 30
-0.0000000000004832
 10
4266.293277695616
 20
36.49677090087016
 30
-0.0000000000004832
  0
SPLINE
  5
63
330
1F
100
AcDbEntity
  8
图层 03
100
AcDbSpline
210
0.0
220
0.0
230
1.0
 70
     8
 71
     3
 72
     8
 73
     4
 74
     0
 42
0.0000000001
 43
0.0000000001
 40
723.2582117758485
 40
723.2582117758485
 40
723.2582117758485
 40
723.2582117758485
 40
749.2435395231705
 40
749.2435395231705
 40
749.2435395231705
 40
749.2435395231705
 10
4266.293277695616
 20
36.49677090087016
 30
-0.0000000000004832
 10
4265.027582502977
 20
35.04075482294149
 30
-0.0000000000004832
 10
4263.787644290923
 20
33.54991637698731
 30
-0.0000000000004832
 10
4262.578412120833
 20
32.04279044422333
 30
-0.0000000000004832
  0
SPLINE
  5
64
330
1F
100
AcDbEntity
  8
图层 03
100
AcDbSpline
210
0.0
220
0.0
230
1.0
 70
     8
 71
     3
 72
     8
 73
     4
 74
     0
 42
0.0000000001
 43
0.0000000001
 40
749.2435395231705
 40
749.2435395231705
 40
749.2435395231705
 40
749.2435395231705
 40
778.0132428281722
 40
778.0132428281722
 40
778.0132428281722
 40
778.0132428281722
 10
4262.578412120833
 20
32.04279044422333
 30
-0.0000000000004832
 10
4261.022720975461
 20
30.58292074007443
 30
-0.0000000000004832
 10
4259.48902548319
 20
29.1059092424922
 30
-0.0000000000004832
 10
4257.975686175712
 20
27.59952803843839
 30
-0.0000000000004832
  0
SPLINE
  5
65
330
1F
100
AcDbEntity
  8
图层 03
100
AcDbSpline
210
0.0
220
0.0
230
1.0
 70
     8
 71
     3
 72
     8
 73
     4
 74
     0
 42
0.0000000001
 43
0.0000000001
 40
778.0132428281722
 40
778.0132428281722
 40
778.0132428281722
 40
778.0132428281722
 40
805.4704403933004
 40
805.4704403933004
 40
805.4704403933004
 40
805.4704403933004
 10
4257.975686175712
 20
27.59952803843817
 30
-0.0000000000004832
 10
4256.189167890278
 20
26.63962605850747
 30
-0.0000000000004832
 10
4254.396023876018
 20
25.69171663620159
 30
-0.0000000000004832
 10
4252.597766629266
 20
24.75385876968528
 30
-0.0000000000004832
  0
SPLINE
  5
66
330
1F
100
AcDbEntity
  8
图层 03
100
AcDbSpline
210
0.0
220
0.0
230
1.0
 70
     8
 71
     3
 72
     8
 73
     4
 74
     0
 42
0.0000000001
 43
0.0000000001
 40
805.4704403933004
 40
805.4704403933004
 40
805.4704403933004
 40
805.4704403933004
 40
832.2498473853682
 40
832.2498473853682
 40
832.2498473853682
 40
832.2498473853682
 10
4252.597766629266
 20
24.75385876968528
 30
-0.0000000000004832
 10
4250.600094258025
 20
24.64114709993964
 30
-0.0000000000004832
 10
4248.598238415084
 20
24.5038329860738
 30
-0.0000000000004832
 10
4246.605576348708
 20
24.34866452739698
 30
-0.0000000000004832
  0
SPLINE
  5
67
330
1F
100
AcDbEntity
  8
图层 03
100
AcDbSpline
210
0.0
220
0.0
230
1.0
 70
     8
 71
     3
 72
     8
 73
     4
 74
     0
 42
0.0000000001
 43
0.0000000001
 40
832.2498473853682
 40
832.2498473853682
 40
832.2498473853682
 40
832.2498473853682
 40
859.9180010446911
 40
859.9180010446911
 40
859.9180010446911
 40
859.9180010446911
 10
4246.605576348708
 20
24.34866452739698
 30
-0.0000000000004832
 10
4244.692737034594
 20
25.30201119973651
 30
-0.0000000000004832
 10
4242.773195839267
 20
26.23996846277555
 30
-0.0000000000004832
 10
4240.848992024478
 20
27.16568088831696
 30
-0.0000000000004832
  0
SPLINE
  5
68
330
1F
100
AcDbEntity
  8
图层 03
100
AcDbSpline
210
0.0
220
0.0
230
1.0
 70
     8
 71
     3
 72
     8
 73
     4
 74
     0
 42
0.0000000001
 43
0.0000000001
 40
859.9180010446911
 40
859.9180010446911
 40
859.9180010446911
 40
859.9180010446911
 40
888.6154074598344
 40
888.6154074598344
 40
888.6154074598344
 40
888.6154074598344
 10
4240.848992024478
 20
27.16568088831696
 30
-0.0000000000004832
 10
4240.543156046213
 20
29.3873602586209
 30
-0.0000000000004832
 10
4240.385421994826
 20
31.61416934148997
 30
-0.0000000000004832
 10
4240.346143789748
 20
33.84162159067387
 30
-0.0000000000004832
  0
SPLINE
  5
69
330
1F
100
AcDbEntity
  8
图层 03
100
AcDbSpline
210
0.0
220
0.0
230
1.0
 70
     8
 71
     3
 72
     8
 73
     4
 74
     0
 42
0.0000000001
 43
0.0000000001
 40
888.6154074598344
 40
888.6154074598344
 40
888.6154074598344
 40
888.6154074598344
 40
919.0238382788489
 40
919.0238382788489
 40
919.0238382788489
 40
919.0238382788489
 10
4240.346143789748
 20
33.84162159067387
 30
-0.0000000000004832
 10
4240.566419903938
 20
36.17522879431954
 30
-0.0000000000004832
 10
4240.810595705128
 20
38.50537746250643
 30
-0.0000000000004832
 10
4241.077084643451
 20
40.83115040494863
 30
-0.0000000000004832
  0
SPLINE
  5
6A
330
1F
100
AcDbEntity
  8
图层 03
100
AcDbSpline
210
0.0
220
0.0
230
1.0
 70
     8
 71
     3
 72
     8
 73
     4
 74
     0
 42
0.0000000001
 43
0.0000000001
 40
919.0238382788489
 40
919.0238382788489
 40
919.0238382788489
 40
919.0238382788489
 40
951.4533747296582
 40
951.4533747296582
 40
951.4533747296582
 40
951.4533747296582
 10
4241.077084643451
 20
40.83115040494863
 30
-0.0000000000004832
 10
4241.594988813666
 20
43.25763338258616
 30
-0.0000000000004832
 10
4242.108559440308
 20
45.68535704490705
 30
-0.0000000000004832
 10
4242.618017327644
 20
48.11421033883335
 30
-0.0000000000004832
  0
SPLINE
  5
6B
330
1F
100
AcDbEntity
  8
图层 03
100
AcDbSpline
210
0.0
220
0.0
230
1.0
 70
     8
 71
     3
 72
     8
 73
     4
 74
     0
 42
0.0000000001
 43
0.0000000001
 40
951.4533747296582
 40
951.4533747296582
 40
951.4533747296582
 40
951.4533747296582
 40
989.6076076034944
 40
989.6076076034944
 40
989.6076076034944
 40
989.6076076034944
 10
4242.618017327644
 20
48.11421033883335
 30
-0.0000000000004832
 10
4243.608097620217
 20
50.83222375467767
 30
-0.0000000000004832
 10
4244.600320201997
 20
53.5493003730935
 30
-0.0000000000004832
 10
4245.594262554781
 20
56.26561572554897
 30
-0.0000000000004832
  0
SPLINE
  5
6C
330
1F
100
AcDbEntity
  8
图层 03
100
AcDbSpline
210
0.0
220
0.0
230
1.0
 70
     8
 71
     3
 72
     8
 73
     4
 74
     0
 42
0.0000000001
 43
0.0000000001
 40
989.6076076034944
 40
989.6076076034944
 40
989.6076076034944
 40
989.6076076034944
 40
1026.944943589863
 40
1026.944943589863
 40
1026.944943589863
 40
1026.944943589863
 10
4245.594262554781
 20
56.26561572554897
 30
-0.0000000000004832
 10
4247.43138863342
 20
58.34002361993748
 30
-0.0000000000004832
 10
4249.296716931176
 20
60.40389796249372
 30
-0.0000000000004832
 10
4251.18232458571
 20
62.43104427182743
 30
-0.0000000000004832
  0
SPLINE
  5
6D
330
1F
100
AcDbEntity
  8
图层 03
100
AcDbSpline
210
0.0
220
0.0
230
1.0
 70
     8
 71
     3
 72
     8
 73
     4
 74
     0
 42
0.0000000001
 43
0.0000000001
 40
1026.944943589863
 40
1026.944943589863
 40
1026.944943589863
 40
1026.944943589863
 40
1033.575695561804
 40
1033.575695561804
 40
1033.575695561804
 40
1033.575695561804
 10
4251.18232458571
 20
62.43104427182743
 30
-0.0000000000004832
 10
4251.453427549686
 20
62.84635677787833
 30
-0.0000000000004832
 10
4251.730602927924
 20
63.25744352999141
 30
-0.0000000000004832
 10
4252.014018435237
 20
63.66352427365769
 30
-0.0000000000004832
  0
SPLINE
  5
6E
330
1F
100
AcDbEntity
  8
图层 03
100
AcDbSpline
210
0.0
220
0.0
230
1.0
 70
     8
 71
     3
 72
     8
 73
     4
 74
     0
 42
0.0000000001
 43
0.0000000001
 40
1033.575695561804
 40
1033.575695561804
 40
1033.575695561804
 40
1033.575695561804
 40
1075.026006208532
 40
1075.026006208532
 40
1075.026006208532
 40
1075.026006208532
 10
4252.014018435237
 20
63.66352427365769
 30
-0.0000000000004832
 10
4254.427196748124
 20
65.55326535969175
 30
-0.0000000000004832
 10
4256.86549169456
 20
67.41026302577859
 30
-0.0000000000004832
 10
4259.328909638034
 20
69.23183364073748
 30
-0.0000000000004832
  0
SPLINE
  5
6F
330
1F
100
AcDbEntity
  8
图层 03
100
AcDbSpline
210
0.0
220
0.0
230
1.0
 70
     8
 71
     3
 72
     8
 73
     4
 74
     0
 42
0.0000000001
 43
0.0000000001
 40
1075.026006208532
 40
1075.026006208532
 40
1075.026006208532
 40
1075.026006208532
 40
1116.615051199983
 40
1116.615051199983
 40
1116.615051199983
 40
1116.615051199983
 10
4259.328909638034
 20
69.23183364073748
 30
-0.0000000000004832
 10
4262.220282278342
 20
70.28561364701613
 30
-0.0000000000004832
 10
4265.118437457427
 20
71.32239899981766
 30
-0.0000000000004832
 10
4268.023226888414
 20
72.34087686276007
 30
-0.0000000000004832
  0
SPLINE
  5
70
330
1F
100
AcDbEntity
  8
图层 03
100
AcDbSpline
210
0.0
220
0.0
230
1.0
 70
     8
 71
     3
 72
     8
 73
     4
 74
     0
 42
0.0000000001
 43
0.0000000001
 40
1116.615051199983
 40
1116.615051199983
 40
1116.615051199983
 40
1116.615051199983
 40
1117.543503347956
 40
1117.543503347956
 40
1117.543503347956
 40
1117.543503347956
 10
4268.023226888414
 20
72.34087686276007
 30
-0.0000000000004832
 10
4268.092995339484
 20
72.33743459137213
 30
-0.0000000000004832
 10
4268.16276525097
 20
72.33386693440173
 30
-0.0000000000004832
 10
4268.232535357019
 20
72.33017626225148
 30
-0.0000000000004832
  0
SPLINE
  5
71
330
1F
100
AcDbEntity
  8
图层 03
100
AcDbSpline
210
0.0
220
0.0
230
1.0
 70
     8
 71
     3
 72
     8
 73
     4
 74
     0
 42
0.0000000001
 43
0.0000000001
 40
1117.543503347956
 40
1117.543503347956
 40
1117.543503347956
 40
1117.543503347956
 40
1160.705237852452
 40
1160.705237852452
 40
1160.705237852452
 40
1160.705237852452
 10
4268.232535357019
 20
72.33017626225148
 30
-0.0000000000004832
 10
4271.459492171349
 20
72.58008842383333
 30
-0.0000000000004832
 10
4274.656533859225
 20
72.79255293715494
 30
-0.0000000000004832
 10
4277.89256946891
 20
72.96432122249587
 30
-0.0000000000004832
  0
SPLINE
  5
72
330
1F
100
AcDbEntity
  8
图层 03
100
AcDbSpline
210
0.0
220
0.0
230
1.0
 70
     8
 71
     3
 72
     8
 73
     4
 74
     0
 42
0.0000000001
 43
0.0000000001
 40
1160.705237852452
 40
1160.705237852452
 40
1160.705237852452
 40
1160.705237852452
 40
1195.560085233215
 40
1195.560085233215
 40
1195.560085233215
 40
1195.560085233215
 10
4277.89256946891
 20
72.96432122249587
 30
-0.0000000000004832
 10
4279.954716714777
 20
71.17674694651566
 30
-0.0000000000004832
 10
4282.02745941571
 20
69.40202176521825
 30
-0.0000000000004832
 10
4284.115711120648
 20
67.6480978662272
 30
-0.0000000000004832
  0
SPLINE
  5
73
330
1F
100
AcDbEntity
  8
图层 03
100
AcDbSpline
210
0.0
220
0.0
230
1.0
 70
     8
 71
     3
 72
     8
 73
     4
 74
     0
 42
0.0000000001
 43
0.0000000001
 40
1195.560085233215
 40
1195.560085233215
 40
1195.560085233215
 40
1195.560085233215
 40
1222.730210669875
 40
1222.730210669875
 40
1222.730210669875
 40
1222.730210669875
 10
4284.115711120648
 20
67.6480978662272
 30
-0.0000000000004832
 10
4284.56468899444
 20
65.56661800010613
 30
-0.0000000000004832
 10
4285.005033842435
 20
63.48354559373013
 30
-0.0000000000004832
 10
4285.433589973236
 20
61.39867200134722
 30
-0.0000000000004832
  0
SPLINE
  5
74
330
1F
100
AcDbEntity
  8
图层 03
100
AcDbSpline
210
0.0
220
0.0
230
1.0
 70
     8
 71
     3
 72
     8
 73
     4
 74
     0
 42
0.0000000001
 43
0.0000000001
 40
1222.730210669875
 40
1222.730210669875
 40
1222.730210669875
 40
1222.730210669875
 40
1252.368966260892
 40
1252.368966260892
 40
1252.368966260892
 40
1252.368966260892
 10
4285.433589973236
 20
61.39867200134722
 30
-0.0000000000004832
 10
4284.748760842619
 20
59.25228466987619
 30
-0.0000000000004832
 10
4284.065156752406
 20
57.10541538720258
 30
-0.0000000000004832
 10
4283.382863201747
 20
54.95803579690653
 30
-0.0000000000004832
  0
SPLINE
  5
75
330
1F
100
AcDbEntity
  8
图层 03
100
AcDbSpline
210
0.0
220
0.0
230
1.0
 70
     8
 71
     3
 72
     8
 73
     4
 74
     0
 42
0.0000000001
 43
0.0000000001
 40
1252.368966260892
 40
1252.368966260892
 40
1252.368966260892
 40
1252.368966260892
 40
1285.055057898489
 40
1285.055057898489
 40
1285.055057898489
 40
1285.055057898489
 10
4283.382863201747
 20
54.95803579690653
 30
-0.0000000000004832
 10
4281.962754599994
 20
52.96847097142279
 30
-0.0000000000004832
 10
4280.601266812469
 20
50.94969198647743
 30
-0.0000000000004832
 10
4279.276695184602
 20
48.88833603627063
 30
-0.0000000000004832
  0
SPLINE
  5
76
330
1F
100
AcDbEntity
  8
图层 03
100
AcDbSpline
210
0.0
220
0.0
230
1.0
 70
     8
 71
     3
 72
     8
 73
     4
 74
     0
 42
0.0000000001
 43
0.0000000001
 40
7182.463725864379
 40
7182.463725864379
 40
7182.463725864379
 40
7182.463725864379
 40
7188.660706360763
 40
7188.660706360763
 40
7188.660706360763
 40
7188.660706360763
 10
4141.816251996644
 20
172.4198558350496
 30
-0.0000000000004832
 10
4141.601280429772
 20
172.00679414152
 30
-0.0000000000004832
 10
4141.379354346318
 20
171.5964222611664
 30
-0.0000000000004832
 10
4141.15274713858
 20
171.190525093722
 30
-0.0000000000004832
  0
SPLINE
  5
77
330
1F
100
AcDbEntity
  8
图层 03
100
AcDbSpline
210
0.0
220
0.0
230
1.0
 70
     8
 71
     3
 72
     8
 73
     4
 74
     0
 42
0.0000000001
 43
0.0000000001
 40
7188.660706360763
 40
7188.660706360763
 40
7188.660706360763
 40
7188.660706360763
 40
7194.895120057332
 40
7194.895120057332
 40
7194.895120057332
 40
7194.895120057332
 10
4141.15274713858
 20
171.190525093722
 30
-0.0000000000004832
 10
4140.959007625604
 20
170.7621225341146
 30
-0.0000000000004832
 10
4140.75919004668
 20
170.3360524278066
 30
-0.0000000000004832
 10
4140.554753951663
 20
169.9134686017345
 30
-0.0000000000004832
  0
SPLINE
  5
78
330
1F
100
AcDbEntity
  8
图层 03
100
AcDbSpline
210
0.0
220
0.0
230
1.0
 70
     8
 71
     3
 72
     8
 73
     4
 74
     0
 42
0.0000000001
 43
0.0000000001
 40
7194.895120057332
 40
7194.895120057332
 40
7194.895120057332
 40
7194.895120057332
 40
7201.505019192021
 40
7201.505019192021
 40
7201.505019192021
 40
7201.505019192021
 10
4140.554753951663
 20
169.9134686017345
 30
-0.0000000000004832
 10
4140.446047037276
 20
169.4198116034735
 30
-0.0000000000004832
 10
4140.333214047439
 20
168.9272990458298
 30
-0.0000000000004832
 10
4140.216842022252
 20
168.4359585588287
 30
-0.0000000000004832
  0
SPLINE
  5
79
330
1F
100
AcDbEntity
  8
图层 03
100
AcDbSpline
210
0.0
220
0.0
230
1.0
 70
     8
 71
     3
 72
     8
 73
     4
 74
     0
 42
0.0000000001
 43
0.0000000001
 40
7201.505019192021
 40
7201.505019192021
 40
7201.505019192021
 40
7201.505019192021
 40
7207.269268416082
 40
7207.269268416082
 40
7207.269268416082
 40
7207.269268416082
 10
4140.216842022252
 20
168.4359585588287
 30
-0.0000000000004832
 10
4140.281246722415
 20
167.9902041200478
 30
-0.0000000000004832
 10
4140.345233257852
 20
167.5444088345569
 30
-0.0000000000004832
 10
4140.408860836862
 20
167.0985806312445
 30
-0.0000000000004832
  0
SPLINE
  5
7A
330
1F
100
AcDbEntity
  8
图层 03
100
AcDbSpline
210
0.0
220
0.0
230
1.0
 70
     8
 71
     3
 72
     8
 73
     4
 74
     0
 42
0.0000000001
 43
0.0000000001
 40
7207.269268416082
 40
7207.269268416082
 40
7207.269268416082
 40
7207.269268416082
 40
7210.090508279176
 40
7210.090508279176
 40
7210.090508279176
 40
7210.090508279176
 10
4140.408860836862
 20
167.0985806312445
 30
-0.0000000000004832
 10
4140.47177668863
 20
166.8859901080598
 30
-0.0000000000004832
 10
4140.536056087834
 20
166.6737404309424
 30
-0.0000000000004832
 10
4140.601626345308
 20
166.4618719742419
 30
-0.0000000000004832
  0
SPLINE
  5
7B
330
1F
100
AcDbEntity
  8
图层 03
100
AcDbSpline
210
0.0
220
0.0
230
1.0
 70
     8
 71
     3
 72
     8
 73
     4
 74
     0
 42
0.0000000001
 43
0.0000000001
 40
7210.090508279176
 40
7210.090508279176
 40
7210.090508279176
 40
7210.090508279176
 40
7225.563758991
 40
7225.563758991
 40
7225.563758991
 40
7225.563758991
 10
4140.601626345308
 20
166.4618719742419
 30
-0.0000000000004832
 10
4141.276192126338
 20
165.4449689991325
 30
-0.0000000000004832
 10
4141.955868687255
 20
164.4314711801667
 30
-0.0000000000004832
 10
4142.639073372598
 20
163.4204941879254
 30
-0.0000000000004832
  0
SPLINE
  5
7C
330
1F
100
AcDbEntity
  8
图层 03
100
AcDbSpline
210
0.0
220
0.0
230
1.0
 70
     8
 71
     3
 72
     8
 73
     4
 74
     0
 42
0.0000000001
 43
0.0000000001
 40
7225.563758991
 40
7225.563758991
 40
7225.563758991
 40
7225.563758991
 40
7244.066422531978
 40
7244.066422531978
 40
7244.066422531978
 40
7244.066422531978
 10
4142.639073372598
 20
163.4204941879254
 30
-0.0000000000004832
 10
4143.607476066359
 20
162.3420542708726
 30
-0.0000000000004832
 10
4144.575404725092
 20
161.239150676415
 30
-0.0000000000004832
 10
4145.523360957643
 20
160.1417217220808
 30
-0.0000000000004832
  0
SPLINE
  5
7D
330
1F
100
AcDbEntity
  8
图层 03
100
AcDbSpline
210
0.0
220
0.0
230
1.0
 70
     8
 71
     3
 72
     8
 73
     4
 74
     0
 42
0.0000000001
 43
0.0000000001
 40
7244.066422531978
 40
7244.066422531978
 40
7244.066422531978
 40
7244.066422531978
 40
7255.375580476186
 40
7255.375580476186
 40
7255.375580476186
 40
7255.375580476186
 10
4145.523360957643
 20
160.1417217220808
 30
-0.0000000000004832
 10
4146.120178243926
 20
159.4823599324022
 30
-0.0000000000004832
 10
4146.711867758193
 20
158.8179509974822
 30
-0.0000000000004832
 10
4147.298800696949
 20
158.149333351162
 30
-0.0000000000004832
  0
SPLINE
  5
7E
330
1F
100
AcDbEntity
  8
图层 03
100
AcDbSpline
210
0.0
220
0.0
230
1.0
 70
     8
 71
     3
 72
     8
 73
     4
 74
     0
 42
0.0000000001
 43
0.0000000001
 40
7255.375580476186
 40
7255.375580476186
 40
7255.375580476186
 40
7255.375580476186
 40
7287.015635805849
 40
7287.015635805849
 40
7287.015635805849
 40
7287.015635805849
 10
4147.298800696949
 20
158.149333351162
 30
-0.0000000000004832
 10
4149.033715810372
 20
156.3909868329974
 30
-0.0000000000004832
 10
4150.707636159014
 20
154.5084583711244
 30
-0.0000000000004832
 10
4152.290333600939
 20
152.6050244301558
 30
-0.0000000000004832
  0
SPLINE
  5
7F
330
1F
100
AcDbEntity
  8
图层 03
100
AcDbSpline
210
0.0
220
0.0
230
1.0
 70
     8
 71
     3
 72
    11
 73
     7
 74
     0
 42
0.0000000001
 43
0.0000000001
 40
7287.015635805849
 40
7287.015635805849
 40
7287.015635805849
 40
7287.015635805849
 40
7303.149127814123
 40
7303.149127814123
 40
7303.149127814123
 40
7331.986666901023
 40
7331.986666901023
 40
7331.986666901023
 40
7331.986666901023
 10
4152.290333600939
 20
152.6050244301558
 30
-0.0000000000004832
 10
4153.034570827246
 20
151.5753125969777
 30
-0.0000000000004832
 10
4153.738763519003
 20
150.5123081668507
 30
-0.0000000000004832
 10
4154.405092261472
 20
149.4296945576212
 30
-0.0000000000004832
 10
4155.597446974623
 20
147.5061397350228
 30
-0.0000000000004832
 10
4156.586821282348
 20
145.4293777467692
 30
-0.0000000000004832
 10
4157.414737962523
 20
143.3301301632519
 30
-0.0000000000004832
  0
SPLINE
  5
80
330
1F
100
AcDbEntity
  8
图层 03
100
AcDbSpline
210
0.0
220
0.0
230
1.0
 70
     8
 71
     3
 72
     8
 73
     4
 74
     0
 42
0.0000000001
 43
0.0000000001
 40
7331.986666901023
 40
7331.986666901023
 40
7331.986666901023
 40
7331.986666901023
 40
7357.786948413097
 40
7357.786948413097
 40
7357.786948413097
 40
7357.786948413097
 10
4157.414737962523
 20
143.3301301632519
 30
-0.0000000000004832
 10
4157.704998001758
 20
141.3428851659521
 30
-0.0000000000004832
 10
4157.720113587323
 20
139.3220402335833
 30
-0.0000000000004832
 10
4157.567469290143
 20
137.3488173121965
 30
-0.0000000000004832
  0
SPLINE
  5
81
330
1F
100
AcDbEntity
  8
图层 03
100
AcDbSpline
210
0.0
220
0.0
230
1.0
 70
     8
 71
     3
 72
    15
 73
    11
 74
     0
 42
0.0000000001
 43
0.0000000001
 40
7357.786948413097
 40
7357.786948413097
 40
7357.786948413097
 40
7357.786948413097
 40
7365.676010849497
 40
7373.565073285897
 40
7381.454135722297
 40
7389.343198158697
 40
7397.167720148302
 40
7404.992242137906
 40
7412.81676412751
 40
7420.641286117115
 40
7420.641286117115
 40
7420.641286117115
 40
7420.641286117115
 10
4157.567469290143
 20
137.3488173121965
 30
-0.0000000000004832
 10
4157.41407753002
 20
136.7723687068562
 30
-0.0000000000004832
 10
4157.06008346102
 20
135.6323808518378
 30
-0.0000000000004832
 10
4156.410948036266
 20
133.9659639234089
 30
-0.0000000000004832
 10
4155.665291297259
 20
132.3446734174202
 30
-0.0000000000004832
 10
4154.852923454407
 20
130.7848169642406
 30
-0.0000000000004832
 10
4153.979973366728
 20
129.2593854804397
 30
-0.0000000000004832
 10
4153.047705527861
 20
127.7486859620464
 30
-0.0000000000004832
 10
4152.076503091514
 20
126.2679811983635
 30
-0.0000000000004832
 10
4151.414253190509
 20
125.3067606066281
 30
-0.0000000000004832
 10
4151.082539792966
 20
124.834659473544
 30
-0.0000000000004832
  0
SPLINE
  5
82
330
1F
100
AcDbEntity
  8
图层 03
100
AcDbSpline
210
0.0
220
0.0
230
1.0
 70
     8
 71
     3
 72
     8
 73
     4
 74
     0
 42
0.0000000001
 43
0.0000000001
 40
7420.641286117115
 40
7420.641286117115
 40
7420.641286117115
 40
7420.641286117115
 40
7508.192678807693
 40
7508.192678807693
 40
7508.192678807693
 40
7508.192678807693
 10
4151.082539792966
 20
124.834659473544
 30
-0.0000000000004832
 10
4146.396597669287
 20
120.5329892143243
 30
-0.0000000000004832
 10
4141.393637183766
 20
116.0282402428747
 30
-0.0000000000004832
 10
4136.567572665468
 20
111.8917398641865
 30
-0.0000000000004832
  0
SPLINE
  5
83
330
1F
100
AcDbEntity
  8
图层 03
100
AcDbSpline
210
0.0
220
0.0
230
1.0
 70
     8
 71
     3
 72
     8
 73
     4
 74
     0
 42
0.0000000001
 43
0.0000000001
 40
7508.192678807693
 40
7508.192678807693
 40
7508.192678807693
 40
7508.192678807693
 40
7610.532871557658
 40
7610.532871557658
 40
7610.532871557658
 40
7610.532871557658
 10
4136.567572665468
 20
111.8917398641865
 30
-0.0000000000004832
 10
4130.675442756661
 20
107.1541443543575
 30
-0.0000000000004832
 10
4124.696171637185
 20
102.4853662270052
 30
-0.0000000000004832
 10
4118.656066175638
 20
97.94455965620352
 30
-0.0000000000004832
  0
SPLINE
  5
84
330
1F
100
AcDbEntity
  8
图层 03
100
AcDbSpline
210
0.0
220
0.0
230
1.0
 70
     8
 71
     3
 72
     8
 73
     4
 74
     0
 42
0.0000000001
 43
0.0000000001
 40
7610.532871557658
 40
7610.532871557658
 40
7610.532871557658
 40
7610.532871557658
 40
7706.615749339593
 40
7706.615749339593
 40
7706.615749339593
 40
7706.615749339593
 10
4118.656066175638
 20
97.94455965620352
 30
-0.0000000000004832
 10
4113.175029174103
 20
93.41788880455181
 30
-0.0000000000004832
 10
4107.666094157359
 20
88.92564753062788
 30
-0.0000000000004832
 10
4102.125046065529
 20
84.47601240262009
 30
-0.0000000000004832
  0
SPLINE
  5
85
330
1F
100
AcDbEntity
  8
图层 03
100
AcDbSpline
210
0.0
220
0.0
230
1.0
 70
     8
 71
     3
 72
    11
 73
     7
 74
     0
 42
0.0000000001
 43
0.0000000001
 40
7706.615749339593
 40
7706.615749339593
 40
7706.615749339593
 40
7706.615749339593
 40
7731.503960307192
 40
7731.503960307192
 40
7731.503960307192
 40
7789.606172160334
 40
7789.606172160334
 40
7789.606172160334
 40
7789.606172160334
 10
4102.125046065529
 20
84.47601240262009
 30
-0.0000000000004832
 10
4100.798469534409
 20
83.193846409907
 30
-0.0000000000004832
 10
4099.476185294836
 20
81.90692333515801
 30
-0.0000000000004832
 10
4098.15833449301
 20
80.61526657587945
 30
-0.0000000000004832
 10
4095.052077277332
 20
77.63230137329674
 30
-0.0000000000004832
 10
4091.958645856081
 20
74.63498193729595
 30
-0.0000000000004832
 10
4088.879583274163
 20
71.62235188784234
 30
-0.0000000000004832
  0
SPLINE
  5
86
330
1F
100
AcDbEntity
  8
图层 03
100
AcDbSpline
210
0.0
220
0.0
230
1.0
 70
     8
 71
     3
 72
     8
 73
     4
 74
     0
 42
0.0000000001
 43
0.0000000001
 40
7789.606172160334
 40
7789.606172160334
 40
7789.606172160334
 40
7789.606172160334
 40
7828.43132969983
 40
7828.43132969983
 40
7828.43132969983
 40
7828.43132969983
 10
4088.879583274163
 20
71.62235188784234
 30
-0.0000000000004832
 10
4087.557817382803
 20
69.01653984618326
 30
-0.0000000000004832
 10
4086.245168278578
 20
66.4052732748753
 30
-0.0000000000004832
 10
4084.949243984296
 20
63.78461187363655
 30
-0.0000000000004832
  0
SPLINE
  5
87
330
1F
100
AcDbEntity
  8
图层 03
100
AcDbSpline
210
0.0
220
0.0
230
1.0
 70
     8
 71
     3
 72
     8
 73
     4
 74
     0
 42
0.0000000001
 43
0.0000000001
 40
7828.43132969983
 40
7828.43132969983
 40
7828.43132969983
 40
7828.43132969983
 40
7850.957663717014
 40
7850.957663717014
 40
7850.957663717014
 40
7850.957663717014
 10
4084.949243984296
 20
63.78461187363655
 30
-0.0000000000004832
 10
4085.254501557849
 20
62.04871867798602
 30
-0.0000000000004832
 10
4085.568426053414
 20
60.31386660024327
 30
-0.0000000000004832
 10
4085.89200220632
 20
58.58050722713381
 30
-0.0000000000004832
  0
SPLINE
  5
88
330
1F
100
AcDbEntity
  8
图层 03
100
AcDbSpline
210
0.0
220
0.0
230
1.0
 70
     8
 71
     3
 72
     8
 73
     4
 74
     0
 42
0.0000000001
 43
0.0000000001
 40
7850.957663717014
 40
7850.957663717014
 40
7850.957663717014
 40
7850.957663717014
 40
7875.122485781022
 40
7875.122485781022
 40
7875.122485781022
 40
7875.122485781022
 10
4085.89200220632
 20
58.58050722713381
 30
-0.0000000000004832
 10
4087.191003163751
 20
57.1947638896205
 30
-0.0000000000004832
 10
4088.48965149329
 20
55.80866858663489
 30
-0.0000000000004832
 10
4089.787997876107
 20
54.42227293214694
 30
-0.0000000000004832
  0
SPLINE
  5
89
330
1F
100
AcDbEntity
  8
图层 03
100
AcDbSpline
210
0.0
220
0.0
230
1.0
 70
     8
 71
     3
 72
     8
 73
     4
 74
     0
 42
0.0000000001
 43
0.0000000001
 40
7875.122485781022
 40
7875.122485781022
 40
7875.122485781022
 40
7875.122485781022
 40
7909.08870769037
 40
7909.08870769037
 40
7909.08870769037
 40
7909.08870769037
 10
4089.787997876107
 20
54.42227293214694
 30
-0.0000000000004832
 10
4092.090833283183
 20
53.22911981416996
 30
-0.0000000000004832
 10
4094.499025285274
 20
52.03228009924726
 30
-0.0000000000004832
 10
4096.827046337428
 20
50.89833691006652
 30
-0.0000000000004832
  0
SPLINE
  5
8A
330
1F
100
AcDbEntity
  8
图层 03
100
AcDbSpline
210
0.0
220
0.0
230
1.0
 70
     8
 71
     3
 72
    11
 73
     7
 74
     0
 42
0.0000000001
 43
0.0000000001
 40
7909.08870769037
 40
7909.08870769037
 40
7909.08870769037
 40
7909.08870769037
 40
7924.36414507877
 40
7924.36414507877
 40
7924.36414507877
 40
7963.132906478205
 40
7963.132906478205
 40
7963.132906478205
 40
7963.132906478205
 10
4096.827046337428
 20
50.89833691006652
 30
-0.0000000000004832
 10
4097.957658037278
 20
51.0338476247432
 30
-0.0000000000004832
 10
4099.082239361969
 20
51.21035848869997
 30
-0.0000000000004832
 10
4100.197875403164
 20
51.42124284212252
 30
-0.0000000000004832
 10
4103.023021941992
 20
51.9951184397047
 30
-0.0000000000004832
 10
4105.79321332962
 20
52.7502746205887
 30
-0.0000000000004832
 10
4108.493601215493
 20
53.72593855930279
 30
-0.0000000000004832
  0
SPLINE
  5
8B
330
1F
100
AcDbEntity
  8
图层 03
100
AcDbSpline
210
0.0
220
0.0
230
1.0
 70
     8
 71
     3
 72
     8
 73
     4
 74
     0
 42
0.0000000001
 43
0.0000000001
 40
7963.132906478205
 40
7963.132906478205
 40
7963.132906478205
 40
7963.132906478205
 40
8005.808787857911
 40
8005.808787857911
 40
8005.808787857911
 40
8005.808787857911
 10
4108.493601215493
 20
53.72593855930279
 30
-0.0000000000004832
 10
4111.610750491822
 20
54.32183631009082
 30
-0.0000000000004832
 10
4114.711354147902
 20
54.98159630858356
 30
-0.0000000000004832
 10
4117.796622492287
 20
55.70435200284817
 30
-0.0000000000004832
  0
SPLINE
  5
8C
330
1F
100
AcDbEntity
  8
图层 03
100
AcDbSpline
210
0.0
220
0.0
230
1.0
 70
     8
 71
     3
 72
     8
 73
     4
 74
     0
 42
0.0000000001
 43
0.0000000001
 40
8005.808787857911
 40
8005.808787857911
 40
8005.808787857911
 40
8005.808787857911
 40
8011.457492495691
 40
8011.457492495691
 40
8011.457492495691
 40
8011.457492495691
 10
4117.796622492287
 20
55.70435200284817
 30
-0.0000000000004832
 10
4118.197947515383
 20
55.82342204917791
 30
-0.0000000000004832
 10
4118.598970545485
 20
55.94342444801168
 30
-0.0000000000004832
 10
4118.999684771154
 20
56.06434134758581
 30
-0.0000000000004832
  0
SPLINE
  5
8D
330
1F
100
AcDbEntity
  8
图层 03
100
AcDbSpline
210
0.0
220
0.0
230
1.0
 70
     8
 71
     3
 72
     8
 73
     4
 74
     0
 42
0.0000000001
 43
0.0000000001
 40
8011.457492495691
 40
8011.457492495691
 40
8011.457492495691
 40
8011.457492495691
 40
8053.716905931036
 40
8053.716905931036
 40
8053.716905931036
 40
8053.716905931036
 10
4118.999684771154
 20
56.06434134758581
 30
-0.0000000000004832
 10
4122.090115653888
 20
56.63619833712812
 30
-0.0000000000004832
 10
4125.186585392272
 20
57.1829434526901
 30
-0.0000000000004832
 10
4128.288550180299
 20
57.70110797221241
 30
-0.0000000000004832
  0
SPLINE
  5
8E
330
1F
100
AcDbEntity
  8
图层 03
100
AcDbSpline
210
0.0
220
0.0
230
1.0
 70
     8
 71
     3
 72
     8
 73
     4
 74
     0
 42
0.0000000001
 43
0.0000000001
 40
8053.716905931036
 40
8053.716905931036
 40
8053.716905931036
 40
8053.716905931036
 40
8084.303327214261
 40
8084.303327214261
 40
8084.303327214261
 40
8084.303327214261
 10
4128.288550180299
 20
57.70110797221241
 30
-0.0000000000004832
 10
4130.57607324209
 20
57.72950242973695
 30
-0.0000000000004832
 10
4132.88249527886
 20
57.71673815792099
 30
-0.0000000000004832
 10
4135.174614743481
 20
57.64969933623115
 30
-0.0000000000004832
  0
SPLINE
  5
8F
330
1F
100
AcDbEntity
  8
图层 03
100
AcDbSpline
210
0.0
220
0.0
230
1.0
 70
     8
 71
     3
 72
     8
 73
     4
 74
     0
 42
0.0000000001
 43
0.0000000001
 40
8084.303327214261
 40
8084.303327214261
 40
8084.303327214261
 40
8084.303327214261
 40
8085.617383387483
 40
8085.617383387483
 40
8085.617383387483
 40
8085.617383387483
 10
4135.174614743481
 20
57.64969933623115
 30
-0.0000000000004832
 10
4135.272213783349
 20
57.65945595536891
 30
-0.0000000000004832
 10
4135.369809105528
 20
57.66923777423926
 30
-0.0000000000004832
 10
4135.467400683126
 20
57.67904472806208
 30
-0.0000000000004832
  0
SPLINE
  5
90
330
1F
100
AcDbEntity
  8
图层 03
100
AcDbSpline
210
0.0
220
0.0
230
1.0
 70
     8
 71
     3
 72
     8
 73
     4
 74
     0
 42
0.0000000001
 43
0.0000000001
 40
8085.617383387483
 40
8085.617383387483
 40
8085.617383387483
 40
8085.617383387483
 40
8107.866730556714
 40
8107.866730556714
 40
8107.866730556714
 40
8107.866730556714
 10
4135.467400683126
 20
57.67904472806208
 30
-0.0000000000004832
 10
4137.125051261261
 20
57.35503761102234
 30
-0.0000000000004832
 10
4138.784835556424
 20
57.05109580699252
 30
-0.0000000000004832
 10
4140.447207110354
 20
56.7672706585181
 30
-0.0000000000004832
  0
SPLINE
  5
91
330
1F
100
AcDbEntity
  8
图层 03
100
AcDbSpline
210
0.0
220
0.0
230
1.0
 70
     8
 71
     3
 72
     8
 73
     4
 74
     0
 42
0.0000000001
 43
0.0000000001
 40
8107.866730556714
 40
8107.866730556714
 40
8107.866730556714
 40
8107.866730556714
 40
8123.827462859363
 40
8123.827462859363
 40
8123.827462859363
 40
8123.827462859363
 10
4140.447207110354
 20
56.7672706585181
 30
-0.0000000000004832
 10
4141.329091111244
 20
55.8765959340783
 30
-0.0000000000004832
 10
4142.215152310978
 20
54.9902696276057
 30
-0.0000000000004832
 10
4143.105459387833
 20
54.10866322693619
 30
-0.0000000000004832
  0
SPLINE
  5
92
330
1F
100
AcDbEntity
  8
图层 03
100
AcDbSpline
210
0.0
220
0.0
230
1.0
 70
     8
 71
     3
 72
     8
 73
     4
 74
     0
 42
0.0000000001
 43
0.0000000001
 40
8123.827462859363
 40
8123.827462859363
 40
8123.827462859363
 40
8123.827462859363
 40
8144.176941728127
 40
8144.176941728127
 40
8144.176941728127
 40
8144.176941728127
 10
4143.105459387833
 20
54.10866322693619
 30
-0.0000000000004832
 10
4143.196752772223
 20
52.52831077523956
 30
-0.0000000000004832
 10
4143.285811879859
 20
50.9479465110204
 30
-0.0000000000004832
 10
4143.372634583167
 20
49.36759075970895
 30
-0.0000000000004832
  0
SPLINE
  5
93
330
1F
100
AcDbEntity
  8
图层 03
100
AcDbSpline
210
0.0
220
0.0
230
1.0
 70
     8
 71
     3
 72
     8
 73
     4
 74
     0
 42
0.0000000001
 43
0.0000000001
 40
8144.176941728127
 40
8144.176941728127
 40
8144.176941728127
 40
8144.176941728127
 40
8177.979356242368
 40
8177.979356242368
 40
8177.979356242368
 40
8177.979356242368
 10
4143.372634583167
 20
49.36759075970895
 30
-0.0000000000004832
 10
4142.599435359639
 20
46.91661916741066
 30
-0.0000000000004832
 10
4141.826748093066
 20
44.46544843260676
 30
-0.0000000000004832
 10
4141.054587614937
 20
42.01407355253832
 30
-0.0000000000004832
  0
SPLINE
  5
94
330
1F
100
AcDbEntity
  8
图层 03
100
AcDbSpline
210
0.0
220
0.0
230
1.0
 70
     8
 71
     3
 72
     8
 73
     4
 74
     0
 42
0.0000000001
 43
0.0000000001
 40
8177.979356242368
 40
8177.979356242368
 40
8177.979356242368
 40
8177.979356242368
 40
8227.84954092079
 40
8227.84954092079
 40
8227.84954092079
 40
8227.84954092079
 10
4141.054587614937
 20
42.01407355253832
 30
-0.0000000000004832
 10
4139.423700053436
 20
38.62876116874179
 30
-0.0000000000004832
 10
4137.793449684396
 20
35.24309322167107
 30
-0.0000000000004832
 10
4136.1639123449
 20
31.85702845773017
 30
-0.0000000000004832
  0
SPLINE
  5
95
330
1F
100
AcDbEntity
  8
图层 03
100
AcDbSpline
210
0.0
220
0.0
230
1.0
 70
     8
 71
     3
 72
     8
 73
     4
 74
     0
 42
0.0000000001
 43
0.0000000001
 40
8227.84954092079
 40
8227.84954092079
 40
8227.84954092079
 40
8227.84954092079
 40
8287.824785455856
 40
8287.824785455856
 40
8287.824785455856
 40
8287.824785455856
 10
4136.1639123449
 20
31.85702845773017
 30
-0.0000000000004832
 10
4133.910707938951
 20
27.96235424307451
 30
-0.0000000000004832
 10
4131.655854563172
 20
24.06875732858043
 30
-0.0000000000004832
 10
4129.399038068807
 20
20.17645021333965
 30
-0.0000000000004832
  0
SPLINE
  5
96
330
1F
100
AcDbEntity
  8
图层 03
100
AcDbSpline
210
0.0
220
0.0
230
1.0
 70
     8
 71
     3
 72
     8
 73
     4
 74
     0
 42
0.0000000001
 43
0.0000000001
 40
8287.824785455856
 40
8287.824785455856
 40
8287.824785455856
 40
8287.824785455856
 40
8349.481460697683
 40
8349.481460697683
 40
8349.481460697683
 40
8349.481460697683
 10
4129.399038068807
 20
20.17645021333965
 30
-0.0000000000004832
 10
4126.787811749686
 20
16.38114826329286
 30
-0.0000000000004832
 10
4124.173891188868
 20
12.58789542398324
 30
-0.0000000000004832
 10
4121.556586839445
 20
8.797239587452168
 30
-0.0000000000004832
  0
SPLINE
  5
97
330
1F
100
AcDbEntity
  8
图层 03
100
AcDbSpline
210
0.0
220
0.0
230
1.0
 70
     8
 71
     3
 72
     8
 73
     4
 74
     0
 42
0.0000000001
 43
0.0000000001
 40
8349.481460697683
 40
8349.481460697683
 40
8349.481460697683
 40
8349.481460697683
 40
8401.636979544943
 40
8401.636979544943
 40
8401.636979544943
 40
8401.636979544943
 10
4121.556586839445
 20
8.797239587452168
 30
-0.0000000000004832
 10
4118.905703772183
 20
5.974700264641797
 30
-0.0000000000004832
 10
4116.252510094021
 20
3.154476942073984
 30
-0.0000000000004832
 10
4113.595847843528
 20
0.3377679297585701
 30
-0.0000000000004832
  0
SPLINE
  5
98
330
1F
100
AcDbEntity
  8
图层 03
100
AcDbSpline
210
0.0
220
0.0
230
1.0
 70
     8
 71
     3
 72
     8
 73
     4
 74
     0
 42
0.0000000001
 43
0.0000000001
 40
8401.636979544943
 40
8401.636979544943
 40
8401.636979544943
 40
8401.636979544943
 40
8436.746824220434
 40
8436.746824220434
 40
8436.746824220434
 40
8436.746824220434
 10
4113.595847843528
 20
0.3377679297585701
 30
-0.0000000000004832
 10
4111.229043549082
 20
-0.7259207210512386
 30
-0.0000000000004832
 10
4108.863193216865
 20
-1.791680562889042
 30
-0.0000000000004832
 10
4106.499406857298
 20
-2.861840153111643
 30
-0.0000000000004832
  0
SPLINE
  5
99
330
1F
100
AcDbEntity
  8
图层 03
100
AcDbSpline
210
0.0
220
0.0
230
1.0
 70
     8
 71
     3
 72
     8
 73
     4
 74
     0
 42
0.0000000001
 43
0.0000000001
 40
8436.746824220434
 40
8436.746824220434
 40
8436.746824220434
 40
8436.746824220434
 40
8437.704512131982
 40
8437.704512131982
 40
8437.704512131982
 40
8437.704512131982
 10
4106.499406857298
 20
-2.861840153111643
 30
-0.0000000000004832
 10
4106.428357616101
 20
-2.845826086661191
 30
-0.0000000000004832
 10
4106.357308624445
 20
-2.829810439216089
 30
-0.0000000000004832
 10
4106.286259889033
 20
-2.813793169628525
 30
-0.0000000000004832
  0
SPLINE
  5
9A
330
1F
100
AcDbEntity
  8
图层 03
100
AcDbSpline
210
0.0
220
0.0
230
1.0
 70
     8
 71
     3
 72
     8
 73
     4
 74
     0
 42
0.0000000001
 43
0.0000000001
 40
8437.704512131982
 40
8437.704512131982
 40
8437.704512131982
 40
8437.704512131982
 40
8468.65106432315
 40
8468.65106432315
 40
8468.65106432315
 40
8468.65106432315
 10
4106.286259889033
 20
-2.813793169628525
 30
-0.0000000000004832
 10
4103.976136113567
 20
-2.714894451011219
 30
-0.0000000000004832
 10
4101.620878198445
 20
-2.632198406533917
 30
-0.0000000000004832
 10
4099.311931710774
 20
-2.582183459581074
 30
-0.0000000000004832
  0
SPLINE
  5
9B
330
1F
100
AcDbEntity
  8
图层 03
100
AcDbSpline
210
0.0
220
0.0
230
1.0
 70
     8
 71
     3
 72
     8
 73
     4
 74
     0
 42
0.0000000001
 43
0.0000000001
 40
8468.65106432315
 40
8468.65106432315
 40
8468.65106432315
 40
8468.65106432315
 40
8484.815773820133
 40
8484.815773820133
 40
8484.815773820133
 40
8484.815773820133
 10
4099.311931710774
 20
-2.582183459581074
 30
-0.0000000000004832
 10
4098.24699949887
 20
-1.922127417199476
 30
-0.0000000000004832
 10
4097.184741669875
 20
-1.240662767838671
 30
-0.0000000000004832
 10
4096.142267104758
 20
-0.5410678293537785
 30
-0.0000000000004832
  0
SPLINE
  5
9C
330
1F
100
AcDbEntity
  8
图层 03
100
AcDbSpline
210
0.0
220
0.0
230
1.0
 70
     8
 71
     3
 72
     8
 73
     4
 74
     0
 42
0.0000000001
 43
0.0000000001
 40
8484.815773820133
 40
8484.815773820133
 40
8484.815773820133
 40
8484.815773820133
 40
8502.386244227908
 40
8502.386244227908
 40
8502.386244227908
 40
8502.386244227908
 10
4096.142267104758
 20
-0.5410678293537785
 30
-0.0000000000004832
 10
4094.828686792828
 20
-0.3950047655898743
 30
-0.0000000000004832
 10
4093.502310986515
 20
-0.2094864704432666
 30
-0.0000000000004832
 10
4092.196011223664
 20
0.0272004823168572
 30
-0.0000000000004832
  0
SPLINE
  5
9D
330
1F
100
AcDbEntity
  8
图层 03
100
AcDbSpline
210
0.0
220
0.0
230
1.0
 70
     8
 71
     3
 72
     8
 73
     4
 74
     0
 42
0.0000000001
 43
0.0000000001
 40
8502.386244227908
 40
8502.386244227908
 40
8502.386244227908
 40
8502.386244227908
 40
8512.640515250177
 40
8512.640515250177
 40
8512.640515250177
 40
8512.640515250177
 10
4092.196011223664
 20
0.0272004823168572
 30
-0.0000000000004832
 10
4091.556084603362
 20
0.5079715521593471
 30
-0.0000000000004832
 10
4090.93828056655
 20
1.019151504412321
 30
-0.0000000000004832
 10
4090.346036815668
 20
1.562929369556969
 30
-0.0000000000004832
  0
SPLINE
  5
9E
330
1F
100
AcDbEntity
  8
图层 03
100
AcDbSpline
210
0.0
220
0.0
230
1.0
 70
     8
 71
     3
 72
     8
 73
     4
 74
     0
 42
0.0000000001
 43
0.0000000001
 40
8512.640515250177
 40
8512.640515250177
 40
8512.640515250177
 40
8512.640515250177
 40
8535.051279681851
 40
8535.051279681851
 40
8535.051279681851
 40
8535.051279681851
 10
4090.346036815668
 20
1.562929369556969
 30
-0.0000000000004832
 10
4088.758338018679
 20
1.120599895455143
 30
-0.0000000000004832
 10
4087.115753108583
 20
0.7233366139146256
 30
-0.0000000000004832
 10
4085.488980209137
 20
0.42521212196948
 30
-0.0000000000004832
  0
SPLINE
  5
9F
330
1F
100
AcDbEntity
  8
图层 03
100
AcDbSpline
210
0.0
220
0.0
230
1.0
 70
     8
 71
     3
 72
     8
 73
     4
 74
     0
 42
0.0000000001
 43
0.0000000001
 40
8535.051279681851
 40
8535.051279681851
 40
8535.051279681851
 40
8535.051279681851
 40
8568.93120053846
 40
8568.93120053846
 40
8568.93120053846
 40
8568.93120053846
 10
4085.488980209137
 20
0.42521212196948
 30
-0.0000000000004832
 10
4083.753217749455
 20
-1.394347069266814
 30
-0.0000000000004832
 10
4082.017834998142
 20
-3.214293926956543
 30
-0.0000000000004832
 10
4080.282800053981
 20
-5.034595078628172
 30
-0.0000000000004832
  0
SPLINE
  5
A0
330
1F
100
AcDbEntity
  8
图层 03
100
AcDbSpline
210
0.0
220
0.0
230
1.0
 70
     8
 71
     3
 72
     8
 73
     4
 74
     0
 42
0.0000000001
 43
0.0000000001
 40
8568.93120053846
 40
8568.93120053846
 40
8568.93120053846
 40
8568.93120053846
 40
8618.641544363581
 40
8618.641544363581
 40
8618.641544363581
 40
8618.641544363581
 10
4080.282800053981
 20
-5.034595078628172
 30
-0.0000000000004832
 10
4078.298387213845
 20
-8.183087699570933
 30
-0.0000000000004832
 10
4076.282587871157
 20
-11.30994232455521
 30
-0.0000000000004832
 10
4074.245405178177
 20
-14.42029380979898
 30
-0.0000000000004832
  0
SPLINE
  5
A1
330
1F
100
AcDbEntity
  8
图层 03
100
AcDbSpline
210
0.0
220
0.0
230
1.0
 70
     8
 71
     3
 72
     8
 73
     4
 74
     0
 42
0.0000000001
 43
0.0000000001
 40
8618.641544363581
 40
8618.641544363581
 40
8618.641544363581
 40
8618.641544363581
 40
8631.946810019497
 40
8631.946810019497
 40
8631.946810019497
 40
8631.946810019497
 10
4074.245405178177
 20
-14.42029380979898
 30
-0.0000000000004832
 10
4073.783653555331
 20
-15.30812393508893
 30
-0.0000000000004832
 10
4073.319070637313
 20
-16.19428397696674
 30
-0.0000000000004832
 10
4072.85191041325
 20
-17.07886015854524
 30
-0.0000000000004832
  0
SPLINE
  5
A2
330
1F
100
AcDbEntity
  8
图层 03
100
AcDbSpline
210
0.0
220
0.0
230
1.0
 70
     8
 71
     3
 72
     8
 73
     4
 74
     0
 42
0.0000000001
 43
0.0000000001
 40
8631.946810019497
 40
8631.946810019497
 40
8631.946810019497
 40
8631.946810019497
 40
8683.293016993644
 40
8683.293016993644
 40
8683.293016993644
 40
8683.293016993644
 10
4072.85191041325
 20
-17.07886015854524
 30
-0.0000000000004832
 10
4070.883611890695
 20
-20.38701263320991
 30
-0.0000000000004832
 10
4068.882612798394
 20
-23.67365814227401
 30
-0.0000000000004832
 10
4066.86401172052
 20
-26.94730934165864
 30
-0.0000000000004832
  0
SPLINE
  5
A3
330
1F
100
AcDbEntity
  8
图层 03
100
AcDbSpline
210
0.0
220
0.0
230
1.0
 70
     8
 71
     3
 72
     8
 73
     4
 74
     0
 42
0.0000000001
 43
0.0000000001
 40
8683.293016993644
 40
8683.293016993644
 40
8683.293016993644
 40
8683.293016993644
 40
8723.204754736482
 40
8723.204754736482
 40
8723.204754736482
 40
8723.204754736482
 10
4066.86401172052
 20
-26.94730934165864
 30
-0.0000000000004832
 10
4065.467598735766
 20
-29.60375310694303
 30
-0.0000000000004832
 10
4064.059596532619
 20
-32.25330252378399
 30
-0.0000000000004832
 10
4062.643382514975
 20
-34.8976961891766
 30
-0.0000000000004832
  0
SPLINE
  5
A4
330
1F
100
AcDbEntity
  8
图层 03
100
AcDbSpline
210
0.0
220
0.0
230
1.0
 70
     8
 71
     3
 72
     8
 73
     4
 74
     0
 42
0.0000000001
 43
0.0000000001
 40
8723.204754736482
 40
8723.204754736482
 40
8723.204754736482
 40
8723.204754736482
 40
8775.544969702754
 40
8775.544969702754
 40
8775.544969702754
 40
8775.544969702754
 10
4062.643382514975
 20
-34.8976961891766
 30
-0.0000000000004832
 10
4060.835930135366
 20
-38.3954770252418
 30
-0.0000000000004832
 10
4059.060324389644
 20
-41.91249856965601
 30
-0.0000000000004832
 10
4057.302568737095
 20
-45.43909167364905
 30
-0.0000000000004832
  0
SPLINE
  5
A5
330
1F
100
AcDbEntity
  8
图层 03
100
AcDbSpline
210
0.0
220
0.0
230
1.0
 70
     8
 71
     3
 72
     8
 73
     4
 74
     0
 42
0.0000000001
 43
0.0000000001
 40
8775.544969702754
 40
8775.544969702754
 40
8775.544969702754
 40
8775.544969702754
 40
8810.850603862218
 40
8810.850603862218
 40
8810.850603862218
 40
8810.850603862218
 10
4057.302568737095
 20
-45.43909167364905
 30
-0.0000000000004832
 10
4056.227663939062
 20
-47.87848905804208
 30
-0.0000000000004832
 10
4055.150261390495
 20
-50.31660129762327
 30
-0.0000000000004832
 10
4054.070974705244
 20
-52.7537304030368
 30
-0.0000000000004832
  0
SPLINE
  5
A6
330
1F
100
AcDbEntity
  8
图层 03
100
AcDbSpline
210
0.0
220
0.0
230
1.0
 70
     8
 71
     3
 72
     8
 73
     4
 74
     0
 42
0.0000000001
 43
0.0000000001
 40
8810.850603862218
 40
8810.850603862218
 40
8810.850603862218
 40
8810.850603862218
 40
8908.85229348294
 40
8908.85229348294
 40
8908.85229348294
 40
8908.85229348294
 10
4054.070974705244
 20
-52.7537304030368
 30
-0.0000000000004832
 10
4051.766154419257
 20
-59.83484002813725
 30
-0.0000000000004832
 10
4049.442585946263
 20
-66.90854009896952
 30
-0.0000000000004832
 10
4047.10554532684
 20
-73.97667982096186
 30
-0.0000000000004832
  0
SPLINE
  5
A7
330
1F
100
AcDbEntity
  8
图层 03
100
AcDbSpline
210
0.0
220
0.0
230
1.0
 70
     8
 71
     3
 72
     8
 73
     4
 74
     0
 42
0.0000000001
 43
0.0000000001
 40
8908.85229348294
 40
8908.85229348294
 40
8908.85229348294
 40
8908.85229348294
 40
9028.188714842423
 40
9028.188714842423
 40
9028.188714842423
 40
9028.188714842423
 10
4047.10554532684
 20
-73.97667982096186
 30
-0.0000000000004832
 10
4045.33236498979
 20
-82.94231757963485
 30
-0.0000000000004832
 10
4043.552457595969
 20
-91.9061814081108
 30
-0.0000000000004832
 10
4041.75846042539
 20
-100.866226048093
 30
-0.0000000000004832
  0
SPLINE
  5
A8
330
1F
100
AcDbEntity
  8
图层 03
100
AcDbSpline
210
0.0
220
0.0
230
1.0
 70
     8
 71
     3
 72
     8
 73
     4
 74
     0
 42
0.0000000001
 43
0.0000000001
 40
9028.188714842423
 40
9028.188714842423
 40
9028.188714842423
 40
9028.188714842423
 40
9150.313763058677
 40
9150.313763058677
 40
9150.313763058677
 40
9150.313763058677
 10
4041.75846042539
 20
-100.866226048093
 30
-0.0000000000004832
 10
4040.814413207246
 20
-110.2293421218722
 30
-0.0000000000004832
 10
4039.875000238361
 20
-119.5932479853384
 30
-0.0000000000004832
 10
4038.952414892482
 20
-128.9598837319818
 30
-0.0000000000004832
  0
SPLINE
  5
A9
330
1F
100
AcDbEntity
  8
图层 03
100
AcDbSpline
210
0.0
220
0.0
230
1.0
 70
     8
 71
     3
 72
     8
 73
     4
 74
     0
 42
0.0000000001
 43
0.0000000001
 40
9150.313763058677
 40
9150.313763058677
 40
9150.313763058677
 40
9150.313763058677
 40
9254.919663582468
 40
9254.919663582468
 40
9254.919663582468
 40
9254.919663582468
 10
4038.952414892482
 20
-128.9598837319818
 30
-0.0000000000004832
 10
4038.808378453735
 20
-137.0606236626249
 30
-0.0000000000004832
 10
4038.670606886735
 20
-145.1619078426409
 30
-0.0000000000004832
 10
4038.55837808441
 20
-153.2650366471478
 30
-0.0000000000004832
  0
SPLINE
  5
AA
330
1F
100
AcDbEntity
  8
图层 03
100
AcDbSpline
210
0.0
220
0.0
230
1.0
 70
     8
 71
     3
 72
     8
 73
     4
 74
     0
 42
0.0000000001
 43
0.0000000001
 40
9254.919663582468
 40
9254.919663582468
 40
9254.919663582468
 40
9254.919663582468
 40
9329.429551047215
 40
9329.429551047215
 40
9329.429551047215
 40
9329.429551047215
 10
4038.55837808441
 20
-153.2650366471478
 30
-0.0000000000004832
 10
4038.905074553695
 20
-159.0514600804943
 30
-0.0000000000004832
 10
4039.257977071489
 20
-164.8379123064515
 30
-0.0000000000004832
 10
4039.632362689854
 20
-170.6241018111043
 30
-0.0000000000004832
  0
SPLINE
  5
AB
330
1F
100
AcDbEntity
  8
图层 03
100
AcDbSpline
210
0.0
220
0.0
230
1.0
 70
     8
 71
     3
 72
     8
 73
     4
 74
     0
 42
0.0000000001
 43
0.0000000001
 40
9329.429551047215
 40
9329.429551047215
 40
9329.429551047215
 40
9329.429551047215
 40
9371.076010615976
 40
9371.076010615976
 40
9371.076010615976
 40
9371.076010615976
 10
4039.632362689854
 20
-170.6241018111043
 30
-0.0000000000004832
 10
4040.154654365205
 20
-173.838610134236
 30
-0.0000000000004832
 10
4040.68351462441
 20
-177.052407096978
 30
-0.0000000000004832
 10
4041.224287807655
 20
-180.2646976247122
 30
-0.0000000000004832
  0
SPLINE
  5
AC
330
1F
100
AcDbEntity
  8
图层 03
100
AcDbSpline
210
0.0
220
0.0
230
1.0
 70
     8
 71
     3
 72
     8
 73
     4
 74
     0
 42
0.0000000001
 43
0.0000000001
 40
9371.076010615976
 40
9371.076010615976
 40
9371.076010615976
 40
9371.076010615976
 40
9385.645502112144
 40
9385.645502112144
 40
9385.645502112144
 40
9385.645502112144
 10
4041.224287807655
 20
-180.2646976247122
 30
-0.0000000000004832
 10
4041.808503250428
 20
-181.2544788469982
 30
-0.0000000000004832
 10
4042.395097276322
 20
-182.2428683172573
 30
-0.0000000000004832
 10
4042.984399700792
 20
-183.2296100047572
 30
-0.0000000000004832
  0
SPLINE
  5
AD
330
1F
100
AcDbEntity
  8
图层 03
100
AcDbSpline
210
0.0
220
0.0
230
1.0
 70
     8
 71
     3
 72
     8
 73
     4
 74
     0
 42
0.0000000001
 43
0.0000000001
 40
9385.645502112144
 40
9385.645502112144
 40
9385.645502112144
 40
9385.645502112144
 40
9402.297799245607
 40
9402.297799245607
 40
9402.297799245607
 40
9402.297799245607
 10
4042.984399700792
 20
-183.2296100047572
 30
-0.0000000000004832
 10
4043.599707227651
 20
-182.1415687066167
 30
-0.0000000000004832
 10
4044.216293814027
 20
-181.0543449294714
 30
-0.0000000000004832
 10
4044.83402919369
 20
-179.967866169259
 30
-0.0000000000004832
  0
SPLINE
  5
AE
330
1F
100
AcDbEntity
  8
图层 03
100
AcDbSpline
210
0.0
220
0.0
230
1.0
 70
     8
 71
     3
 72
     8
 73
     4
 74
     0
 42
0.0000000001
 43
0.0000000001
 40
9402.297799245607
 40
9402.297799245607
 40
9402.297799245607
 40
9402.297799245607
 40
9441.738756767041
 40
9441.738756767041
 40
9441.738756767041
 40
9441.738756767041
 10
4044.83402919369
 20
-179.967866169259
 30
-0.0000000000004832
 10
4045.537805030706
 20
-177.0387196420843
 30
-0.0000000000004832
 10
4046.239996519903
 20
-174.1090793168153
 30
-0.0000000000004832
 10
4046.941290024811
 20
-171.1791622195003
 30
-0.0000000000004832
  0
SPLINE
  5
AF
330
1F
100
AcDbEntity
  8
图层 03
100
AcDbSpline
210
0.0
220
0.0
230
1.0
 70
     8
 71
     3
 72
     8
 73
     4
 74
     0
 42
0.0000000001
 43
0.0000000001
 40
9441.738756767041
 40
9441.738756767041
 40
9441.738756767041
 40
9441.738756767041
 40
9506.716249636807
 40
9506.716249636807
 40
9506.716249636807
 40
9506.716249636807
 10
4046.941290024811
 20
-171.1791622195003
 30
-0.0000000000004832
 10
4047.974490712707
 20
-166.3160637773101
 30
-0.0000000000004832
 10
4049.01902028018
 20
-161.4561440984078
 30
-0.0000000000004832
 10
4050.066775865889
 20
-156.5971881027901
 30
-0.0000000000004832
  0
SPLINE
  5
B0
330
1F
100
AcDbEntity
  8
图层 03
100
AcDbSpline
210
0.0
220
0.0
230
1.0
 70
     8
 71
     3
 72
     8
 73
     4
 74
     0
 42
0.0000000001
 43
0.0000000001
 40
9506.716249636807
 40
9506.716249636807
 40
9506.716249636807
 40
9506.716249636807
 40
9596.420597732915
 40
9596.420597732915
 40
9596.420597732915
 40
9596.420597732915
 10
4050.066775865889
 20
-156.5971881027901
 30
-0.0000000000004832
 10
4051.909619770178
 20
-150.0154399376372
 30
-0.0000000000004832
 10
4053.767360409272
 20
-143.4389134249807
 30
-0.0000000000004832
 10
4055.628899402871
 20
-136.8637909991955
 30
-0.0000000000004832
  0
SPLINE
  5
B1
330
1F
100
AcDbEntity
  8
图层 03
100
AcDbSpline
210
0.0
220
0.0
230
1.0
 70
     8
 71
     3
 72
     8
 73
     4
 74
     0
 42
0.0000000001
 43
0.0000000001
 40
9596.420597732915
 40
9596.420597732915
 40
9596.420597732915
 40
9596.420597732915
 40
9701.47794004239
 40
9701.47794004239
 40
9701.47794004239
 40
9701.47794004239
 10
4055.628899402871
 20
-136.8637909991955
 30
-0.0000000000004832
 10
4058.625686430477
 20
-129.5043059148941
 30
-0.0000000000004832
 10
4061.635693472499
 20
-122.1511765911021
 30
-0.0000000000004832
 10
4064.64960104482
 20
-114.7999817634995
 30
-0.0000000000004832
  0
SPLINE
  5
B2
330
1F
100
AcDbEntity
  8
图层 03
100
AcDbSpline
210
0.0
220
0.0
230
1.0
 70
     8
 71
     3
 72
     8
 73
     4
 74
     0
 42
0.0000000001
 43
0.0000000001
 40
9701.47794004239
 40
9701.47794004239
 40
9701.47794004239
 40
9701.47794004239
 40
9792.464953140474
 40
9792.464953140474
 40
9792.464953140474
 40
9792.464953140474
 10
4064.64960104482
 20
-114.7999817634995
 30
-0.0000000000004832
 10
4068.274092002755
 20
-109.0314615870684
 30
-0.0000000000004832
 10
4071.89476398186
 20
-103.2602501718827
 30
-0.0000000000004832
 10
4075.513614545727
 20
-97.48776537231538
 30
-0.0000000000004832
  0
SPLINE
  5
B3
330
1F
100
AcDbEntity
  8
图层 03
100
AcDbSpline
210
0.0
220
0.0
230
1.0
 70
     8
 71
     3
 72
     8
 73
     4
 74
     0
 42
0.0000000001
 43
0.0000000001
 40
9792.464953140474
 40
9792.464953140474
 40
9792.464953140474
 40
9792.464953140474
 40
9808.67508948123
 40
9808.67508948123
 40
9808.67508948123
 40
9808.67508948123
 10
4075.513614545727
 20
-97.48776537231538
 30
-0.0000000000004832
 10
4076.154821868153
 20
-96.45687988064333
 30
-0.0000000000004832
 10
4076.796078285159
 20
-95.42602863342199
 30
-0.0000000000004832
 10
4077.437379400509
 20
-94.39520858192532
 30
-0.0000000000004832
  0
SPLINE
  5
B4
330
1F
100
AcDbEntity
  8
图层 03
100
AcDbSpline
210
0.0
220
0.0
230
1.0
 70
     8
 71
     3
 72
     8
 73
     4
 74
     0
 42
0.0000000001
 43
0.0000000001
 40
9808.67508948123
 40
9808.67508948123
 40
9808.67508948123
 40
9808.67508948123
 40
9910.753912924161
 40
9910.753912924161
 40
9910.753912924161
 40
9910.753912924161
 10
4077.437379400509
 20
-94.39520858192532
 30
-0.0000000000004832
 10
4082.808087289534
 20
-89.06024528258695
 30
-0.0000000000004832
 10
4088.173718179232
 20
-83.71983637429526
 30
-0.0000000000004832
 10
4093.536058397493
 20
-78.37593297042963
 30
-0.0000000000004832
  0
SPLINE
  5
B5
330
1F
100
AcDbEntity
  8
图层 03
100
AcDbSpline
210
0.0
220
0.0
230
1.0
 70
     8
 71
     3
 72
     8
 73
     4
 74
     0
 42
0.0000000001
 43
0.0000000001
 40
9910.753912924161
 40
9910.753912924161
 40
9910.753912924161
 40
9910.753912924161
 40
10006.53374394272
 40
10006.53374394272
 40
10006.53374394272
 40
10006.53374394272
 10
4093.536058397493
 20
-78.37593297042963
 30
-0.0000000000004832
 10
4099.36122391891
 20
-74.35689365636472
 30
-0.0000000000004832
 10
4105.182836774615
 20
-70.33258386368539
 30
-0.0000000000004832
 10
4111.001813314026
 20
-66.30440074908643
 30
-0.0000000000004832
  0
SPLINE
  5
B6
330
1F
100
AcDbEntity
  8
图层 03
100
AcDbSpline
210
0.0
220
0.0
230
1.0
 70
     8
 71
     3
 72
    11
 73
     7
 74
     0
 42
0.0000000001
 43
0.0000000001
 40
10006.53374394272
 40
10006.53374394272
 40
10006.53374394272
 40
10006.53374394272
 40
10094.07305560671
 40
10094.07305560671
 40
10094.07305560671
 40
10171.74036179751
 40
10171.74036179751
 40
10171.74036179751
 40
10171.74036179751
 10
4111.001813314026
 20
-66.30440074908643
 30
-0.0000000000004832
 10
4116.610544063505
 20
-63.08778063714522
 30
-0.0000000000004832
 10
4122.218266607046
 20
-59.86940258351069
 30
-0.0000000000004832
 10
4127.82520865629
 20
-56.64966858293337
 30
-0.0000000000004832
 10
4132.753568086642
 20
-53.71379045610297
 30
-0.0000000000004832
 10
4137.681702755719
 20
-50.77753350472562
 30
-0.0000000000004832
 10
4142.609660087017
 20
-47.84097792185071
 30
-0.0000000000004832
  0
SPLINE
  5
B7
330
1F
100
AcDbEntity
  8
图层 03
100
AcDbSpline
210
0.0
220
0.0
230
1.0
 70
     8
 71
     3
 72
     8
 73
     4
 74
     0
 42
0.0000000001
 43
0.0000000001
 40
10171.74036179751
 40
10171.74036179751
 40
10171.74036179751
 40
10171.74036179751
 40
10239.50448712489
 40
10239.50448712489
 40
10239.50448712489
 40
10239.50448712489
 10
4142.609660087017
 20
-47.84097792185071
 30
-0.0000000000004832
 10
4146.57400933293
 20
-44.77665525510315
 30
-0.0000000000004832
 10
4150.537002937026
 20
-41.71051598071881
 30
-0.0000000000004832
 10
4154.498911294973
 20
-38.64292935984417
 30
-0.0000000000004832
  0
SPLINE
  5
B8
330
1F
100
AcDbEntity
  8
图层 03
100
AcDbSpline
210
0.0
220
0.0
230
1.0
 70
     8
 71
     3
 72
     8
 73
     4
 74
     0
 42
0.0000000001
 43
0.0000000001
 40
10239.50448712489
 40
10239.50448712489
 40
10239.50448712489
 40
10239.50448712489
 40
10298.21860716599
 40
10298.21860716599
 40
10298.21860716599
 40
10298.21860716599
 10
4154.498911294973
 20
-38.64292935984417
 30
-0.0000000000004832
 10
4157.603445987391
 20
-35.5908935499773
 30
-0.0000000000004832
 10
4160.705770579249
 20
-32.53646547201902
 30
-0.0000000000004832
 10
4163.806305151367
 20
-29.48011464987849
 30
-0.0000000000004832
  0
SPLINE
  5
B9
330
1F
100
AcDbEntity
  8
图层 03
100
AcDbSpline
210
0.0
220
0.0
230
1.0
 70
     8
 71
     3
 72
     8
 73
     4
 74
     0
 42
0.0000000001
 43
0.0000000001
 40
10298.21860716599
 40
10298.21860716599
 40
10298.21860716599
 40
10298.21860716599
 40
10346.88037951133
 40
10346.88037951133
 40
10346.88037951133
 40
10346.88037951133
 10
4163.806305151367
 20
-29.48011464987849
 30
-0.0000000000004832
 10
4166.209921582984
 20
-26.77819456840052
 30
-0.0000000000004832
 10
4168.611214519147
 20
-24.07404205589319
 30
-0.0000000000004832
 10
4171.010579803753
 20
-21.36805446027597
 30
-0.0000000000004832
  0
SPLINE
  5
BA
330
1F
100
AcDbEntity
  8
图层 03
100
AcDbSpline
210
0.0
220
0.0
230
1.0
 70
     8
 71
     3
 72
     8
 73
     4
 74
     0
 42
0.0000000001
 43
0.0000000001
 40
10346.88037951133
 40
10346.88037951133
 40
10346.88037951133
 40
10346.88037951133
 40
10382.25386434381
 40
10382.25386434381
 40
10382.25386434381
 40
10382.25386434381
 10
4171.010579803753
 20
-21.36805446027597
 30
-0.0000000000004832
 10
4172.821337515164
 20
-19.46672887569275
 30
-0.0000000000004832
 10
4174.630338550392
 20
-17.56360905262113
 30
-0.0000000000004832
 10
4176.437768351275
 20
-15.65890032707375
 30
-0.0000000000004832
  0
SPLINE
  5
BB
330
1F
100
AcDbEntity
  8
图层 03
100
AcDbSpline
210
0.0
220
0.0
230
1.0
 70
     8
 71
     3
 72
     8
 73
     4
 74
     0
 42
0.0000000001
 43
0.0000000001
 40
10382.25386434381
 40
10382.25386434381
 40
10382.25386434381
 40
10382.25386434381
 40
10402.86450416118
 40
10402.86450416118
 40
10402.86450416118
 40
10402.86450416118
 10
4176.437768351275
 20
-15.65890032707375
 30
-0.0000000000004832
 10
4177.751034791992
 20
-14.88900750594428
 30
-0.0000000000004832
 10
4179.064543360024
 20
-14.11952805654232
 30
-0.0000000000004832
 10
4180.37829100972
 20
-13.35045832863784
 30
-0.0000000000004832
  0
SPLINE
  5
BC
330
1F
100
AcDbEntity
  8
图层 03
100
AcDbSpline
210
0.0
220
0.0
230
1.0
 70
     8
 71
     3
 72
     8
 73
     4
 74
     0
 42
0.0000000001
 43
0.0000000001
 40
10402.86450416118
 40
10402.86450416118
 40
10402.86450416118
 40
10402.86450416118
 40
10414.6988296096
 40
10414.6988296096
 40
10414.6988296096
 40
10414.6988296096
 10
4180.37829100972
 20
-13.35045832863784
 30
-0.0000000000004832
 10
4181.262945720046
 20
-13.4964778363925
 30
-0.0000000000004832
 10
4182.147408525037
 20
-13.64448085571257
 30
-0.0000000000004832
 10
4183.031650280881
 20
-13.79449679899164
 30
-0.0000000000004832
  0
SPLINE
  5
BD
330
1F
100
AcDbEntity
  8
图层 03
100
AcDbSpline
210
0.0
220
0.0
230
1.0
 70
     8
 71
     3
 72
     8
 73
     4
 74
     0
 42
0.0000000001
 43
0.0000000001
 40
10414.6988296096
 40
10414.6988296096
 40
10414.6988296096
 40
10414.6988296096
 40
10426.17501388871
 40
10426.17501388871
 40
10426.17501388871
 40
10426.17501388871
 10
4183.031650280881
 20
-13.79449679899164
 30
-0.0000000000004832
 10
4183.562393407685
 20
-14.52709312775482
 30
-0.0000000000004832
 10
4184.092089186827
 20
-15.26047582006731
 30
-0.0000000000004832
 10
4184.620743994934
 20
-15.99462418491225
 30
-0.0000000000004832
  0
SPLINE
  5
BE
330
1F
100
AcDbEntity
  8
图层 03
100
AcDbSpline
210
0.0
220
0.0
230
1.0
 70
     8
 71
     3
 72
     8
 73
     4
 74
     0
 42
0.0000000001
 43
0.0000000001
 40
10426.17501388871
 40
10426.17501388871
 40
10426.17501388871
 40
10426.17501388871
 40
10440.56899326847
 40
10440.56899326847
 40
10440.56899326847
 40
10440.56899326847
 10
4184.620743994934
 20
-15.99462418491225
 30
-0.0000000000004832
 10
4184.931049982834
 20
-17.0820097094205
 30
-0.0000000000004832
 10
4185.236640296462
 20
-18.17061636100652
 30
-0.0000000000004832
 10
4185.537202675259
 20
-19.26036830968701
 30
-0.0000000000004832
  0
SPLINE
  5
BF
330
1F
100
AcDbEntity
  8
图层 03
100
AcDbSpline
210
0.0
220
0.0
230
1.0
 70
     8
 71
     3
 72
     8
 73
     4
 74
     0
 42
0.0000000001
 43
0.0000000001
 40
10440.56899326847
 40
10440.56899326847
 40
10440.56899326847
 40
10440.56899326847
 40
10457.01492472669
 40
10457.01492472669
 40
10457.01492472669
 40
10457.01492472669
 10
4185.537202675259
 20
-19.26036830968701
 30
-0.0000000000004832
 10
4185.741084116984
 20
-20.52826242177093
 30
-0.0000000000004832
 10
4185.934637699731
 20
-21.80258511956845
 30
-0.0000000000004832
 10
4186.113440057953
 20
-23.07307366451221
 30
-0.0000000000004832
  0
SPLINE
  5
C0
330
1F
100
AcDbEntity
  8
图层 03
100
AcDbSpline
210
0.0
220
0.0
230
1.0
 70
     8
 71
     3
 72
     8
 73
     4
 74
     0
 42
0.0000000001
 43
0.0000000001
 40
10457.01492472669
 40
10457.01492472669
 40
10457.01492472669
 40
10457.01492472669
 40
10474.62529781813
 40
10474.62529781813
 40
10474.62529781813
 40
10474.62529781813
 10
4186.113440057953
 20
-23.07307366451221
 30
-0.0000000000004832
 10
4186.236127564458
 20
-24.43565552372854
 30
-0.0000000000004832
 10
4186.345899298064
 20
-25.81115551567746
 30
-0.0000000000004832
 10
4186.435205537104
 20
-27.17457249409392
 30
-0.0000000000004832
  0
SPLINE
  5
C1
330
1F
100
AcDbEntity
  8
图层 03
100
AcDbSpline
210
0.0
220
0.0
230
1.0
 70
     8
 71
     3
 72
     8
 73
     4
 74
     0
 42
0.0000000001
 43
0.0000000001
 40
10474.62529781813
 40
10474.62529781813
 40
10474.62529781813
 40
10474.62529781813
 40
10475.8357601521
 40
10475.8357601521
 40
10475.8357601521
 40
10475.8357601521
 10
4186.435205537104
 20
-27.17457249409392
 30
-0.0000000000004832
 10
4186.439629413019
 20
-27.26857485576181
 30
-0.0000000000004832
 10
4186.444005255977
 20
-27.36257684581028
 30
-0.0000000000004832
 10
4186.448332012244
 20
-27.45657829409174
 30
-0.0000000000004832
  0
SPLINE
  5
C2
330
1F
100
AcDbEntity
  8
图层 03
100
AcDbSpline
210
0.0
220
0.0
230
1.0
 70
     8
 71
     3
 72
    11
 73
     7
 74
     0
 42
0.0000000001
 43
0.0000000001
 40
10475.8357601521
 40
10475.8357601521
 40
10475.8357601521
 40
10475.8357601521
 40
10492.2505852818
 40
10492.2505852818
 40
10492.2505852818
 40
10509.4989603496
 40
10509.4989603496
 40
10509.4989603496
 40
10509.4989603496
 10
4186.448332012244
 20
-27.45657829409174
 30
-0.0000000000004832
 10
4186.471998832762
 20
-28.72619563603678
 30
-0.0000000000004832
 10
4186.477314488341
 20
-30.00769073313108
 30
-0.0000000000004832
 10
4186.456447487772
 20
-31.27478657962422
 30
-0.0000000000004832
 10
4186.446875797886
 20
-32.61151293829539
 30
-0.0000000000004832
 10
4186.430189522733
 20
-33.94785136462872
 30
-0.0000000000004832
 10
4186.404464966598
 20
-35.28336230733112
 30
-0.0000000000004832
  0
SPLINE
  5
C3
330
1F
100
AcDbEntity
  8
图层 03
100
AcDbSpline
210
0.0
220
0.0
230
1.0
 70
     8
 71
     3
 72
     8
 73
     4
 74
     0
 42
0.0000000001
 43
0.0000000001
 40
10509.4989603496
 40
10509.4989603496
 40
10509.4989603496
 40
10509.4989603496
 40
10526.63597760174
 40
10526.63597760174
 40
10526.63597760174
 40
10526.63597760174
 10
4186.404464966598
 20
-35.28336230733112
 30
-0.0000000000004832
 10
4186.326363739785
 20
-36.60503261383622
 30
-0.0000000000004832
 10
4186.248867618794
 20
-37.92677698637749
 30
-0.0000000000004832
 10
4186.17200521968
 20
-39.24859704942605
 30
-0.0000000000004832
  0
SPLINE
  5
C4
330
1F
100
AcDbEntity
  8
图层 03
100
AcDbSpline
210
0.0
220
0.0
230
1.0
 70
     8
 71
     3
 72
     8
 73
     4
 74
     0
 42
0.0000000001
 43
0.0000000001
 40
10526.63597760174
 40
10526.63597760174
 40
10526.63597760174
 40
10526.63597760174
 40
10547.75460841707
 40
10547.75460841707
 40
10547.75460841707
 40
10547.75460841707
 10
4186.17200521968
 20
-39.24859704942605
 30
-0.0000000000004832
 10
4185.725935973474
 20
-40.79370888255949
 30
-0.0000000000004832
 10
4185.268055095642
 20
-42.33469260456081
 30
-0.0000000000004832
 10
4184.800580619956
 20
-43.87184059893343
 30
-0.0000000000004832
  0
SPLINE
  5
C5
330
1F
100
AcDbEntity
  8
图层 03
100
AcDbSpline
210
0.0
220
0.0
230
1.0
 70
     8
 71
     3
 72
     8
 73
     4
 74
     0
 42
0.0000000001
 43
0.0000000001
 40
10547.75460841707
 40
10547.75460841707
 40
10547.75460841707
 40
10547.75460841707
 40
10580.94066102613
 40
10580.94066102613
 40
10580.94066102613
 40
10580.94066102613
 10
4184.800580619956
 20
-43.87184059893343
 30
-0.0000000000004832
 10
4183.492711216125
 20
-45.9728521923505
 30
-0.0000000000004832
 10
4182.136544362629
 20
-48.07837637711896
 30
-0.0000000000004832
 10
4180.776143772091
 20
-50.14170817297577
 30
-0.0000000000004832
  0
SPLINE
  5
C6
330
1F
100
AcDbEntity
  8
图层 03
100
AcDbSpline
210
0.0
220
0.0
230
1.0
 70
     8
 71
     3
 72
    11
 73
     7
 74
     0
 42
0.0000000001
 43
0.0000000001
 40
10580.94066102613
 40
10580.94066102613
 40
10580.94066102613
 40
10580.94066102613
 40
10586.29977713085
 40
10586.29977713085
 40
10586.29977713085
 40
10635.76695896764
 40
10635.76695896764
 40
10635.76695896764
 40
10635.76695896764
 10
4180.776143772091
 20
-50.14170817297577
 30
-0.0000000000004832
 10
4180.506932173902
 20
-50.43489318511388
 30
-0.0000000000004832
 10
4180.237587222619
 20
-50.72794685917211
 30
-0.0000000000004832
 10
4179.968110605085
 20
-51.02087020196109
 30
-0.0000000000004832
 10
4177.481110289894
 20
-53.72508146974292
 30
-0.0000000000004832
 10
4174.991126469313
 20
-56.42635708131297
 30
-0.0000000000004832
 10
4172.497854060761
 20
-59.12435573243533
 30
-0.0000000000004832
  0
SPLINE
  5
C7
330
1F
100
AcDbEntity
  8
图层 03
100
AcDbSpline
210
0.0
220
0.0
230
1.0
 70
     8
 71
     3
 72
    14
 73
    10
 74
     0
 42
0.0000000001
 43
0.0000000001
 40
10635.76695896764
 40
10635.76695896764
 40
10635.76695896764
 40
10635.76695896764
 40
10716.98967309337
 40
10716.98967309337
 40
10716.98967309337
 40
10735.70462975876
 40
10735.70462975876
 40
10735.70462975876
 40
10810.95993952746
 40
10810.95993952746
 40
10810.95993952746
 40
10810.95993952746
 10
4172.497854060761
 20
-59.12435573243533
 30
-0.0000000000004832
 10
4168.1443698583
 20
-63.28205923659698
 30
-0.0000000000004832
 10
4163.793101705314
 20
-67.4422267729617
 30
-0.0000000000004832
 10
4159.445437300154
 20
-71.60637212931738
 30
-0.0000000000004832
 10
4158.447145709012
 20
-72.5696883139592
 30
-0.0000000000004832
 10
4157.44921209071
 20
-73.53339828119874
 30
-0.0000000000004832
 10
4156.451691478584
 20
-74.49756062170036
 30
-0.0000000000004832
 10
4152.458234829619
 20
-78.39387056225974
 30
-0.0000000000004832
 10
4148.474648137406
 20
-82.30115201101148
 30
-0.0000000000004832
 10
4144.514329086698
 20
-86.23314218948758
 30
-0.0000000000004832
  0
SPLINE
  5
C8
330
1F
100
AcDbEntity
  8
图层 03
100
AcDbSpline
210
0.0
220
0.0
230
1.0
 70
     8
 71
     3
 72
     9
 73
     5
 74
     0
 42
0.0000000001
 43
0.0000000001
 40
10810.95993952746
 40
10810.95993952746
 40
10810.95993952746
 40
10810.95993952746
 40
10854.45081839237
 40
10897.94183178414
 40
10897.94183178414
 40
10897.94183178414
 40
10897.94183178414
 10
4144.514329086698
 20
-86.23314218948758
 30
-0.0000000000004832
 10
4142.294056636251
 20
-88.57690401583295
 30
-0.0000000000004832
 10
4137.86231736333
 20
-93.27324604884575
 30
-0.0000000000004832
 10
4133.458616103131
 20
-97.99803156685334
 30
-0.0000000000004832
 10
4131.270246388944
 20
-100.3736683086788
 30
-0.0000000000004832
  0
SPLINE
  5
C9
330
1F
100
AcDbEntity
  8
图层 03
100
AcDbSpline
210
0.0
220
0.0
230
1.0
 70
     8
 71
     3
 72
     8
 73
     4
 74
     0
 42
0.0000000001
 43
0.0000000001
 40
10897.94183178414
 40
10897.94183178414
 40
10897.94183178414
 40
10897.94183178414
 40
10943.05124912681
 40
10943.05124912681
 40
10943.05124912681
 40
10943.05124912681
 10
4131.270246388944
 20
-100.3736683086788
 30
-0.0000000000004832
 10
4129.130276582434
 20
-102.9601526611755
 30
-0.0000000000004832
 10
4126.998145025783
 20
-105.5538949319114
 30
-0.0000000000004832
 10
4124.886193341235
 20
-108.1652270657935
 30
-0.0000000000004832
  0
SPLINE
  5
CA
330
1F
100
AcDbEntity
  8
图层 03
100
AcDbSpline
210
0.0
220
0.0
230
1.0
 70
     8
 71
     3
 72
     8
 73
     4
 74
     0
 42
0.0000000001
 43
0.0000000001
 40
10943.05124912681
 40
10943.05124912681
 40
10943.05124912681
 40
10943.05124912681
 40
10957.43654924765
 40
10957.43654924765
 40
10957.43654924765
 40
10957.43654924765
 10
4124.886193341235
 20
-108.1652270657935
 30
-0.0000000000004832
 10
4124.24152494692
 20
-109.0225969853998
 30
-0.0000000000004832
 10
4123.597559015159
 20
-109.8805504324603
 30
-0.0000000000004832
 10
4122.955090302764
 20
-110.7397300223904
 30
-0.0000000000004832
  0
SPLINE
  5
CB
330
1F
100
AcDbEntity
  8
图层 03
100
AcDbSpline
210
0.0
220
0.0
230
1.0
 70
     8
 71
     3
 72
     8
 73
     4
 74
     0
 42
0.0000000001
 43
0.0000000001
 40
10957.43654924765
 40
10957.43654924765
 40
10957.43654924765
 40
10957.43654924765
 40
10984.13754853233
 40
10984.13754853233
 40
10984.13754853233
 40
10984.13754853233
 10
4122.955090302764
 20
-110.7397300223904
 30
-0.0000000000004832
 10
4122.001001641109
 20
-112.5106879582511
 30
-0.0000000000004832
 10
4121.083869605738
 20
-114.2864222119749
 30
-0.0000000000004832
 10
4120.181272122763
 20
-116.0879981057885
 30
-0.0000000000004832
  0
SPLINE
  5
CC
330
1F
100
AcDbEntity
  8
图层 03
100
AcDbSpline
210
0.0
220
0.0
230
1.0
 70
     8
 71
     3
 72
     8
 73
     4
 74
     0
 42
0.0000000001
 43
0.0000000001
 40
10984.13754853233
 40
10984.13754853233
 40
10984.13754853233
 40
10984.13754853233
 40
10997.61349396321
 40
10997.61349396321
 40
10997.61349396321
 40
10997.61349396321
 10
4120.181272122763
 20
-116.0879981057885
 30
-0.0000000000004832
 10
4120.277726451455
 20
-117.1337599082915
 30
-0.0000000000004832
 10
4120.381415148204
 20
-118.1793088699731
 30
-0.0000000000004832
 10
4120.491297134357
 20
-119.2244066068376
 30
-0.0000000000004832
  0
SPLINE
  5
CD
330
1F
100
AcDbEntity
  8
图层 03
100
AcDbSpline
210
0.0
220
0.0
230
1.0
 70
     8
 71
     3
 72
     8
 73
     4
 74
     0
 42
0.0000000001
 43
0.0000000001
 40
10997.61349396321
 40
10997.61349396321
 40
10997.61349396321
 40
10997.61349396321
 40
11013.93885260899
 40
11013.93885260899
 40
11013.93885260899
 40
11013.93885260899
 10
4120.491297134357
 20
-119.2244066068376
 30
-0.0000000000004832
 10
4121.717846018328
 20
-119.3231919694201
 30
-0.0000000000004832
 10
4122.944457246539
 20
-119.4194051108732
 30
-0.0000000000004832
 10
4124.171104140702
 20
-119.5125637356084
 30
-0.0000000000004832
  0
SPLINE
  5
CE
330
1F
100
AcDbEntity
  8
图层 03
100
AcDbSpline
210
0.0
220
0.0
230
1.0
 70
     8
 71
     3
 72
     8
 73
     4
 74
     0
 42
0.0000000001
 43
0.0000000001
 40
11013.93885260899
 40
11013.93885260899
 40
11013.93885260899
 40
11013.93885260899
 40
11045.02683847528
 40
11045.02683847528
 40
11045.02683847528
 40
11045.02683847528
 10
4124.171104140702
 20
-119.5125637356084
 30
-0.0000000000004832
 10
4126.350366857823
 20
-118.7638294815963
 30
-0.0000000000004832
 10
4128.513244045482
 20
-117.9965602588666
 30
-0.0000000000004832
 10
4130.672193326474
 20
-117.1945781967349
 30
-0.0000000000004832
  0
SPLINE
  5
CF
330
1F
100
AcDbEntity
  8
图层 03
100
AcDbSpline
210
0.0
220
0.0
230
1.0
 70
     8
 71
     3
 72
     8
 73
     4
 74
     0
 42
0.0000000001
 43
0.0000000001
 40
11045.02683847528
 40
11045.02683847528
 40
11045.02683847528
 40
11045.02683847528
 40
11061.95535689224
 40
11061.95535689224
 40
11061.95535689224
 40
11061.95535689224
 10
4130.672193326474
 20
-117.1945781967349
 30
-0.0000000000004832
 10
4131.801164773973
 20
-116.6561032309157
 30
-0.0000000000004832
 10
4132.930376831199
 20
-116.1181200275887
 30
-0.0000000000004832
 10
4134.059700640784
 20
-115.5803665521191
 30
-0.0000000000004832
  0
SPLINE
  5
D0
330
1F
100
AcDbEntity
  8
图层 03
100
AcDbSpline
210
0.0
220
0.0
230
1.0
 70
     8
 71
     3
 72
     8
 73
     4
 74
     0
 42
0.0000000001
 43
0.0000000001
 40
11061.95535689224
 40
11061.95535689224
 40
11061.95535689224
 40
11061.95535689224
 40
11113.25808726091
 40
11113.25808726091
 40
11113.25808726091
 40
11113.25808726091
 10
4134.059700640784
 20
-115.5803665521191
 30
-0.0000000000004832
 10
4137.414016233288
 20
-113.8170028907234
 30
-0.0000000000004832
 10
4140.766620370001
 20
-112.0504167855031
 30
-0.0000000000004832
 10
4144.118527412375
 20
-110.2825344943847
 30
-0.0000000000004832
  0
SPLINE
  5
D1
330
1F
100
AcDbEntity
  8
图层 03
100
AcDbSpline
210
0.0
220
0.0
230
1.0
 70
     8
 71
     3
 72
    17
 73
    13
 74
     0
 42
0.0000000001
 43
0.0000000001
 40
11113.25808726091
 40
11113.25808726091
 40
11113.25808726091
 40
11113.25808726091
 40
11212.9921488721
 40
11212.9921488721
 40
11212.9921488721
 40
11292.55561675811
 40
11292.55561675811
 40
11292.55561675811
 40
11320.22556160791
 40
11320.22556160791
 40
11320.22556160791
 40
11411.77934637311
 40
11411.77934637311
 40
11411.77934637311
 40
11411.77934637311
 10
4144.118527412375
 20
-110.2825344943847
 30
-0.0000000000004832
 10
4150.61722925223
 20
-106.8131205183697
 30
-0.0000000000004832
 10
4157.129598168907
 20
-103.3689191113956
 30
-0.0000000000004832
 10
4163.645894869069
 20
-99.93238907339378
 30
-0.0000000000004832
 10
4168.882782139826
 20
-97.2639915828479
 30
-0.0000000000004832
 10
4174.125737130921
 20
-94.60726406749859
 30
-0.0000000000004832
 10
4179.371709389483
 20
-91.9565057959403
 30
-0.0000000000004832
 10
4181.183367024621
 20
-91.01019105315959
 30
-0.0000000000004832
 10
4182.995660383755
 20
-90.06507577684192
 30
-0.0000000000004832
 10
4184.808481057771
 20
-89.12096357066298
 30
-0.0000000000004832
 10
4190.833070027079
 20
-86.04752233551108
 30
-0.0000000000004832
 10
4196.862625373748
 20
-82.98363109203251
 30
-0.0000000000004832
 10
4202.89511340614
 20
-79.92549090416401
 30
-0.0000000000004832
  0
SPLINE
  5
D2
330
1F
100
AcDbEntity
  8
图层 03
100
AcDbSpline
210
0.0
220
0.0
230
1.0
 70
     8
 71
     3
 72
     8
 73
     4
 74
     0
 42
0.0000000001
 43
0.0000000001
 40
11411.77934637311
 40
11411.77934637311
 40
11411.77934637311
 40
11411.77934637311
 40
11473.44239219316
 40
11473.44239219316
 40
11473.44239219316
 40
11473.44239219316
 10
4202.89511340614
 20
-79.92549090416401
 30
-0.0000000000004832
 10
4206.890502054059
 20
-77.73895072824939
 30
-0.0000000000004832
 10
4210.885665384975
 20
-75.55200146833954
 30
-0.0000000000004832
 10
4214.880649981515
 20
-73.36472809559677
 30
-0.0000000000004832
  0
SPLINE
  5
D3
330
1F
100
AcDbEntity
  8
图层 03
100
AcDbSpline
210
0.0
220
0.0
230
1.0
 70
     8
 71
     3
 72
     8
 73
     4
 74
     0
 42
0.0000000001
 43
0.0000000001
 40
11473.44239219316
 40
11473.44239219316
 40
11473.44239219316
 40
11473.44239219316
 40
11511.39516247555
 40
11511.39516247555
 40
11511.39516247555
 40
11511.39516247555
 10
4214.880649981515
 20
-73.36472809559677
 30
-0.0000000000004832
 10
4217.200028657906
 20
-71.7888103266298
 30
-0.0000000000004832
 10
4219.51935448234
 20
-70.21281323681683
 30
-0.0000000000004832
 10
4221.838630899908
 20
-68.63674202487914
 30
-0.0000000000004832
  0
SPLINE
  5
D4
330
1F
100
AcDbEntity
  8
图层 03
100
AcDbSpline
210
0.0
220
0.0
230
1.0
 70
     8
 71
     3
 72
     8
 73
     4
 74
     0
 42
0.0000000001
 43
0.0000000001
 40
11511.39516247555
 40
11511.39516247555
 40
11511.39516247555
 40
11511.39516247555
 40
11528.34842767073
 40
11528.34842767073
 40
11528.34842767073
 40
11528.34842767073
 10
4221.838630899908
 20
-68.63674202487914
 30
-0.0000000000004832
 10
4222.767462840601
 20
-67.79175139740755
 30
-0.0000000000004832
 10
4223.696793237315
 20
-66.94733691727924
 30
-0.0000000000004832
 10
4224.626618307338
 20
-66.10349794746912
 30
-0.0000000000004832
  0
SPLINE
  5
D5
330
1F
100
AcDbEntity
  8
图层 03
100
AcDbSpline
210
0.0
220
0.0
230
1.0
 70
     8
 71
     3
 72
     8
 73
     4
 74
     0
 42
0.0000000001
 43
0.0000000001
 40
11528.34842767073
 40
11528.34842767073
 40
11528.34842767073
 40
11528.34842767073
 40
11536.36334494479
 40
11536.36334494479
 40
11536.36334494479
 40
11536.36334494479
 10
4224.626618307338
 20
-66.10349794746912
 30
-0.0000000000004832
 10
4225.05062875185
 20
-65.68710844766679
 30
-0.0000000000004832
 10
4225.474147644945
 20
-65.27018536823107
 30
-0.0000000000004832
 10
4225.89715960175
 20
-64.85271919753745
 30
-0.0000000000004832
  0
SPLINE
  5
D6
330
1F
100
AcDbEntity
  8
图层 03
100
AcDbSpline
210
0.0
220
0.0
230
1.0
 70
     8
 71
     3
 72
     8
 73
     4
 74
     0
 42
0.0000000001
 43
0.0000000001
 40
11536.36334494479
 40
11536.36334494479
 40
11536.36334494479
 40
11536.36334494479
 40
11557.30054728473
 40
11557.30054728473
 40
11557.30054728473
 40
11557.30054728473
 10
4225.89715960175
 20
-64.85271919753745
 30
-0.0000000000004832
 10
4226.94609133679
 20
-63.70452472094689
 30
-0.0000000000004832
 10
4227.989752728815
 20
-62.55107913875486
 30
-0.0000000000004832
 10
4229.027692916047
 20
-61.39222357731728
 30
-0.0000000000004832
  0
SPLINE
  5
D7
330
1F
100
AcDbEntity
  8
图层 03
100
AcDbSpline
210
0.0
220
0.0
230
1.0
 70
     8
 71
     3
 72
    11
 73
     7
 74
     0
 42
0.0000000001
 43
0.0000000001
 40
11557.30054728473
 40
11557.30054728473
 40
11557.30054728473
 40
11557.30054728473
 40
11580.99232988597
 40
11580.99232988597
 40
11580.99232988597
 40
11609.28287838272
 40
11609.28287838272
 40
11609.28287838272
 40
11609.28287838272
 10
4229.027692916047
 20
-61.39222357731728
 30
-0.0000000000004832
 10
4230.342320182051
 20
-60.23087345174076
 30
-0.0000000000004832
 10
4231.651973348766
 20
-59.06353029307024
 30
-0.0000000000004832
 10
4232.956284649675
 20
-57.89005478847798
 30
-0.0000000000004832
 10
4234.509287819614
 20
-56.48351266388568
 30
-0.0000000000004832
 10
4236.057708320086
 20
-55.07159214869421
 30
-0.0000000000004832
 10
4237.601586022905
 20
-53.65452818462973
 30
-0.0000000000004832
  0
SPLINE
  5
D8
330
1F
100
AcDbEntity
  8
图层 03
100
AcDbSpline
210
0.0
220
0.0
230
1.0
 70
     8
 71
     3
 72
     8
 73
     4
 74
     0
 42
0.0000000001
 43
0.0000000001
 40
11609.28287838272
 40
11609.28287838272
 40
11609.28287838272
 40
11609.28287838272
 40
11643.30473863788
 40
11643.30473863788
 40
11643.30473863788
 40
11643.30473863788
 10
4237.601586022905
 20
-53.65452818462973
 30
-0.0000000000004832
 10
4239.252174998256
 20
-51.73723775132135
 30
-0.0000000000004832
 10
4240.898694649204
 20
-49.81613714508217
 30
-0.0000000000004832
 10
4242.541661760776
 20
-47.89178614974185
 30
-0.0000000000004832
  0
SPLINE
  5
D9
330
1F
100
AcDbEntity
  8
图层 03
100
AcDbSpline
210
0.0
220
0.0
230
1.0
 70
     8
 71
     3
 72
     8
 73
     4
 74
     0
 42
0.0000000001
 43
0.0000000001
 40
11643.30473863788
 40
11643.30473863788
 40
11643.30473863788
 40
11643.30473863788
 40
11686.52404975462
 40
11686.52404975462
 40
11686.52404975462
 40
11686.52404975462
 10
4242.541661760776
 20
-47.89178614974185
 30
-0.0000000000004832
 10
4244.225288653662
 20
-45.1253162184023
 30
-0.0000000000004832
 10
4245.909556364169
 20
-42.35928451379118
 30
-0.0000000000004832
 10
4247.594389055357
 20
-39.59364024732963
 30
-0.0000000000004832
  0
SPLINE
  5
DA
330
1F
100
AcDbEntity
  8
图层 03
100
AcDbSpline
210
0.0
220
0.0
230
1.0
 70
     8
 71
     3
 72
     8
 73
     4
 74
     0
 42
0.0000000001
 43
0.0000000001
 40
11686.52404975462
 40
11686.52404975462
 40
11686.52404975462
 40
11686.52404975462
 40
11718.37629730009
 40
11718.37629730009
 40
11718.37629730009
 40
11718.37629730009
 10
4247.594389055357
 20
-39.59364024732963
 30
-0.0000000000004832
 10
4248.651556905233
 20
-37.44051700072237
 30
-0.0000000000004832
 10
4249.731404475497
 20
-35.29931708741265
 30
-0.0000000000004832
 10
4250.835608721639
 20
-33.17351239228401
 30
-0.0000000000004832
  0
SPLINE
  5
DB
330
1F
100
AcDbEntity
  8
图层 03
100
AcDbSpline
210
0.0
220
0.0
230
1.0
 70
     8
 71
     3
 72
     8
 73
     4
 74
     0
 42
0.0000000001
 43
0.0000000001
 40
11718.37629730009
 40
11718.37629730009
 40
11718.37629730009
 40
11718.37629730009
 40
11745.72167287972
 40
11745.72167287972
 40
11745.72167287972
 40
11745.72167287972
 10
4250.835608721639
 20
-33.17351239228401
 30
-0.0000000000004832
 10
4251.649769297689
 20
-31.27474069222569
 30
-0.0000000000004832
 10
4252.466480841213
 20
-29.3772456696812
 30
-0.0000000000004832
 10
4253.286529344181
 20
-27.48145732968737
 30
-0.0000000000004832
  0
SPLINE
  5
DC
330
1F
100
AcDbEntity
  8
图层 03
100
AcDbSpline
210
0.0
220
0.0
230
1.0
 70
     8
 71
     3
 72
     8
 73
     4
 74
     0
 42
0.0000000001
 43
0.0000000001
 40
11745.72167287972
 40
11745.72167287972
 40
11745.72167287972
 40
11745.72167287972
 40
11811.64416929324
 40
11811.64416929324
 40
11811.64416929324
 40
11811.64416929324
 10
4253.286529344181
 20
-27.48145732968737
 30
-0.0000000000004832
 10
4255.574402399884
 20
-23.08931978902012
 30
-0.0000000000004832
 10
4258.042565425158
 20
-18.79020868215673
 30
-0.0000000000004832
 10
4260.718572445208
 20
-14.65238934158128
 30
-0.0000000000004832
  0
SPLINE
  5
DD
330
1F
100
AcDbEntity
  8
图层 03
100
AcDbSpline
210
0.0
220
0.0
230
1.0
 70
     8
 71
     3
 72
     8
 73
     4
 74
     0
 42
0.0000000001
 43
0.0000000001
 40
11811.64416929324
 40
11811.64416929324
 40
11811.64416929324
 40
11811.64416929324
 40
11828.55912541692
 40
11828.55912541692
 40
11828.55912541692
 40
11828.55912541692
 10
4260.718572445208
 20
-14.65238934158128
 30
-0.0000000000004832
 10
4261.625566202211
 20
-13.78692156121554
 30
-0.0000000000004832
 10
4262.540360306505
 20
-12.93021843100655
 30
-0.0000000000004832
 10
4263.46302937063
 20
-12.08243924669591
 30
-0.0000000000004832
  0
SPLINE
  5
DE
330
1F
100
AcDbEntity
  8
图层 03
100
AcDbSpline
210
0.0
220
0.0
230
1.0
 70
     8
 71
     3
 72
     8
 73
     4
 74
     0
 42
0.0000000001
 43
0.0000000001
 40
11828.55912541692
 40
11828.55912541692
 40
11828.55912541692
 40
11828.55912541692
 40
11866.1149533926
 40
11866.1149533926
 40
11866.1149533926
 40
11866.1149533926
 10
4263.46302937063
 20
-12.08243924669591
 30
-0.0000000000004832
 10
4265.42476860116
 20
-10.1039111342385
 30
-0.0000000000004832
 10
4267.414475063372
 20
-8.157262789638025
 30
-0.0000000000004832
 10
4269.434099023955
 20
-6.241559689544943
 30
-0.0000000000004832
  0
SPLINE
  5
DF
330
1F
100
AcDbEntity
  8
图层 03
100
AcDbSpline
210
0.0
220
0.0
230
1.0
 70
     8
 71
     3
 72
     8
 73
     4
 74
     0
 42
0.0000000001
 43
0.0000000001
 40
11866.1149533926
 40
11866.1149533926
 40
11866.1149533926
 40
11866.1149533926
 40
11884.8730086814
 40
11884.8730086814
 40
11884.8730086814
 40
11884.8730086814
 10
4269.434099023955
 20
-6.241559689544943
 30
-0.0000000000004832
 10
4270.841093723552
 20
-6.235823162785096
 30
-0.0000000000004832
 10
4272.24870881585
 20
-6.239318277448319
 30
-0.0000000000004832
 10
4273.656567706088
 20
-6.250468367687631
 30
-0.0000000000004832
  0
SPLINE
  5
E0
330
1F
100
AcDbEntity
  8
图层 03
100
AcDbSpline
210
0.0
220
0.0
230
1.0
 70
     8
 71
     3
 72
     8
 73
     4
 74
     0
 42
0.0000000001
 43
0.0000000001
 40
11884.8730086814
 40
11884.8730086814
 40
11884.8730086814
 40
11884.8730086814
 40
11914.32494586093
 40
11914.32494586093
 40
11914.32494586093
 40
11914.32494586093
 10
4273.656567706088
 20
-6.250468367687631
 30
-0.0000000000004832
 10
4275.829658285119
 20
-5.947153797000396
 30
-0.0000000000004832
 10
4277.9776098751
 20
-5.518326050667497
 30
-0.0000000000004832
 10
4280.09811656894
 20
-4.991780197012531
 30
-0.0000000000004832
  0
SPLINE
  5
E1
330
1F
100
AcDbEntity
  8
图层 03
100
AcDbSpline
210
0.0
220
0.0
230
1.0
 70
     8
 71
     3
 72
     8
 73
     4
 74
     0
 42
0.0000000001
 43
0.0000000001
 40
11914.32494586093
 40
11914.32494586093
 40
11914.32494586093
 40
11914.32494586093
 40
11953.10760918862
 40
11953.10760918862
 40
11953.10760918862
 40
11953.10760918862
 10
4280.09811656894
 20
-4.991780197012531
 30
-0.0000000000004832
 10
4282.668621505979
 20
-6.30059917619144
 30
-0.0000000000004832
 10
4285.617271008179
 20
-7.445947588561467
 30
-0.0000000000004832
 10
4288.460331801205
 20
-7.651206463580934
 30
-0.0000000000004832
  0
SPLINE
  5
E2
330
1F
100
AcDbEntity
  8
图层 03
100
AcDbSpline
210
0.0
220
0.0
230
1.0
 70
     8
 71
     3
 72
     8
 73
     4
 74
     0
 42
0.0000000001
 43
0.0000000001
 40
11953.10760918862
 40
11953.10760918862
 40
11953.10760918862
 40
11953.10760918862
 40
11955.07657308771
 40
11955.07657308771
 40
11955.07657308771
 40
11955.07657308771
 10
4288.460331801205
 20
-7.651206463580934
 30
-0.0000000000004832
 10
4288.602016543404
 20
-7.703539118431536
 30
-0.0000000000004832
 10
4288.74401141747
 20
-7.754870194468367
 30
-0.0000000000004832
 10
4288.886282300014
 20
-7.805154242896265
 30
-0.0000000000004832
  0
SPLINE
  5
E3
330
1F
100
AcDbEntity
  8
图层 03
100
AcDbSpline
210
0.0
220
0.0
230
1.0
 70
     8
 71
     3
 72
     8
 73
     4
 74
     0
 42
0.0000000001
 43
0.0000000001
 40
11955.07657308771
 40
11955.07657308771
 40
11955.07657308771
 40
11955.07657308771
 40
11980.04886617633
 40
11980.04886617633
 40
11980.04886617633
 40
11980.04886617633
 10
4288.886282300014
 20
-7.805154242896265
 30
-0.0000000000004832
 10
4290.722666589038
 20
-8.289183506255767
 30
-0.0000000000004832
 10
4292.592983023989
 20
-8.6331967681283
 30
-0.0000000000004832
 10
4294.46636528858
 20
-8.778611539379312
 30
-0.0000000000004832
  0
SPLINE
  5
E4
330
1F
100
AcDbEntity
  8
图层 03
100
AcDbSpline
210
0.0
220
0.0
230
1.0
 70
     8
 71
     3
 72
     8
 73
     4
 74
     0
 42
0.0000000001
 43
0.0000000001
 40
11980.04886617633
 40
11980.04886617633
 40
11980.04886617633
 40
11980.04886617633
 40
11983.19577680891
 40
11983.19577680891
 40
11983.19577680891
 40
11983.19577680891
 10
4294.46636528858
 20
-8.778611539379312
 30
-0.0000000000004832
 10
4294.701361762647
 20
-8.765127599875086
 30
-0.0000000000004832
 10
4294.936280284772
 20
-8.750891109343002
 30
-0.0000000000004832
 10
4295.171105950873
 20
-8.735890973467804
 30
-0.0000000000004832
  0
SPLINE
  5
E5
330
1F
100
AcDbEntity
  8
图层 03
100
AcDbSpline
210
0.0
220
0.0
230
1.0
 70
     8
 71
     3
 72
     8
 73
     4
 74
     0
 42
0.0000000001
 43
0.0000000001
 40
11983.19577680891
 40
11983.19577680891
 40
11983.19577680891
 40
11983.19577680891
 40
12002.06762061423
 40
12002.06762061423
 40
12002.06762061423
 40
12002.06762061423
 10
4295.171105950873
 20
-8.735890973467804
 30
-0.0000000000004832
 10
4296.586816891027
 20
-8.7129049716184
 30
-0.0000000000004832
 10
4298.002404534393
 20
-8.796187467275104
 30
-0.0000000000004832
 10
4299.418019969838
 20
-8.987971002199629
 30
-0.0000000000004832
  0
SPLINE
  5
E6
330
1F
100
AcDbEntity
  8
图层 03
100
AcDbSpline
210
0.0
220
0.0
230
1.0
 70
     8
 71
     3
 72
     8
 73
     4
 74
     0
 42
0.0000000001
 43
0.0000000001
 40
12002.06762061423
 40
12002.06762061423
 40
12002.06762061423
 40
12002.06762061423
 40
12009.27633476309
 40
12009.27633476309
 40
12009.27633476309
 40
12009.27633476309
 10
4299.418019969838
 20
-8.987971002199629
 30
-0.0000000000004832
 10
4299.959884276622
 20
-9.014116993796506
 30
-0.0000000000004832
 10
4300.500820888471
 20
-9.069339862481343
 30
-0.0000000000004832
 10
4301.040458625193
 20
-9.151724699814281
 30
-0.0000000000004832
  0
SPLINE
  5
E7
330
1F
100
AcDbEntity
  8
图层 03
100
AcDbSpline
210
0.0
220
0.0
230
1.0
 70
     8
 71
     3
 72
     8
 73
     4
 74
     0
 42
0.0000000001
 43
0.0000000001
 40
12009.27633476309
 40
12009.27633476309
 40
12009.27633476309
 40
12009.27633476309
 40
12036.79930162763
 40
12036.79930162763
 40
12036.79930162763
 40
12036.79930162763
 10
4301.040458625193
 20
-9.151724699814281
 30
-0.0000000000004832
 10
4303.099483291022
 20
-9.116499076324317
 30
-0.0000000000004832
 10
4305.140305335324
 20
-9.755517463485376
 30
-0.0000000000004832
 10
4307.020558416179
 20
-10.67855984412017
 30
-0.0000000000004832
  0
SPLINE
  5
E8
330
1F
100
AcDbEntity
  8
图层 03
100
AcDbSpline
210
0.0
220
0.0
230
1.0
 70
     8
 71
     3
 72
     8
 73
     4
 74
     0
 42
0.0000000001
 43
0.0000000001
 40
12036.79930162763
 40
12036.79930162763
 40
12036.79930162763
 40
12036.79930162763
 40
12040.4420544263
 40
12040.4420544263
 40
12040.4420544263
 40
12040.4420544263
 10
4307.020558416179
 20
-10.67855984412017
 30
-0.0000000000004832
 10
4307.283483886982
 20
-10.7727626447363
 30
-0.0000000000004832
 10
4307.544353495242
 20
-10.87356211072051
 30
-0.0000000000004832
 10
4307.803243187902
 20
-10.98066149493184
 30
-0.0000000000004832
  0
SPLINE
  5
E9
330
1F
100
AcDbEntity
  8
图层 03
100
AcDbSpline
210
0.0
220
0.0
230
1.0
 70
     8
 71
     3
 72
     8
 73
     4
 74
     0
 42
0.0000000001
 43
0.0000000001
 40
12040.4420544263
 40
12040.4420544263
 40
12040.4420544263
 40
12040.4420544263
 40
12047.95778127553
 40
12047.95778127553
 40
12047.95778127553
 40
12047.95778127553
 10
4307.803243187902
 20
-10.98066149493184
 30
-0.0000000000004832
 10
4308.255580923481
 20
-11.35575374027405
 30
-0.0000000000004832
 10
4308.712506906522
 20
-11.72616652992542
 30
-0.0000000000004832
 10
4309.173182464817
 20
-12.08992849942683
 30
-0.0000000000004832
  0
SPLINE
  5
EA
330
1F
100
AcDbEntity
  8
图层 03
100
AcDbSpline
210
0.0
220
0.0
230
1.0
 70
     8
 71
     3
 72
     8
 73
     4
 74
     0
 42
0.0000000001
 43
0.0000000001
 40
12047.95778127553
 40
12047.95778127553
 40
12047.95778127553
 40
12047.95778127553
 40
12073.26388627818
 40
12073.26388627818
 40
12073.26388627818
 40
12073.26388627818
 10
4309.173182464817
 20
-12.08992849942683
 30
-0.0000000000004832
 10
4310.999119774058
 20
-12.63085560632589
 30
-0.0000000000004832
 10
4312.910263983002
 20
-13.18178893615232
 30
-0.0000000000004832
 10
4314.744916731396
 20
-13.68234340109734
 30
-0.0000000000004832
  0
SPLINE
  5
EB
330
1F
100
AcDbEntity
  8
图层 03
100
AcDbSpline
210
0.0
220
0.0
230
1.0
 70
     8
 71
     3
 72
     8
 73
     4
 74
     0
 42
0.0000000001
 43
0.0000000001
 40
12073.26388627818
 40
12073.26388627818
 40
12073.26388627818
 40
12073.26388627818
 40
12100.23125667999
 40
12100.23125667999
 40
12100.23125667999
 40
12100.23125667999
 10
4314.744916731396
 20
-13.68234340109734
 30
-0.0000000000004832
 10
4316.537536071532
 20
-14.7630993994394
 30
-0.0000000000004832
 10
4318.327343944299
 20
-15.84929040434122
 30
-0.0000000000004832
 10
4320.112978283421
 20
-16.94314106073307
 30
-0.0000000000004832
  0
SPLINE
  5
EC
330
1F
100
AcDbEntity
  8
图层 03
100
AcDbSpline
210
0.0
220
0.0
230
1.0
 70
     8
 71
     3
 72
     8
 73
     4
 74
     0
 42
0.0000000001
 43
0.0000000001
 40
12100.23125667999
 40
12100.23125667999
 40
12100.23125667999
 40
12100.23125667999
 40
12104.84895884567
 40
12104.84895884567
 40
12104.84895884567
 40
12104.84895884567
 10
4320.112978283421
 20
-16.94314106073307
 30
-0.0000000000004832
 10
4320.305218960691
 20
-17.25251957798196
 30
-0.0000000000004832
 10
4320.495214696269
 20
-17.56334956147725
 30
-0.0000000000004832
 10
4320.682927542502
 20
-17.87549858091802
 30
-0.0000000000004832
  0
SPLINE
  5
ED
330
1F
100
AcDbEntity
  8
图层 03
100
AcDbSpline
210
0.0
220
0.0
230
1.0
 70
     8
 71
     3
 72
     8
 73
     4
 74
     0
 42
0.0000000001
 43
0.0000000001
 40
12104.84895884567
 40
12104.84895884567
 40
12104.84895884567
 40
12104.84895884567
 40
12131.8110263132
 40
12131.8110263132
 40
12131.8110263132
 40
12131.8110263132
 10
4320.682927542502
 20
-17.87549858091802
 30
-0.0000000000004832
 10
4322.695498392386
 20
-17.87237043487266
 30
-0.0000000000004832
 10
4324.73970653803
 20
-18.01223996760928
 30
-0.0000000000004832
 10
4326.744897956368
 20
-18.36579135328202
 30
-0.0000000000004832
  0
SPLINE
  5
EE
330
1F
100
AcDbEntity
  8
图层 03
100
AcDbSpline
210
0.0
220
0.0
230
1.0
 70
     8
 71
     3
 72
     8
 73
     4
 74
     0
 42
0.0000000001
 43
0.0000000001
 40
12131.8110263132
 40
12131.8110263132
 40
12131.8110263132
 40
12131.8110263132
 40
12162.00924490067
 40
12162.00924490067
 40
12162.00924490067
 40
12162.00924490067
 10
4326.744897956368
 20
-18.36579135328202
 30
-0.0000000000004832
 10
4326.339676284551
 20
-20.6456769933734
 30
-0.0000000000004832
 10
4325.948129851523
 20
-22.92904991420232
 30
-0.0000000000004832
 10
4325.568050596074
 20
-25.21491531501852
 30
-0.0000000000004832
  0
SPLINE
  5
EF
330
1F
100
AcDbEntity
  8
图层 03
100
AcDbSpline
210
0.0
220
0.0
230
1.0
 70
     8
 71
     3
 72
     8
 73
     4
 74
     0
 42
0.0000000001
 43
0.0000000001
 40
12162.00924490067
 40
12162.00924490067
 40
12162.00924490067
 40
12162.00924490067
 40
12201.83378069136
 40
12201.83378069136
 40
12201.83378069136
 40
12201.83378069136
 10
4325.568050596074
 20
-25.21491531501852
 30
-0.0000000000004832
 10
4323.750114843811
 20
-27.56578549402093
 30
-0.0000000000004832
 10
4321.917961485702
 20
-29.88914597530231
 30
-0.0000000000004832
 10
4320.053733679317
 20
-32.20011607396225
 30
-0.0000000000004832
  0
SPLINE
  5
F0
330
1F
100
AcDbEntity
  8
图层 03
100
AcDbSpline
210
0.0
220
0.0
230
1.0
 70
     8
 71
     3
 72
     8
 73
     4
 74
     0
 42
0.0000000001
 43
0.0000000001
 40
12201.83378069136
 40
12201.83378069136
 40
12201.83378069136
 40
12201.83378069136
 40
12229.94938784403
 40
12229.94938784403
 40
12229.94938784403
 40
12229.94938784403
 10
4320.053733679317
 20
-32.20011607396225
 30
-0.0000000000004832
 10
4319.09430717713
 20
-34.13013310569363
 30
-0.0000000000004832
 10
4318.142341125536
 20
-35.93103579285309
 30
-0.0000000000004832
 10
4317.078689842114
 20
-37.79773717701528
 30
-0.0000000000004832
  0
SPLINE
  5
F1
330
1F
100
AcDbEntity
  8
图层 03
100
AcDbSpline
210
0.0
220
0.0
230
1.0
 70
     8
 71
     3
 72
     8
 73
     4
 74
     0
 42
0.0000000001
 43
0.0000000001
 40
12229.94938784403
 40
12229.94938784403
 40
12229.94938784403
 40
12229.94938784403
 40
12247.90292828542
 40
12247.90292828542
 40
12247.90292828542
 40
12247.90292828542
 10
4317.078689842114
 20
-37.79773717701528
 30
-0.0000000000004832
 10
4316.331557994716
 20
-38.91281715624154
 30
-0.0000000000004832
 10
4315.578491487083
 20
-40.02356493669276
 30
-0.0000000000004832
 10
4314.818569522196
 20
-41.1289659940719
 30
-0.0000000000004832
  0
SPLINE
  5
F2
330
1F
100
AcDbEntity
  8
图层 03
100
AcDbSpline
210
0.0
220
0.0
230
1.0
 70
     8
 71
     3
 72
     8
 73
     4
 74
     0
 42
0.0000000001
 43
0.0000000001
 40
12247.90292828542
 40
12247.90292828542
 40
12247.90292828542
 40
12247.90292828542
 40
12275.99135388492
 40
12275.99135388492
 40
12275.99135388492
 40
12275.99135388492
 10
4314.818569522196
 20
-41.1289659940719
 30
-0.0000000000004832
 10
4313.968032309714
 20
-43.05777830111992
 30
-0.0000000000004832
 10
4313.066978180805
 20
-45.00285648887052
 30
-0.0000000000004832
 10
4312.127515750468
 20
-46.88334954250809
 30
-0.0000000000004832
  0
SPLINE
  5
F3
330
1F
100
AcDbEntity
  8
图层 03
100
AcDbSpline
210
0.0
220
0.0
230
1.0
 70
     8
 71
     3
 72
     8
 73
     4
 74
     0
 42
0.0000000001
 43
0.0000000001
 40
12275.99135388492
 40
12275.99135388492
 40
12275.99135388492
 40
12275.99135388492
 40
12284.62701787824
 40
12284.62701787824
 40
12284.62701787824
 40
12284.62701787824
 10
4312.127515750468
 20
-46.88334954250809
 30
-0.0000000000004832
 10
4311.950067989974
 20
-47.51617170708641
 30
-0.0000000000004832
 10
4311.766058810555
 20
-48.14897385041218
 30
-0.0000000000004832
 10
4311.575477447631
 20
-48.77701572415526
 30
-0.0000000000004832
  0
SPLINE
  5
F4
330
1F
100
AcDbEntity
  8
图层 03
100
AcDbSpline
210
0.0
220
0.0
230
1.0
 70
     8
 71
     3
 72
     8
 73
     4
 74
     0
 42
0.0000000001
 43
0.0000000001
 40
12284.62701787824
 40
12284.62701787824
 40
12284.62701787824
 40
12284.62701787824
 40
12294.88081945404
 40
12294.88081945404
 40
12294.88081945404
 40
12294.88081945404
 10
4311.575477447631
 20
-48.77701572415526
 30
-0.0000000000004832
 10
4311.326707523851
 20
-49.51454898372413
 30
-0.0000000000004832
 10
4311.070985257318
 20
-50.25000315432385
 30
-0.0000000000004832
 10
4310.807745661063
 20
-50.98142767691843
 30
-0.0000000000004832
  0
SPLINE
  5
F5
330
1F
100
AcDbEntity
  8
图层 03
100
AcDbSpline
210
0.0
220
0.0
230
1.0
 70
     8
 71
     3
 72
     8
 73
     4
 74
     0
 42
0.0000000001
 43
0.0000000001
 40
12294.88081945404
 40
12294.88081945404
 40
12294.88081945404
 40
12294.88081945404
 40
12307.43288882909
 40
12307.43288882909
 40
12307.43288882909
 40
12307.43288882909
 10
4310.807745661063
 20
-50.98142767691843
 30
-0.0000000000004832
 10
4310.67805822227
 20
-51.93044050199023
 30
-0.0000000000004832
 10
4310.535084506467
 20
-52.89865576118405
 30
-0.0000000000004832
 10
4310.378932660633
 20
-53.84192401604332
 30
-0.0000000000004832
  0
SPLINE
  5
F6
330
1F
100
AcDbEntity
  8
图层 03
100
AcDbSpline
210
0.0
220
0.0
230
1.0
 70
     8
 71
     3
 72
     8
 73
     4
 74
     0
 42
0.0000000001
 43
0.0000000001
 40
12307.43288882909
 40
12307.43288882909
 40
12307.43288882909
 40
12307.43288882909
 40
12312.01997682178
 40
12312.01997682178
 40
12312.01997682178
 40
12312.01997682178
 10
4310.378932660633
 20
-53.84192401604332
 30
-0.0000000000004832
 10
4310.425256724865
 20
-54.19707713016874
 30
-0.0000000000004832
 10
4310.469581648178
 20
-54.55242023448545
 30
-0.0000000000004832
 10
4310.511196852424
 20
-54.90790885411047
 30
-0.0000000000004832
  0
SPLINE
  5
F7
330
1F
100
AcDbEntity
  8
图层 03
100
AcDbSpline
210
0.0
220
0.0
230
1.0
 70
     8
 71
     3
 72
     8
 73
     4
 74
     0
 42
0.0000000001
 43
0.0000000001
 40
12312.01997682178
 40
12312.01997682178
 40
12312.01997682178
 40
12312.01997682178
 40
12315.20340906886
 40
12315.20340906886
 40
12315.20340906886
 40
12315.20340906886
 10
4310.511196852424
 20
-54.90790885411047
 30
-0.0000000000004832
 10
4310.546579617883
 20
-55.15036521510888
 30
-0.0000000000004832
 10
4310.581410879107
 20
-55.40407562861242
 30
-0.0000000000004832
 10
4310.610697478761
 20
-55.64705360327775
 30
-0.0000000000004832
  0
SPLINE
  5
F8
330
1F
100
AcDbEntity
  8
图层 03
100
AcDbSpline
210
0.0
220
0.0
230
1.0
 70
     8
 71
     3
 72
     8
 73
     4
 74
     0
 42
0.0000000001
 43
0.0000000001
 40
12315.20340906886
 40
12315.20340906886
 40
12315.20340906886
 40
12315.20340906886
 40
12320.71913395892
 40
12320.71913395892
 40
12320.71913395892
 40
12320.71913395892
 10
4310.610697478761
 20
-55.64705360327775
 30
-0.0000000000004832
 10
4310.835286778278
 20
-56.01971028419143
 30
-0.0000000000004832
 10
4311.062686135891
 20
-56.39069035188322
 30
-0.0000000000004832
 10
4311.29129306
 20
-56.7608627626696
 30
-0.0000000000004832
  0
SPLINE
  5
F9
330
1F
100
AcDbEntity
  8
图层 03
100
AcDbSpline
210
0.0
220
0.0
230
1.0
 70
     8
 71
     3
 72
     8
 73
     4
 74
     0
 42
0.0000000001
 43
0.0000000001
 40
12320.71913395892
 40
12320.71913395892
 40
12320.71913395892
 40
12320.71913395892
 40
12326.84543637643
 40
12326.84543637643
 40
12326.84543637643
 40
12326.84543637643
 10
4311.29129306
 20
-56.7608627626696
 30
-0.0000000000004832
 10
4311.722255755229
 20
-56.95331114197847
 30
-0.0000000000004832
 10
4312.152963824306
 20
-57.14644804714931
 30
-0.0000000000004832
 10
4312.583467176149
 20
-57.34012323823981
 30
-0.0000000000004832
  0
SPLINE
  5
FA
330
1F
100
AcDbEntity
  8
图层 03
100
AcDbSpline
210
0.0
220
0.0
230
1.0
 70
     8
 71
     3
 72
     8
 73
     4
 74
     0
 42
0.0000000001
 43
0.0000000001
 40
12326.84543637643
 40
12326.84543637643
 40
12326.84543637643
 40
12326.84543637643
 40
12335.32093939949
 40
12335.32093939949
 40
12335.32093939949
 40
12335.32093939949
 10
4312.583467176149
 20
-57.34012323823981
 30
-0.0000000000004832
 10
4313.199509511627
 20
-57.20952806954824
 30
-0.0000000000004832
 10
4313.815481929576
 20
-57.07865296226828
 30
-0.0000000000004832
 10
4314.43136321595
 20
-56.94741712601603
 30
-0.0000000000004832
  0
SPLINE
  5
FB
330
1F
100
AcDbEntity
  8
图层 03
100
AcDbSpline
210
0.0
220
0.0
230
1.0
 70
     8
 71
     3
 72
     8
 73
     4
 74
     0
 42
0.0000000001
 43
0.0000000001
 40
12335.32093939949
 40
12335.32093939949
 40
12335.32093939949
 40
12335.32093939949
 40
12346.96421549382
 40
12346.96421549382
 40
12346.96421549382
 40
12346.96421549382
 10
4314.43136321595
 20
-56.94741712601603
 30
-0.0000000000004832
 10
4315.142570368785
 20
-56.46344602493491
 30
-0.0000000000004832
 10
4315.853077195041
 20
-55.97841190364693
 30
-0.0000000000004832
 10
4316.561954465394
 20
-55.49097035398358
 30
-0.0000000000004832
  0
SPLINE
  5
FC
330
1F
100
AcDbEntity
  8
图层 03
100
AcDbSpline
210
0.0
220
0.0
230
1.0
 70
     8
 71
     3
 72
     8
 73
     4
 74
     0
 42
0.0000000001
 43
0.0000000001
 40
12346.96421549382
 40
12346.96421549382
 40
12346.96421549382
 40
12346.96421549382
 40
12354.98197806068
 40
12354.98197806068
 40
12354.98197806068
 40
12354.98197806068
 10
4316.561954465394
 20
-55.49097035398358
 30
-0.0000000000004832
 10
4316.963420244883
 20
-55.05106063025301
 30
-0.0000000000004832
 10
4317.363219320592
 20
-54.60950606447864
 30
-0.0000000000004832
 10
4317.762197348806
 20
-54.16717418265102
 30
-0.0000000000004832
  0
SPLINE
  5
FD
330
1F
100
AcDbEntity
  8
图层 03
100
AcDbSpline
210
0.0
220
0.0
230
1.0
 70
     8
 71
     3
 72
     8
 73
     4
 74
     0
 42
0.0000000001
 43
0.0000000001
 40
12354.98197806068
 40
12354.98197806068
 40
12354.98197806068
 40
12354.98197806068
 40
12367.86959157939
 40
12367.86959157939
 40
12367.86959157939
 40
12367.86959157939
 10
4317.762197348806
 20
-54.16717418265102
 30
-0.0000000000004832
 10
4318.390301946954
 20
-53.44358908690083
 30
-0.0000000000004832
 10
4319.012946463657
 20
-52.714799131875
 30
-0.0000000000004832
 10
4319.631708911885
 20
-51.98259610120635
 30
-0.0000000000004832
  0
SPLINE
  5
FE
330
1F
100
AcDbEntity
  8
图层 03
100
AcDbSpline
210
0.0
220
0.0
230
1.0
 70
     8
 71
     3
 72
     8
 73
     4
 74
     0
 42
0.0000000001
 43
0.0000000001
 40
12367.86959157939
 40
12367.86959157939
 40
12367.86959157939
 40
12367.86959157939
 40
12400.53666746572
 40
12400.53666746572
 40
12400.53666746572
 40
12400.53666746572
 10
4319.631708911885
 20
-51.98259610120635
 30
-0.0000000000004832
 10
4321.001078606583
 20
-49.96113210435806
 30
-0.0000000000004832
 10
4322.353717782602
 20
-47.92689032742396
 30
-0.0000000000004832
 10
4323.697404416187
 20
-45.88644140655492
 30
-0.0000000000004832
  0
SPLINE
  5
FF
330
1F
100
AcDbEntity
  8
图层 03
100
AcDbSpline
210
0.0
220
0.0
230
1.0
 70
     8
 71
     3
 72
    11
 73
     7
 74
     0
 42
0.0000000001
 43
0.0000000001
 40
12400.53666746572
 40
12400.53666746572
 40
12400.53666746572
 40
12400.53666746572
 40
12419.75112291293
 40
12419.75112291293
 40
12419.75112291293
 40
12440.59345683092
 40
12440.59345683092
 40
12440.59345683092
 40
12440.59345683092
 10
4323.697404416187
 20
-45.88644140655492
 30
-0.0000000000004832
 10
4324.397986375003
 20
-44.62501100308873
 30
-0.0000000000004832
 10
4325.096705397082
 20
-43.36239944181466
 30
-0.0000000000004832
 10
4325.793901189312
 20
-42.09883955240798
 30
-0.0000000000004832
 10
4326.528529617182
 20
-40.71487294800841
 30
-0.0000000000004832
 10
4327.260601494077
 20
-39.32934730145257
 30
-0.0000000000004832
 10
4327.990756401858
 20
-37.94267936079154
 30
-0.0000000000004832
  0
SPLINE
  5
100
330
1F
100
AcDbEntity
  8
图层 03
100
AcDbSpline
210
0.0
220
0.0
230
1.0
 70
     8
 71
     3
 72
     8
 73
     4
 74
     0
 42
0.0000000001
 43
0.0000000001
 40
12440.59345683092
 40
12440.59345683092
 40
12440.59345683092
 40
12440.59345683092
 40
12480.43016821874
 40
12480.43016821874
 40
12480.43016821874
 40
12480.43016821874
 10
4327.990756401858
 20
-37.94267936079154
 30
-0.0000000000004832
 10
4329.090816779029
 20
-35.13483488825261
 30
-0.0000000000004832
 10
4330.202445692352
 20
-32.3323356952651
 30
-0.0000000000004832
 10
4331.319932919719
 20
-29.53271359426799
 30
-0.0000000000004832
  0
SPLINE
  5
101
330
1F
100
AcDbEntity
  8
图层 03
100
AcDbSpline
210
0.0
220
0.0
230
1.0
 70
     8
 71
     3
 72
    11
 73
     7
 74
     0
 42
0.0000000001
 43
0.0000000001
 40
12480.43016821874
 40
12480.43016821874
 40
12480.43016821874
 40
12480.43016821874
 40
12486.10336033107
 40
12486.10336033107
 40
12486.10336033107
 40
12510.07675217774
 40
12510.07675217774
 40
12510.07675217774
 40
12510.07675217774
 10
4331.319932919719
 20
-29.53271359426799
 30
-0.0000000000004832
 10
4331.316508869743
 20
-29.09266259536071
 30
-0.0000000000004832
 10
4331.315558421564
 20
-28.65271561690167
 30
-0.0000000000004832
 10
4331.31678193042
 20
-28.21293591165136
 30
-0.0000000000004832
 10
4331.316866602043
 20
-26.36393552558809
 30
-0.0000000000004832
 10
4331.459168346592
 20
-24.49820940683458
 30
-0.0000000000004832
 10
4331.659539756181
 20
-22.67414866425236
 30
-0.0000000000004832
  0
SPLINE
  5
102
330
1F
100
AcDbEntity
  8
图层 03
100
AcDbSpline
210
0.0
220
0.0
230
1.0
 70
     8
 71
     3
 72
     8
 73
     4
 74
     0
 42
0.0000000001
 43
0.0000000001
 40
12510.07675217774
 40
12510.07675217774
 40
12510.07675217774
 40
12510.07675217774
 40
12523.59815334764
 40
12523.59815334764
 40
12523.59815334764
 40
12523.59815334764
 10
4331.659539756181
 20
-22.67414866425236
 30
-0.0000000000004832
 10
4330.653856040661
 20
-22.7645998750537
 30
-0.0000000000004832
 10
4329.647220602539
 20
-22.8486345200015
 30
-0.0000000000004832
 10
4328.639864402264
 20
-22.92626671495464
 30
-0.0000000000004832
  0
SPLINE
  5
103
330
1F
100
AcDbEntity
  8
图层 03
100
AcDbSpline
210
0.0
220
0.0
230
1.0
 70
     8
 71
     3
 72
     8
 73
     4
 74
     0
 42
0.0000000001
 43
0.0000000001
 40
12523.59815334764
 40
12523.59815334764
 40
12523.59815334764
 40
12523.59815334764
 40
12551.02640989407
 40
12551.02640989407
 40
12551.02640989407
 40
12551.02640989407
 10
4328.639864402264
 20
-22.92626671495464
 30
-0.0000000000004832
 10
4328.775642963019
 20
-20.81223950757055
 30
-0.0000000000004832
 10
4328.90789713679
 20
-18.69775560488938
 30
-0.0000000000004832
 10
4329.03698963917
 20
-16.58289484593081
 30
-0.0000000000004832
  0
SPLINE
  5
104
330
1F
100
AcDbEntity
  8
图层 03
100
AcDbSpline
210
0.0
220
0.0
230
1.0
 70
     8
 71
     3
 72
     8
 73
     4
 74
     0
 42
0.0000000001
 43
0.0000000001
 40
12551.02640989407
 40
12551.02640989407
 40
12551.02640989407
 40
12551.02640989407
 40
12596.28565637229
 40
12596.28565637229
 40
12596.28565637229
 40
12596.28565637229
 10
4329.03698963917
 20
-16.58289484593081
 30
-0.0000000000004832
 10
4330.774180468407
 20
-13.67933292275995
 30
-0.0000000000004832
 10
4332.491438000098
 20
-10.72940842971968
 30
-0.0000000000004832
 10
4334.169111156511
 20
-7.78660400095896
 30
-0.0000000000004832
  0
SPLINE
  5
105
330
1F
100
AcDbEntity
  8
图层 03
100
AcDbSpline
210
0.0
220
0.0
230
1.0
 70
     8
 71
     3
 72
     8
 73
     4
 74
     0
 42
0.0000000001
 43
0.0000000001
 40
12596.28565637229
 40
12596.28565637229
 40
12596.28565637229
 40
12596.28565637229
 40
12608.06795431251
 40
12608.06795431251
 40
12608.06795431251
 40
12608.06795431251
 10
4334.169111156511
 20
-7.78660400095896
 30
-0.0000000000004832
 10
4334.363927153313
 20
-6.906924823933991
 30
-0.0000000000004832
 10
4334.559270593265
 20
-6.02739892131035
 30
-0.0000000000004832
 10
4334.755105463283
 20
-5.148017747105314
 30
-0.0000000000004832
  0
SPLINE
  5
106
330
1F
100
AcDbEntity
  8
图层 03
100
AcDbSpline
210
0.0
220
0.0
230
1.0
 70
     8
 71
     3
 72
     8
 73
     4
 74
     0
 42
0.0000000001
 43
0.0000000001
 40
12608.06795431251
 40
12608.06795431251
 40
12608.06795431251
 40
12608.06795431251
 40
12652.31421095136
 40
12652.31421095136
 40
12652.31421095136
 40
12652.31421095136
 10
4334.755105463283
 20
-5.148017747105314
 30
-0.0000000000004832
 10
4335.634007743329
 20
-1.891248337998263
 30
-0.0000000000004832
 10
4336.486126199531
 20
1.374927895267319
 30
-0.0000000000004832
 10
4337.321908882368
 20
4.645981266153399
 30
-0.0000000000004832
  0
SPLINE
  5
107
330
1F
100
AcDbEntity
  8
图层 03
100
AcDbSpline
210
0.0
220
0.0
230
1.0
 70
     8
 71
     3
 72
     8
 73
     4
 74
     0
 42
0.0000000001
 43
0.0000000001
 40
12652.31421095136
 40
12652.31421095136
 40
12652.31421095136
 40
12652.31421095136
 40
12682.31140340683
 40
12682.31140340683
 40
12682.31140340683
 40
12682.31140340683
 10
4337.321908882368
 20
4.645981266153399
 30
-0.0000000000004832
 10
4338.011017097855
 20
6.819887071983771
 30
-0.0000000000004832
 10
4338.694546039483
 20
8.995984995096478
 30
-0.0000000000004832
 10
4339.375105348513
 20
11.17319887270537
 30
-0.0000000000004832
  0
SPLINE
  5
108
330
1F
100
AcDbEntity
  8
图层 03
100
AcDbSpline
210
0.0
220
0.0
230
1.0
 70
     8
 71
     3
 72
     8
 73
     4
 74
     0
 42
0.0000000001
 43
0.0000000001
 40
12682.31140340683
 40
12682.31140340683
 40
12682.31140340683
 40
12682.31140340683
 40
12702.46897710083
 40
12702.46897710083
 40
12702.46897710083
 40
12702.46897710083
 10
4339.375105348513
 20
11.17319887270537
 30
-0.0000000000004832
 10
4339.565961420712
 20
12.71089429166102
 30
-0.0000000000004832
 10
4339.735088258011
 20
14.25714194824604
 30
-0.0000000000004832
 10
4339.885889220557
 20
15.80187091919697
 30
-0.0000000000004832
  0
SPLINE
  5
109
330
1F
100
AcDbEntity
  8
图层 03
100
AcDbSpline
210
0.0
220
0.0
230
1.0
 70
     8
 71
     3
 72
     8
 73
     4
 74
     0
 42
0.0000000001
 43
0.0000000001
 40
12702.46897710083
 40
12702.46897710083
 40
12702.46897710083
 40
12702.46897710083
 40
12725.11404120837
 40
12725.11404120837
 40
12725.11404120837
 40
12725.11404120837
 10
4339.885889220557
 20
15.80187091919697
 30
-0.0000000000004832
 10
4340.270447488884
 20
17.49033797363313
 30
-0.0000000000004832
 10
4340.6885791439
 20
19.16615377221819
 30
-0.0000000000004832
 10
4341.142709674518
 20
20.83228869184416
 30
-0.0000000000004832
  0
SPLINE
  5
10A
330
1F
100
AcDbEntity
  8
图层 03
100
AcDbSpline
210
0.0
220
0.0
230
1.0
 70
     8
 71
     3
 72
     8
 73
     4
 74
     0
 42
0.0000000001
 43
0.0000000001
 40
12725.11404120837
 40
12725.11404120837
 40
12725.11404120837
 40
12725.11404120837
 40
12752.04473811393
 40
12752.04473811393
 40
12752.04473811393
 40
12752.04473811393
 10
4341.142709674518
 20
20.83228869184416
 30
-0.0000000000004832
 10
4341.627918169732
 20
22.83068619574919
 30
-0.0000000000004832
 10
4342.17640840555
 20
24.80862532097399
 30
-0.0000000000004832
 10
4342.793679175157
 20
26.76072813675637
 30
-0.0000000000004832
  0
SPLINE
  5
10B
330
1F
100
AcDbEntity
  8
图层 03
100
AcDbSpline
210
0.0
220
0.0
230
1.0
 70
     8
 71
     3
 72
     8
 73
     4
 74
     0
 42
0.0000000001
 43
0.0000000001
 40
12752.04473811393
 40
12752.04473811393
 40
12752.04473811393
 40
12752.04473811393
 40
12792.96393087387
 40
12792.96393087387
 40
12792.96393087387
 40
12792.96393087387
 10
4342.793679175157
 20
26.76072813675637
 30
-0.0000000000004832
 10
4343.557836878112
 20
29.78856968192815
 30
-0.0000000000004832
 10
4344.424724280203
 20
32.78223134455857
 30
-0.0000000000004832
 10
4345.382444998823
 20
35.74026278535666
 30
-0.0000000000004832
  0
SPLINE
  5
10C
330
1F
100
AcDbEntity
  8
图层 03
100
AcDbSpline
210
0.0
220
0.0
230
1.0
 70
     8
 71
     3
 72
     8
 73
     4
 74
     0
 42
0.0000000001
 43
0.0000000001
 40
12792.96393087387
 40
12792.96393087387
 40
12792.96393087387
 40
12792.96393087387
 40
12816.16176866961
 40
12816.16176866961
 40
12816.16176866961
 40
12816.16176866961
 10
4345.382444998823
 20
35.74026278535666
 30
-0.0000000000004832
 10
4345.873864044732
 20
37.43697937544277
 30
-0.0000000000004832
 10
4346.377609420044
 20
39.12938639589424
 30
-0.0000000000004832
 10
4346.892692716207
 20
40.81727546761431
 30
-0.0000000000004832
  0
SPLINE
  5
10D
330
1F
100
AcDbEntity
  8
图层 03
100
AcDbSpline
210
0.0
220
0.0
230
1.0
 70
     8
 71
     3
 72
    11
 73
     7
 74
     0
 42
0.0000000001
 43
0.0000000001
 40
12816.16176866961
 40
12816.16176866961
 40
12816.16176866961
 40
12816.16176866961
 40
12828.19384583296
 40
12828.19384583296
 40
12828.19384583296
 40
12857.47781345093
 40
12857.47781345093
 40
12857.47781345093
 40
12857.47781345093
 10
4346.892692716207
 20
40.81727546761431
 30
-0.0000000000004832
 10
4347.120417405681
 20
41.7066972687013
 30
-0.0000000000004832
 10
4347.346483662279
 20
42.59666714483842
 30
-0.0000000000004832
 10
4347.571037451714
 20
43.48711834515541
 30
-0.0000000000004832
 10
4348.129044206769
 20
45.6486021066421
 30
-0.0000000000004832
 10
4348.655388331371
 20
47.82620997786569
 30
-0.0000000000004832
 10
4349.152857121341
 20
50.00667402832619
 30
-0.0000000000004832
  0
SPLINE
  5
10E
330
1F
100
AcDbEntity
  8
图层 03
100
AcDbSpline
210
0.0
220
0.0
230
1.0
 70
     8
 71
     3
 72
     8
 73
     4
 74
     0
 42
0.0000000001
 43
0.0000000001
 40
12857.47781345093
 40
12857.47781345093
 40
12857.47781345093
 40
12857.47781345093
 40
12883.22170019577
 40
12883.22170019577
 40
12883.22170019577
 40
12883.22170019577
 10
4349.152857121341
 20
50.00667402832619
 30
-0.0000000000004832
 10
4349.732445731595
 20
51.87656227908917
 30
-0.0000000000004832
 10
4350.294350938058
 20
53.75417376777011
 30
-0.0000000000004832
 10
4350.839323956166
 20
55.63694660716874
 30
-0.0000000000004832
  0
SPLINE
  5
10F
330
1F
100
AcDbEntity
  8
图层 03
100
AcDbSpline
210
0.0
220
0.0
230
1.0
 70
     8
 71
     3
 72
     8
 73
     4
 74
     0
 42
0.0000000001
 43
0.0000000001
 40
12883.22170019577
 40
12883.22170019577
 40
12883.22170019577
 40
12883.22170019577
 40
12906.99714699111
 40
12906.99714699111
 40
12906.99714699111
 40
12906.99714699111
 10
4350.839323956166
 20
55.63694660716874
 30
-0.0000000000004832
 10
4351.53741117241
 20
57.29271413656033
 30
-0.0000000000004832
 10
4352.227910201967
 20
58.95231938497341
 30
-0.0000000000004832
 10
4352.910944123876
 20
60.61545087740819
 30
-0.0000000000004832
  0
SPLINE
  5
110
330
1F
100
AcDbEntity
  8
图层 03
100
AcDbSpline
210
0.0
220
0.0
230
1.0
 70
     8
 71
     3
 72
     8
 73
     4
 74
     0
 42
0.0000000001
 43
0.0000000001
 40
12906.99714699111
 40
12906.99714699111
 40
12906.99714699111
 40
12906.99714699111
 40
12921.17641228707
 40
12921.17641228707
 40
12921.17641228707
 40
12921.17641228707
 10
4352.910944123876
 20
60.61545087740819
 30
-0.0000000000004832
 10
4353.441358610809
 20
61.53771549465432
 30
-0.0000000000004832
 10
4353.970818108583
 20
62.46060405302842
 30
-0.0000000000004832
 10
4354.499326804535
 20
63.38410575332523
 30
-0.0000000000004832
  0
SPLINE
  5
111
330
1F
100
AcDbEntity
  8
图层 03
100
AcDbSpline
210
0.0
220
0.0
230
1.0
 70
     8
 71
     3
 72
     8
 73
     4
 74
     0
 42
0.0000000001
 43
0.0000000001
 40
12921.17641228707
 40
12921.17641228707
 40
12921.17641228707
 40
12921.17641228707
 40
12930.08058902016
 40
12930.08058902016
 40
12930.08058902016
 40
12930.08058902016
 10
4354.499326804535
 20
63.38410575332523
 30
-0.0000000000004832
 10
4354.797668711797
 20
63.98450112453133
 30
-0.0000000000004832
 10
4355.095352986976
 20
64.5852746243221
 30
-0.0000000000004832
 10
4355.392415001481
 20
65.18640071597986
 30
-0.0000000000004832
  0
SPLINE
  5
112
330
1F
100
AcDbEntity
  8
图层 03
100
AcDbSpline
210
0.0
220
0.0
230
1.0
 70
     8
 71
     3
 72
     8
 73
     4
 74
     0
 42
0.0000000001
 43
0.0000000001
 40
12930.08058902016
 40
12930.08058902016
 40
12930.08058902016
 40
12930.08058902016
 40
12954.01026090871
 40
12954.01026090871
 40
12954.01026090871
 40
12954.01026090871
 10
4355.392415001481
 20
65.18640071597986
 30
-0.0000000000004832
 10
4356.407940397108
 20
66.65781411944329
 30
-0.0000000000004832
 10
4357.424702635626
 20
68.12828367102611
 30
-0.0000000000004832
 10
4358.442536681408
 20
69.59792743279138
 30
-0.0000000000004832
  0
SPLINE
  5
113
330
1F
100
AcDbEntity
  8
图层 03
100
AcDbSpline
210
0.0
220
0.0
230
1.0
 70
     8
 71
     3
 72
    11
 73
     7
 74
     0
 42
0.0000000001
 43
0.0000000001
 40
12954.01026090871
 40
12954.01026090871
 40
12954.01026090871
 40
12954.01026090871
 40
12980.5602509706
 40
12980.5602509706
 40
12980.5602509706
 40
13010.60012146474
 40
13010.60012146474
 40
13010.60012146474
 40
13010.60012146474
 10
4358.442536681408
 20
69.59792743279138
 30
-0.0000000000004832
 10
4359.71165862206
 20
71.1115719522096
 30
-0.0000000000004832
 10
4360.987483489113
 20
72.619226294295
 30
-0.0000000000004832
 10
4362.271658018484
 20
74.11900599391333
 30
-0.0000000000004832
 10
4363.747446207644
 20
75.79459224144853
 30
-0.0000000000004832
 10
4365.227112298211
 20
77.46653225314446
 30
-0.0000000000004832
 10
4366.712307386541
 20
79.13311616595809
 30
-0.0000000000004832
  0
SPLINE
  5
114
330
1F
100
AcDbEntity
  8
图层 03
100
AcDbSpline
210
0.0
220
0.0
230
1.0
 70
     8
 71
     3
 72
     8
 73
     4
 74
     0
 42
0.0000000001
 43
0.0000000001
 40
13010.60012146474
 40
13010.60012146474
 40
13010.60012146474
 40
13010.60012146474
 40
13044.61284986751
 40
13044.61284986751
 40
13044.61284986751
 40
13044.61284986751
 10
4366.712307386541
 20
79.13311616595809
 30
-0.0000000000004832
 10
4368.315965083933
 20
81.09221607228483
 30
-0.0000000000004832
 10
4369.915938046774
 20
83.05462539707344
 30
-0.0000000000004832
 10
4371.510462221366
 20
85.02180805251612
 30
-0.0000000000004832
  0
SPLINE
  5
115
330
1F
100
AcDbEntity
  8
图层 03
100
AcDbSpline
210
0.0
220
0.0
230
1.0
 70
     8
 71
     3
 72
     8
 73
     4
 74
     0
 42
0.0000000001
 43
0.0000000001
 40
13044.61284986751
 40
13044.61284986751
 40
13044.61284986751
 40
13044.61284986751
 40
13049.66666056922
 40
13049.66666056922
 40
13049.66666056922
 40
13049.66666056922
 10
4371.510462221366
 20
85.02180805251612
 30
-0.0000000000004832
 10
4371.730212010731
 20
85.32845806152193
 30
-0.0000000000004832
 10
4371.949700454557
 20
85.63531534332083
 30
-0.0000000000004832
 10
4372.168912849989
 20
85.9423893601845
 30
-0.0000000000004832
  0
SPLINE
  5
116
330
1F
100
AcDbEntity
  8
图层 03
100
AcDbSpline
210
0.0
220
0.0
230
1.0
 70
     8
 71
     3
 72
     8
 73
     4
 74
     0
 42
0.0000000001
 43
0.0000000001
 40
13049.66666056922
 40
13049.66666056922
 40
13049.66666056922
 40
13049.66666056922
 40
13088.68728099201
 40
13088.68728099201
 40
13088.68728099201
 40
13088.68728099201
 10
4372.168912849989
 20
85.9423893601845
 30
-0.0000000000004832
 10
4373.517664141821
 20
88.5493900669635
 30
-0.0000000000004832
 10
4374.862306382336
 20
91.15884729699917
 30
-0.0000000000004832
 10
4376.201586833531
 20
93.77143690207947
 30
-0.0000000000004832
  0
SPLINE
  5
117
330
1F
100
AcDbEntity
  8
图层 03
100
AcDbSpline
210
0.0
220
0.0
230
1.0
 70
     8
 71
     3
 72
     8
 73
     4
 74
     0
 42
0.0000000001
 43
0.0000000001
 40
13088.68728099201
 40
13088.68728099201
 40
13088.68728099201
 40
13088.68728099201
 40
13100.66666573227
 40
13100.66666573227
 40
13100.66666573227
 40
13100.66666573227
 10
4376.201586833531
 20
93.77143690207947
 30
-0.0000000000004832
 10
4376.575085227945
 20
94.59454896846944
 30
-0.0000000000004832
 10
4376.947872557546
 20
95.41803881546605
 30
-0.0000000000004832
 10
4377.319881226877
 20
96.24193716567106
 30
-0.0000000000004832
  0
SPLINE
  5
118
330
1F
100
AcDbEntity
  8
图层 03
100
AcDbSpline
210
0.0
220
0.0
230
1.0
 70
     8
 71
     3
 72
     8
 73
     4
 74
     0
 42
0.0000000001
 43
0.0000000001
 40
13100.66666573227
 40
13100.66666573227
 40
13100.66666573227
 40
13100.66666573227
 40
13135.91180750834
 40
13135.91180750834
 40
13135.91180750834
 40
13135.91180750834
 10
4377.319881226877
 20
96.24193716567106
 30
-0.0000000000004832
 10
4377.831248084445
 20
98.89309517878701
 30
-0.0000000000004832
 10
4378.356338183444
 20
101.5408048402638
 30
-0.0000000000004832
 10
4378.897086922529
 20
104.1840235678721
 30
-0.0000000000004832
  0
SPLINE
  5
119
330
1F
100
AcDbEntity
  8
图层 03
100
AcDbSpline
210
0.0
220
0.0
230
1.0
 70
     8
 71
     3
 72
     8
 73
     4
 74
     0
 42
0.0000000001
 43
0.0000000001
 40
13135.91180750834
 40
13135.91180750834
 40
13135.91180750834
 40
13135.91180750834
 40
13164.10226536211
 40
13164.10226536211
 40
13164.10226536211
 40
13164.10226536211
 10
4378.897086922529
 20
104.1840235678721
 30
-0.0000000000004832
 10
4378.746637629129
 20
106.3730750819291
 30
-0.0000000000004832
 10
4378.607483288912
 20
108.5623970628103
 30
-0.0000000000004832
 10
4378.48006797921
 20
110.7516058207527
 30
-0.0000000000004832
  0
SPLINE
  5
11A
330
1F
100
AcDbEntity
  8
图层 03
100
AcDbSpline
210
0.0
220
0.0
230
1.0
 70
     8
 71
     3
 72
     8
 73
     4
 74
     0
 42
0.0000000001
 43
0.0000000001
 40
13164.10226536211
 40
13164.10226536211
 40
13164.10226536211
 40
13164.10226536211
 40
13187.81945041334
 40
13187.81945041334
 40
13187.81945041334
 40
13187.81945041334
 10
4378.48006797921
 20
110.7516058207527
 30
-0.0000000000004832
 10
4377.735583852411
 20
112.4661339070603
 30
-0.0000000000004832
 10
4376.976164563111
 20
114.174689569569
 30
-0.0000000000004832
 10
4376.20293153951
 20
115.8769482017383
 30
-0.0000000000004832
  0
SPLINE
  5
11B
330
1F
100
AcDbEntity
  8
图层 03
100
AcDbSpline
210
0.0
220
0.0
230
1.0
 70
     8
 71
     3
 72
     8
 73
     4
 74
     0
 42
0.0000000001
 43
0.0000000001
 40
13187.81945041334
 40
13187.81945041334
 40
13187.81945041334
 40
13187.81945041334
 40
13212.2618745834
 40
13212.2618745834
 40
13212.2618745834
 40
13212.2618745834
 10
4376.20293153951
 20
115.8769482017383
 30
-0.0000000000004832
 10
4374.658005137813
 20
116.9821260719616
 30
-0.0000000000004832
 10
4373.076562171113
 20
118.0621418434313
 30
-0.0000000000004832
 10
4371.494438998443
 20
119.1063556253147
 30
-0.0000000000004832
  0
SPLINE
  5
11C
330
1F
100
AcDbEntity
  8
图层 03
100
AcDbSpline
210
0.0
220
0.0
230
1.0
 70
     8
 71
     3
 72
     8
 73
     4
 74
     0
 42
0.0000000001
 43
0.0000000001
 40
13212.2618745834
 40
13212.2618745834
 40
13212.2618745834
 40
13212.2618745834
 40
13221.49170037193
 40
13221.49170037193
 40
13221.49170037193
 40
13221.49170037193
 10
4371.494438998443
 20
119.1063556253147
 30
-0.0000000000004832
 10
4370.800870838649
 20
119.1545714369144
 30
-0.0000000000004832
 10
4370.107304601385
 20
119.2029870852876
 30
-0.0000000000004832
 10
4369.413740274669
 20
119.2515734181192
 30
-0.0000000000004832
  0
SPLINE
  5
11D
330
1F
100
AcDbEntity
  8
图层 03
100
AcDbSpline
210
0.0
220
0.0
230
1.0
 70
     8
 71
     3
 72
     8
 73
     4
 74
     0
 42
0.0000000001
 43
0.0000000001
 40
13221.49170037193
 40
13221.49170037193
 40
13221.49170037193
 40
13221.49170037193
 40
13257.93584240528
 40
13257.93584240528
 40
13257.93584240528
 40
13257.93584240528
 10
4369.413740274669
 20
119.2515734181192
 30
-0.0000000000004832
 10
4366.676970803904
 20
119.3070795329982
 30
-0.0000000000004832
 10
4363.940691669794
 20
119.3466754409617
 30
-0.0000000000004832
 10
4361.204978654859
 20
119.3771419070819
 30
-0.0000000000004832
  0
SPLINE
  5
11E
330
1F
100
AcDbEntity
  8
图层 03
100
AcDbSpline
210
0.0
220
0.0
230
1.0
 70
     8
 71
     3
 72
     8
 73
     4
 74
     0
 42
0.0000000001
 43
0.0000000001
 40
13257.93584240528
 40
13257.93584240528
 40
13257.93584240528
 40
13257.93584240528
 40
13263.48526789093
 40
13263.48526789093
 40
13263.48526789093
 40
13263.48526789093
 10
4361.204978654859
 20
119.3771419070819
 30
-0.0000000000004832
 10
4360.798572737691
 20
119.3045723405012
 30
-0.0000000000004832
 10
4360.392115313878
 20
119.2322358485188
 30
-0.0000000000004832
 10
4359.985610568981
 20
119.1601166534803
 30
-0.0000000000004832
  0
SPLINE
  5
11F
330
1F
100
AcDbEntity
  8
图层 03
100
AcDbSpline
210
0.0
220
0.0
230
1.0
 70
     8
 71
     3
 72
     8
 73
     4
 74
     0
 42
0.0000000001
 43
0.0000000001
 40
13263.48526789093
 40
13263.48526789093
 40
13263.48526789093
 40
13263.48526789093
 40
13304.6941243469
 40
13304.6941243469
 40
13304.6941243469
 40
13304.6941243469
 10
4359.985610568981
 20
119.1601166534803
 30
-0.0000000000004832
 10
4356.939518998522
 20
118.7639174639016
 30
-0.0000000000004832
 10
4353.895933581767
 20
118.3530759037159
 30
-0.0000000000004832
 10
4350.854019770588
 20
117.9337550596262
 30
-0.0000000000004832
  0
SPLINE
  5
120
330
1F
100
AcDbEntity
  8
图层 03
100
AcDbSpline
210
0.0
220
0.0
230
1.0
 70
     8
 71
     3
 72
     8
 73
     4
 74
     0
 42
0.0000000001
 43
0.0000000001
 40
13304.6941243469
 40
13304.6941243469
 40
13304.6941243469
 40
13304.6941243469
 40
13343.94853160436
 40
13343.94853160436
 40
13343.94853160436
 40
13343.94853160436
 10
4350.854019770588
 20
117.9337550596262
 30
-0.0000000000004832
 10
4347.938561850183
 20
117.8308257483941
 30
-0.0000000000004832
 10
4344.960061735253
 20
117.686373369001
 30
-0.0000000000004832
 10
4342.050587954734
 20
117.5227498549971
 30
-0.0000000000004832
  0
SPLINE
  5
121
330
1F
100
AcDbEntity
  8
图层 03
100
AcDbSpline
210
0.0
220
0.0
230
1.0
 70
     8
 71
     3
 72
     8
 73
     4
 74
     0
 42
0.0000000001
 43
0.0000000001
 40
13343.94853160436
 40
13343.94853160436
 40
13343.94853160436
 40
13343.94853160436
 40
13378.78351068071
 40
13378.78351068071
 40
13378.78351068071
 40
13378.78351068071
 10
4342.050587954734
 20
117.5227498549971
 30
-0.0000000000004832
 10
4339.450612378925
 20
117.8150128080176
 30
-0.0000000000004832
 10
4336.805731367805
 20
118.066031833241
 30
-0.0000000000004832
 10
4334.203103874399
 20
118.2845315587115
 30
-0.0000000000004832
  0
SPLINE
  5
122
330
1F
100
AcDbEntity
  8
图层 03
100
AcDbSpline
210
0.0
220
0.0
230
1.0
 70
     8
 71
     3
 72
     8
 73
     4
 74
     0
 42
0.0000000001
 43
0.0000000001
 40
13378.78351068071
 40
13378.78351068071
 40
13378.78351068071
 40
13378.78351068071
 40
13386.8482201547
 40
13386.8482201547
 40
13386.8482201547
 40
13386.8482201547
 10
4334.203103874399
 20
118.2845315587115
 30
-0.0000000000004832
 10
4333.619718001608
 20
118.4882560961189
 30
-0.0000000000004832
 10
4333.035523940431
 20
118.6891458790407
 30
-0.0000000000004832
 10
4332.450645582107
 20
118.8873481378498
 30
-0.0000000000004832
  0
SPLINE
  5
123
330
1F
100
AcDbEntity
  8
图层 03
100
AcDbSpline
210
0.0
220
0.0
230
1.0
 70
     8
 71
     3
 72
     8
 73
     4
 74
     0
 42
0.0000000001
 43
0.0000000001
 40
13386.8482201547
 40
13386.8482201547
 40
13386.8482201547
 40
13386.8482201547
 40
13408.87056084259
 40
13408.87056084259
 40
13408.87056084259
 40
13408.87056084259
 10
4332.450645582107
 20
118.8873481378498
 30
-0.0000000000004832
 10
4330.838642773306
 20
119.3686488394939
 30
-0.0000000000004832
 10
4329.225204572711
 20
119.843803349883
 30
-0.0000000000004832
 10
4327.610677383576
 20
120.3137936318319
 30
-0.0000000000004832
  0
SPLINE
  5
124
330
1F
100
AcDbEntity
  8
图层 03
100
AcDbSpline
210
0.0
220
0.0
230
1.0
 70
     8
 71
     3
 72
     8
 73
     4
 74
     0
 42
0.0000000001
 43
0.0000000001
 40
13408.87056084259
 40
13408.87056084259
 40
13408.87056084259
 40
13408.87056084259
 40
13437.25380798132
 40
13437.25380798132
 40
13437.25380798132
 40
13437.25380798132
 10
4327.610677383576
 20
120.3137936318319
 30
-0.0000000000004832
 10
4325.72402591645
 20
121.4514686870406
 30
-0.0000000000004832
 10
4323.834568846925
 20
122.5838717868498
 30
-0.0000000000004832
 10
4321.942772189177
 20
123.7116953503057
 30
-0.0000000000004832
  0
SPLINE
  5
125
330
1F
100
AcDbEntity
  8
图层 03
100
AcDbSpline
210
0.0
220
0.0
230
1.0
 70
     8
 71
     3
 72
     8
 73
     4
 74
     0
 42
0.0000000001
 43
0.0000000001
 40
13437.25380798132
 40
13437.25380798132
 40
13437.25380798132
 40
13437.25380798132
 40
13466.62711283075
 40
13466.62711283075
 40
13466.62711283075
 40
13466.62711283075
 10
4321.942772189177
 20
123.7116953503057
 30
-0.0000000000004832
 10
4320.256277515389
 20
125.2803525475614
 30
-0.0000000000004832
 10
4318.571585751453
 20
126.851115382171
 30
-0.0000000000004832
 10
4316.888653803072
 20
128.4239007331796
 30
-0.0000000000004832
  0
SPLINE
  5
126
330
1F
100
AcDbEntity
  8
图层 03
100
AcDbSpline
210
0.0
220
0.0
230
1.0
 70
     8
 71
     3
 72
     8
 73
     4
 74
     0
 42
0.0000000001
 43
0.0000000001
 40
13466.62711283075
 40
13466.62711283075
 40
13466.62711283075
 40
13466.62711283075
 40
13484.80045545267
 40
13484.80045545267
 40
13484.80045545267
 40
13484.80045545267
 10
4316.888653803072
 20
128.4239007331796
 30
-0.0000000000004832
 10
4316.042846846867
 20
129.579984458927
 30
-0.0000000000004832
 10
4315.202916460929
 20
130.740607426574
 30
-0.0000000000004832
 10
4314.369866533007
 20
131.9061512939771
 30
-0.0000000000004832
  0
SPLINE
  5
127
330
1F
100
AcDbEntity
  8
图层 03
100
AcDbSpline
210
0.0
220
0.0
230
1.0
 70
     8
 71
     3
 72
     8
 73
     4
 74
     0
 42
0.0000000001
 43
0.0000000001
 40
13484.80045545267
 40
13484.80045545267
 40
13484.80045545267
 40
13484.80045545267
 40
13498.56523586292
 40
13498.56523586292
 40
13498.56523586292
 40
13498.56523586292
 10
4314.369866533007
 20
131.9061512939771
 30
-0.0000000000004832
 10
4313.693366112813
 20
132.7533480610218
 30
-0.0000000000004832
 10
4313.015328531927
 20
133.5992730419147
 30
-0.0000000000004832
 10
4312.335765956818
 20
134.4439038146775
 30
-0.0000000000004832
  0
SPLINE
  5
128
330
1F
100
AcDbEntity
  8
图层 03
100
AcDbSpline
210
0.0
220
0.0
230
1.0
 70
     8
 71
     3
 72
     8
 73
     4
 74
     0
 42
0.0000000001
 43
0.0000000001
 40
13498.56523586292
 40
13498.56523586292
 40
13498.56523586292
 40
13498.56523586292
 40
13535.08736407704
 40
13535.08736407704
 40
13535.08736407704
 40
13535.08736407704
 10
4312.335765956818
 20
134.4439038146775
 30
-0.0000000000004832
 10
4310.763127030031
 20
136.8572623883712
 30
-0.0000000000004832
 10
4309.186176100686
 20
139.2677937268143
 30
-0.0000000000004832
 10
4307.603331257274
 20
141.6743426796176
 30
-0.0000000000004832
  0
SPLINE
  5
129
330
1F
100
AcDbEntity
  8
图层 03
100
AcDbSpline
210
0.0
220
0.0
230
1.0
 70
     8
 71
     3
 72
     8
 73
     4
 74
     0
 42
0.0000000001
 43
0.0000000001
 40
13535.08736407704
 40
13535.08736407704
 40
13535.08736407704
 40
13535.08736407704
 40
13544.32047390671
 40
13544.32047390671
 40
13544.32047390671
 40
13544.32047390671
 10
4307.603331257274
 20
141.6743426796176
 30
-0.0000000000004832
 10
4307.208035186538
 20
142.2859617364959
 30
-0.0000000000004832
 10
4306.814648868028
 20
142.8988510518668
 30
-0.0000000000004832
 10
4306.423290203158
 20
143.5130261189415
 30
-0.0000000000004832
  0
SPLINE
  5
12A
330
1F
100
AcDbEntity
  8
图层 03
100
AcDbSpline
210
0.0
220
0.0
230
1.0
 70
     8
 71
     3
 72
     8
 73
     4
 74
     0
 42
0.0000000001
 43
0.0000000001
 40
13544.32047390671
 40
13544.32047390671
 40
13544.32047390671
 40
13544.32047390671
 40
13578.96774838147
 40
13578.96774838147
 40
13578.96774838147
 40
13578.96774838147
 10
4306.423290203158
 20
143.5130261189415
 30
-0.0000000000004832
 10
4304.510440255692
 20
145.4481380474444
 30
-0.0000000000004832
 10
4302.602628367784
 20
147.3886445987348
 30
-0.0000000000004832
 10
4300.700780821659
 20
149.3352978292568
 30
-0.0000000000004832
  0
SPLINE
  5
12B
330
1F
100
AcDbEntity
  8
图层 03
100
AcDbSpline
210
0.0
220
0.0
230
1.0
 70
     8
 71
     3
 72
     8
 73
     4
 74
     0
 42
0.0000000001
 43
0.0000000001
 40
13578.96774838147
 40
13578.96774838147
 40
13578.96774838147
 40
13578.96774838147
 40
13586.49371102253
 40
13586.49371102253
 40
13586.49371102253
 40
13586.49371102253
 10
4300.700780821659
 20
149.3352978292568
 30
-0.0000000000004832
 10
4300.198063778153
 20
149.6322353953628
 30
-0.0000000000004832
 10
4299.695490593511
 20
149.9294531595125
 30
-0.0000000000004832
 10
4299.193073146071
 20
150.226971653952
 30
-0.0000000000004832
  0
SPLINE
  5
12C
330
1F
100
AcDbEntity
  8
图层 03
100
AcDbSpline
210
0.0
220
0.0
230
1.0
 70
     8
 71
     3
 72
     8
 73
     4
 74
     0
 42
0.0000000001
 43
0.0000000001
 40
13586.49371102253
 40
13586.49371102253
 40
13586.49371102253
 40
13586.49371102253
 40
13611.62375646113
 40
13611.62375646113
 40
13611.62375646113
 40
13611.62375646113
 10
4299.193073146071
 20
150.226971653952
 30
-0.0000000000004832
 10
4297.485503475313
 20
151.1596486279842
 30
-0.0000000000004832
 10
4295.781859555997
 20
152.1008696661463
 30
-0.0000000000004832
 10
4294.082771114288
 20
153.0512387328782
 30
-0.0000000000004832
  0
SPLINE
  5
12D
330
1F
100
AcDbEntity
  8
图层 03
100
AcDbSpline
210
0.0
220
0.0
230
1.0
 70
     8
 71
     3
 72
     8
 73
     4
 74
     0
 42
0.0000000001
 43
0.0000000001
 40
13611.62375646113
 40
13611.62375646113
 40
13611.62375646113
 40
13611.62375646113
 40
13641.9479004895
 40
13641.9479004895
 40
13641.9479004895
 40
13641.9479004895
 10
4294.082771114288
 20
153.0512387328782
 30
-0.0000000000004832
 10
4291.848475136585
 20
153.6452189127618
 30
-0.0000000000004832
 10
4289.613695036235
 20
154.236765090807
 30
-0.0000000000004832
 10
4287.378343630633
 20
154.8253329103222
 30
-0.0000000000004832
  0
SPLINE
  5
12E
330
1F
100
AcDbEntity
  8
图层 03
100
AcDbSpline
210
0.0
220
0.0
230
1.0
 70
     8
 71
     3
 72
     8
 73
     4
 74
     0
 42
0.0000000001
 43
0.0000000001
 40
13641.9479004895
 40
13641.9479004895
 40
13641.9479004895
 40
13641.9479004895
 40
13667.06994310875
 40
13667.06994310875
 40
13667.06994310875
 40
13667.06994310875
 10
4287.378343630633
 20
154.8253329103222
 30
-0.0000000000004832
 10
4285.510353733957
 20
154.6533459818943
 30
-0.0000000000004832
 10
4283.642442601636
 20
154.4807968064548
 30
-0.0000000000004832
 10
4281.774624556414
 20
154.3075914700191
 30
-0.0000000000004832
  0
SPLINE
  5
12F
330
1F
100
AcDbEntity
  8
图层 03
100
AcDbSpline
210
0.0
220
0.0
230
1.0
 70
     8
 71
     3
 72
     8
 73
     4
 74
     0
 42
0.0000000001
 43
0.0000000001
 40
13667.06994310875
 40
13667.06994310875
 40
13667.06994310875
 40
13667.06994310875
 40
13687.76616156856
 40
13687.76616156856
 40
13687.76616156856
 40
13687.76616156856
 10
4281.774624556414
 20
154.3075914700191
 30
-0.0000000000004832
 10
4280.638852935224
 20
153.2776841365718
 30
-0.0000000000004832
 10
4279.456624328249
 20
152.3059333111089
 30
-0.0000000000004832
 10
4278.224143151294
 20
151.3989614032847
 30
-0.0000000000004832
  0
SPLINE
  5
130
330
1F
100
AcDbEntity
  8
图层 03
100
AcDbSpline
210
0.0
220
0.0
230
1.0
 70
     8
 71
     3
 72
     8
 73
     4
 74
     0
 42
0.0000000001
 43
0.0000000001
 40
13687.76616156856
 40
13687.76616156856
 40
13687.76616156856
 40
13687.76616156856
 40
13696.0108006018
 40
13696.0108006018
 40
13696.0108006018
 40
13696.0108006018
 10
4278.224143151294
 20
151.3989614032847
 30
-0.0000000000004832
 10
4278.131808422323
 20
150.7731092023449
 30
-0.0000000000004832
 10
4278.017271973704
 20
150.1500499453992
 30
-0.0000000000004832
 10
4277.876495255786
 20
149.5365715034497
 30
-0.0000000000004832
  0
SPLINE
  5
131
330
1F
100
AcDbEntity
  8
图层 03
100
AcDbSpline
210
0.0
220
0.0
230
1.0
 70
     8
 71
     3
 72
     8
 73
     4
 74
     0
 42
0.0000000001
 43
0.0000000001
 40
13696.0108006018
 40
13696.0108006018
 40
13696.0108006018
 40
13696.0108006018
 40
13712.9151573799
 40
13712.9151573799
 40
13712.9151573799
 40
13712.9151573799
 10
4277.876495255786
 20
149.5365715034497
 30
-0.0000000000004832
 10
4277.180912846195
 20
148.4782449819268
 30
-0.0000000000004832
 10
4276.407729074888
 20
147.4892033011131
 30
-0.0000000000004832
 10
4275.55458374125
 20
146.5654683615976
 30
-0.0000000000004832
  0
SPLINE
  5
132
330
1F
100
AcDbEntity
  8
图层 03
100
AcDbSpline
210
0.0
220
0.0
230
1.0
 70
     8
 71
     3
 72
     8
 73
     4
 74
     0
 42
0.0000000001
 43
0.0000000001
 40
13712.9151573799
 40
13712.9151573799
 40
13712.9151573799
 40
13712.9151573799
 40
13727.22396833326
 40
13727.22396833326
 40
13727.22396833326
 40
13727.22396833326
 10
4275.55458374125
 20
146.5654683615976
 30
-0.0000000000004832
 10
4275.164606343296
 20
145.5531639417405
 30
-0.0000000000004832
 10
4274.711850654041
 20
144.5763317511691
 30
-0.0000000000004832
 10
4274.195819552473
 20
143.631953276627
 30
-0.0000000000004832
  0
SPLINE
  5
133
330
1F
100
AcDbEntity
  8
图层 03
100
AcDbSpline
210
0.0
220
0.0
230
1.0
 70
     8
 71
     3
 72
     8
 73
     4
 74
     0
 42
0.0000000001
 43
0.0000000001
 40
13727.22396833326
 40
13727.22396833326
 40
13727.22396833326
 40
13727.22396833326
 40
13757.75110643625
 40
13757.75110643625
 40
13757.75110643625
 40
13757.75110643625
 10
4274.195819552473
 20
143.631953276627
 30
-0.0000000000004832
 10
4272.301776578074
 20
142.4194197478453
 30
-0.0000000000004832
 10
4270.340506126746
 20
141.2819443928983
 30
-0.0000000000004832
 10
4268.361575684514
 20
140.2145912988146
 30
-0.0000000000004832
  0
SPLINE
  5
134
330
1F
100
AcDbEntity
  8
图层 03
100
AcDbSpline
210
0.0
220
0.0
230
1.0
 70
     8
 71
     3
 72
     8
 73
     4
 74
     0
 42
0.0000000001
 43
0.0000000001
 40
13757.75110643625
 40
13757.75110643625
 40
13757.75110643625
 40
13757.75110643625
 40
13757.81545447711
 40
13757.81545447711
 40
13757.81545447711
 40
13757.81545447711
 10
4268.361575684514
 20
140.2145912988146
 30
-0.0000000000004832
 10
4268.357800976402
 20
140.2116951608276
 30
-0.0000000000004832
 10
4268.354026193615
 20
140.2087991234544
 30
-0.0000000000004832
 10
4268.350251336266
 20
140.2059031865715
 30
-0.0000000000004832
  0
SPLINE
  5
135
330
1F
100
AcDbEntity
  8
图层 03
100
AcDbSpline
210
0.0
220
0.0
230
1.0
 70
     8
 71
     3
 72
     8
 73
     4
 74
     0
 42
0.0000000001
 43
0.0000000001
 40
13757.81545447711
 40
13757.81545447711
 40
13757.81545447711
 40
13757.81545447711
 40
13794.59023272343
 40
13794.59023272343
 40
13794.59023272343
 40
13794.59023272343
 10
4268.350251336266
 20
140.2059031865715
 30
-0.0000000000004832
 10
4265.640096965641
 20
139.8077426355147
 30
-0.0000000000004832
 10
4262.932125761623
 20
139.3978332769507
 30
-0.0000000000004832
 10
4260.22611242827
 20
138.9785726997986
 30
-0.0000000000004832
  0
SPLINE
  5
136
330
1F
100
AcDbEntity
  8
图层 03
100
AcDbSpline
210
0.0
220
0.0
230
1.0
 70
     8
 71
     3
 72
     8
 73
     4
 74
     0
 42
0.0000000001
 43
0.0000000001
 40
13794.59023272343
 40
13794.59023272343
 40
13794.59023272343
 40
13794.59023272343
 40
13839.07864962682
 40
13839.07864962682
 40
13839.07864962682
 40
13839.07864962682
 10
4260.22611242827
 20
138.9785726997986
 30
-0.0000000000004832
 10
4256.884575594331
 20
139.2848577409814
 30
-0.0000000000004832
 10
4253.542881069219
 20
139.5863786500893
 30
-0.0000000000004832
 10
4250.201064369619
 20
139.8830032095766
 30
-0.0000000000004832
  0
SPLINE
  5
137
330
1F
100
AcDbEntity
  8
图层 03
100
AcDbSpline
210
0.0
220
0.0
230
1.0
 70
     8
 71
     3
 72
     8
 73
     4
 74
     0
 42
0.0000000001
 43
0.0000000001
 40
13839.07864962682
 40
13839.07864962682
 40
13839.07864962682
 40
13839.07864962682
 40
13885.76709961221
 40
13885.76709961221
 40
13885.76709961221
 40
13885.76709961221
 10
4250.201064369619
 20
139.8830032095766
 30
-0.0000000000004832
 10
4246.741951720942
 20
140.6922558456488
 30
-0.0000000000004832
 10
4243.283173070536
 20
141.5035328799302
 30
-0.0000000000004832
 10
4239.824779072947
 20
142.317091157357
 30
-0.0000000000004832
  0
SPLINE
  5
138
330
1F
100
AcDbEntity
  8
图层 03
100
AcDbSpline
210
0.0
220
0.0
230
1.0
 70
     8
 71
     3
 72
     8
 73
     4
 74
     0
 42
0.0000000001
 43
0.0000000001
 40
13885.76709961221
 40
13885.76709961221
 40
13885.76709961221
 40
13885.76709961221
 40
13929.36568556151
 40
13929.36568556151
 40
13929.36568556151
 40
13929.36568556151
 10
4239.824779072947
 20
142.317091157357
 30
-0.0000000000004832
 10
4236.694802983257
 20
143.5005255248155
 30
-0.0000000000004832
 10
4233.565273637761
 20
144.6854286951318
 30
-0.0000000000004832
 10
4230.43632828453
 20
145.8722309396396
 30
-0.0000000000004832
  0
SPLINE
  5
139
330
1F
100
AcDbEntity
  8
图层 03
100
AcDbSpline
210
0.0
220
0.0
230
1.0
 70
     8
 71
     3
 72
     8
 73
     4
 74
     0
 42
0.0000000001
 43
0.0000000001
 40
13929.36568556151
 40
13929.36568556151
 40
13929.36568556151
 40
13929.36568556151
 40
13966.1217519627
 40
13966.1217519627
 40
13966.1217519627
 40
13966.1217519627
 10
4230.43632828453
 20
145.8722309396396
 30
-0.0000000000004832
 10
4227.974155003099
 20
147.3088428367696
 30
-0.0000000000004832
 10
4225.51233039356
 20
148.7461431750326
 30
-0.0000000000004832
 10
4223.051085177289
 20
150.1845813865345
 30
-0.0000000000004832
  0
SPLINE
  5
13A
330
1F
100
AcDbEntity
  8
图层 03
100
AcDbSpline
210
0.0
220
0.0
230
1.0
 70
     8
 71
     3
 72
    11
 73
     7
 74
     0
 42
0.0000000001
 43
0.0000000001
 40
13966.1217519627
 40
13966.1217519627
 40
13966.1217519627
 40
13966.1217519627
 40
13999.27509529927
 40
13999.27509529927
 40
13999.27509529927
 40
14032.98537489141
 40
14032.98537489141
 40
14032.98537489141
 40
14032.98537489141
 10
4223.051085177289
 20
150.1845813865345
 30
-0.0000000000004832
 10
4220.991468648355
 20
151.7522067737812
 30
-0.0000000000004832
 10
4218.93197124893
 20
153.3200058719316
 30
-0.0000000000004832
 10
4216.872731060333
 20
154.8881793733785
 30
-0.0000000000004832
 10
4214.769067688249
 20
156.4682704298161
 30
-0.0000000000004832
 10
4212.665511890586
 20
158.0485207318633
 30
-0.0000000000004832
 10
4210.562237376913
 20
159.6291866506045
 30
-0.0000000000004832
  0
SPLINE
  5
13B
330
1F
100
AcDbEntity
  8
图层 03
100
AcDbSpline
210
0.0
220
0.0
230
1.0
 70
     8
 71
     3
 72
     8
 73
     4
 74
     0
 42
0.0000000001
 43
0.0000000001
 40
14032.98537489141
 40
14032.98537489141
 40
14032.98537489141
 40
14032.98537489141
 40
14072.84546656462
 40
14072.84546656462
 40
14072.84546656462
 40
14072.84546656462
 10
4210.562237376913
 20
159.6291866506045
 30
-0.0000000000004832
 10
4207.913923159045
 20
161.2291387036938
 30
-0.0000000000004832
 10
4205.269035062291
 20
162.8358279088084
 30
-0.0000000000004832
 10
4202.634108947637
 20
164.4607425836947
 30
-0.0000000000004832
  0
SPLINE
  5
13C
330
1F
100
AcDbEntity
  8
图层 03
100
AcDbSpline
210
0.0
220
0.0
230
1.0
 70
     8
 71
     3
 72
     8
 73
     4
 74
     0
 42
0.0000000001
 43
0.0000000001
 40
14072.84546656462
 40
14072.84546656462
 40
14072.84546656462
 40
14072.84546656462
 40
14124.73465975965
 40
14124.73465975965
 40
14124.73465975965
 40
14124.73465975965
 10
4202.634108947637
 20
164.4607425836947
 30
-0.0000000000004832
 10
4199.059362855463
 20
166.095830367928
 30
-0.0000000000004832
 10
4195.304606453168
 20
167.8378961109597
 30
-0.0000000000004832
 10
4191.756146336174
 20
169.5400113229111
 30
-0.0000000000004832
  0
SPLINE
  5
13D
330
1F
100
AcDbEntity
  8
图层 03
100
AcDbSpline
210
0.0
220
0.0
230
1.0
 70
     8
 71
     3
 72
    14
 73
    10
 74
     0
 42
0.0000000001
 43
0.0000000001
 40
14124.73465975965
 40
14124.73465975965
 40
14124.73465975965
 40
14124.73465975965
 40
14132.62533697577
 40
14132.62533697577
 40
14132.62533697577
 40
14181.06940546683
 40
14181.06940546683
 40
14181.06940546683
 40
14187.12233378942
 40
14187.12233378942
 40
14187.12233378942
 40
14187.12233378942
 10
4191.756146336174
 20
169.5400113229111
 30
-0.0000000000004832
 10
4191.187491842691
 20
169.7468972312564
 30
-0.0000000000004832
 10
4190.618977177639
 20
169.9542657587697
 30
-0.0000000000004832
 10
4190.050618860807
 20
170.1621636289753
 30
-0.0000000000004832
 10
4186.554882436993
 20
171.4163283275184
 30
-0.0000000000004832
 10
4183.063374806161
 20
172.6864886603648
 30
-0.0000000000004832
 10
4179.583154363843
 20
173.9928776727728
 30
-0.0000000000004832
 10
4179.147667292841
 20
174.1540491999795
 30
-0.0000000000004832
 10
4178.712278025691
 20
174.3155511846635
 30
-0.0000000000004832
 10
4178.277000213833
 20
174.4774233765897
 30
-0.0000000000004832
  0
SPLINE
  5
13E
330
1F
100
AcDbEntity
  8
图层 03
100
AcDbSpline
210
0.0
220
0.0
230
1.0
 70
     8
 71
     3
 72
     8
 73
     4
 74
     0
 42
0.0000000001
 43
0.0000000001
 40
14187.12233378942
 40
14187.12233378942
 40
14187.12233378942
 40
14187.12233378942
 40
14216.01330516703
 40
14216.01330516703
 40
14216.01330516703
 40
14216.01330516703
 10
4178.277000213833
 20
174.4774233765897
 30
-0.0000000000004832
 10
4176.152284455264
 20
175.0630872820479
 30
-0.0000000000004832
 10
4174.028436423936
 20
175.6530836084922
 30
-0.0000000000004832
 10
4171.906081246702
 20
176.2500033719384
 30
-0.0000000000004832
  0
SPLINE
  5
13F
330
1F
100
AcDbEntity
  8
图层 03
100
AcDbSpline
210
0.0
220
0.0
230
1.0
 70
     8
 71
     3
 72
     8
 73
     4
 74
     0
 42
0.0000000001
 43
0.0000000001
 40
14216.01330516703
 40
14216.01330516703
 40
14216.01330516703
 40
14216.01330516703
 40
14242.16441408855
 40
14242.16441408855
 40
14242.16441408855
 40
14242.16441408855
 10
4171.906081246702
 20
176.2500033719384
 30
-0.0000000000004832
 10
4169.977798513837
 20
176.7545856559566
 30
-0.0000000000004832
 10
4168.047590218805
 20
177.2498754364958
 30
-0.0000000000004832
 10
4166.114706937682
 20
177.7294441091203
 30
-0.0000000000004832
  0
SPLINE
  5
140
330
1F
100
AcDbEntity
  8
图层 03
100
AcDbSpline
210
0.0
220
0.0
230
1.0
 70
     8
 71
     3
 72
     8
 73
     4
 74
     0
 42
0.0000000001
 43
0.0000000001
 40
14242.16441408855
 40
14242.16441408855
 40
14242.16441408855
 40
14242.16441408855
 40
14247.36582629307
 40
14247.36582629307
 40
14247.36582629307
 40
14247.36582629307
 10
4166.114706937682
 20
177.7294441091203
 30
-0.0000000000004832
 10
4165.726812837265
 20
177.8019676242641
 30
-0.0000000000004832
 10
4165.338650792413
 20
177.8724407645157
 30
-0.0000000000004832
 10
4164.950260377484
 20
177.9405992023387
 30
-0.0000000000004832
  0
SPLINE
  5
141
330
1F
100
AcDbEntity
  8
图层 03
100
AcDbSpline
210
0.0
220
0.0
230
1.0
 70
     8
 71
     3
 72
     8
 73
     4
 74
     0
 42
0.0000000001
 43
0.0000000001
 40
14247.36582629307
 40
14247.36582629307
 40
14247.36582629307
 40
14247.36582629307
 40
14265.68291765033
 40
14265.68291765033
 40
14265.68291765033
 40
14265.68291765033
 10
4164.950260377484
 20
177.9405992023387
 30
-0.0000000000004832
 10
4163.574949265545
 20
178.0801811224723
 30
-0.0000000000004832
 10
4162.199394679003
 20
178.2150619574945
 30
-0.0000000000004832
 10
4160.82361653028
 20
178.3408233613443
 30
-0.0000000000004832
  0
SPLINE
  5
142
330
1F
100
AcDbEntity
  8
图层 03
100
AcDbSpline
210
0.0
220
0.0
230
1.0
 70
     8
 71
     3
 72
     8
 73
     4
 74
     0
 42
0.0000000001
 43
0.0000000001
 40
14265.68291765033
 40
14265.68291765033
 40
14265.68291765033
 40
14265.68291765033
 40
14281.54025923276
 40
14281.54025923276
 40
14281.54025923276
 40
14281.54025923276
 10
4160.82361653028
 20
178.3408233613443
 30
-0.0000000000004832
 10
4159.79973368942
 20
178.362423543497
 30
-0.0000000000004832
 10
4158.275113330688
 20
178.3915760967707
 30
-0.0000000000004832
 10
4157.252062145313
 20
178.3931161543272
 30
-0.0000000000004832
  0
SPLINE
  5
143
330
1F
100
AcDbEntity
  8
图层 03
100
AcDbSpline
210
0.0
220
0.0
230
1.0
 70
     8
 71
     3
 72
     8
 73
     4
 74
     0
 42
0.0000000001
 43
0.0000000001
 40
14281.54025923276
 40
14281.54025923276
 40
14281.54025923276
 40
14281.54025923276
 40
14295.35182031127
 40
14295.35182031127
 40
14295.35182031127
 40
14295.35182031127
 10
4157.252062145313
 20
178.3931161543272
 30
-0.0000000000004832
 10
4156.230835512253
 20
178.2622641190271
 30
-0.0000000000004832
 10
4155.206980448586
 20
178.1459417681201
 30
-0.0000000000004832
 10
4154.183011169355
 20
178.0319399931011
 30
-0.0000000000004832
  0
SPLINE
  5
144
330
1F
100
AcDbEntity
  8
图层 03
100
AcDbSpline
210
0.0
220
0.0
230
1.0
 70
     8
 71
     3
 72
     8
 73
     4
 74
     0
 42
0.0000000001
 43
0.0000000001
 40
14295.35182031127
 40
14295.35182031127
 40
14295.35182031127
 40
14295.35182031127
 40
14313.80131635252
 40
14313.80131635252
 40
14313.80131635252
 40
14313.80131635252
 10
4154.183011169355
 20
178.0319399931011
 30
-0.0000000000004832
 10
4152.837774143243
 20
177.7650051596548
 30
-0.0000000000004832
 10
4151.493722624597
 20
177.4930087297081
 30
-0.0000000000004832
 10
4150.150555824222
 20
177.2175392715448
 30
-0.0000000000004832
  0
SPLINE
  5
145
330
1F
100
AcDbEntity
  8
图层 03
100
AcDbSpline
210
0.0
220
0.0
230
1.0
 70
     8
 71
     3
 72
     8
 73
     4
 74
     0
 42
0.0000000001
 43
0.0000000001
 40
14313.80131635252
 40
14313.80131635252
 40
14313.80131635252
 40
14313.80131635252
 40
14317.57844257509
 40
14317.57844257509
 40
14317.57844257509
 40
14317.57844257509
 10
4150.150555824222
 20
177.2175392715448
 30
-0.0000000000004832
 10
4149.882037545663
 20
177.1384244204459
 30
-0.0000000000004832
 10
4149.61380683145
 20
177.0584106191104
 30
-0.0000000000004832
 10
4149.345904886739
 20
176.9774306059757
 30
-0.0000000000004832
  0
SPLINE
  5
146
330
1F
100
AcDbEntity
  8
图层 03
100
AcDbSpline
210
0.0
220
0.0
230
1.0
 70
     8
 71
     3
 72
     8
 73
     4
 74
     0
 42
0.0000000001
 43
0.0000000001
 40
14317.57844257509
 40
14317.57844257509
 40
14317.57844257509
 40
14317.57844257509
 40
14330.53440422447
 40
14330.53440422447
 40
14330.53440422447
 40
14330.53440422447
 10
4149.345904886739
 20
176.9774306059757
 30
-0.0000000000004832
 10
4148.435938066476
 20
176.6754351051005
 30
-0.0000000000004832
 10
4147.528516013024
 20
176.3615483812607
 30
-0.0000000000004832
 10
4146.627615673841
 20
176.0352177055935
 30
-0.0000000000004832
  0
SPLINE
  5
147
330
1F
100
AcDbEntity
  8
图层 03
100
AcDbSpline
210
0.0
220
0.0
230
1.0
 70
     8
 71
     3
 72
     8
 73
     4
 74
     0
 42
0.0000000001
 43
0.0000000001
 40
14330.53440422447
 40
14330.53440422447
 40
14330.53440422447
 40
14330.53440422447
 40
14341.48583395082
 40
14341.48583395082
 40
14341.48583395082
 40
14341.48583395082
 10
4146.627615673841
 20
176.0352177055935
 30
-0.0000000000004832
 10
4145.887607802303
 20
175.6858411555756
 30
-0.0000000000004832
 10
4145.180283616187
 20
175.3322659384135
 30
-0.0000000000004832
 10
4144.458630460125
 20
174.946956066718
 30
-0.0000000000004832
  0
SPLINE
  5
148
330
1F
100
AcDbEntity
  8
图层 03
100
AcDbSpline
210
0.0
220
0.0
230
1.0
 70
     8
 71
     3
 72
     8
 73
     4
 74
     0
 42
0.0000000001
 43
0.0000000001
 40
14341.48583395082
 40
14341.48583395082
 40
14341.48583395082
 40
14341.48583395082
 40
14347.12944147326
 40
14347.12944147326
 40
14347.12944147326
 40
14347.12944147326
 10
4144.458630460125
 20
174.946956066718
 30
-0.0000000000004832
 10
4144.121125641629
 20
174.701855298938
 30
-0.0000000000004832
 10
4143.784557055817
 20
174.4554174367338
 30
-0.0000000000004832
 10
4143.448746476737
 20
174.2079412474988
 30
-0.0000000000004832
  0
SPLINE
  5
149
330
1F
100
AcDbEntity
  8
图层 03
100
AcDbSpline
210
0.0
220
0.0
230
1.0
 70
     8
 71
     3
 72
     8
 73
     4
 74
     0
 42
0.0000000001
 43
0.0000000001
 40
14347.12944147326
 40
14347.12944147326
 40
14347.12944147326
 40
14347.12944147326
 40
14351.17807849482
 40
14351.17807849482
 40
14351.17807849482
 40
14351.17807849482
 10
4143.448746476737
 20
174.2079412474988
 30
-0.0000000000004832
 10
4143.218143362539
 20
174.0167529122793
 30
-0.0000000000004832
 10
4142.986778318093
 20
173.8265143459309
 30
-0.0000000000004832
 10
4142.754864348423
 20
173.6369894797563
 30
-0.0000000000004832
  0
SPLINE
  5
14A
330
1F
100
AcDbEntity
  8
图层 03
100
AcDbSpline
210
0.0
220
0.0
230
1.0
 70
     8
 71
     3
 72
     8
 73
     4
 74
     0
 42
0.0000000001
 43
0.0000000001
 40
14351.17807849482
 40
14351.17807849482
 40
14351.17807849482
 40
14351.17807849482
 40
14358.05276511179
 40
14358.05276511179
 40
14358.05276511179
 40
14358.05276511179
 10
4142.754864348423
 20
173.636989479756
 30
-0.0000000000004832
 10
4142.44790739282
 20
173.2285225791667
 30
-0.0000000000004832
 10
4142.132467447013
 20
172.820507172851
 30
-0.0000000000004832
 10
4141.816251996644
 20
172.4198558350496
 30
-0.0000000000004832
  0
SPLINE
  5
14B
330
1F
100
AcDbEntity
  8
图层 03
100
AcDbSpline
210
0.0
220
0.0
230
1.0
 70
    11
 71
     3
 72
    29
 73
    25
 74
     0
 42
0.0000000001
 43
0.0000000001
 40
-15.70796326794897
 40
-15.70796326794897
 40
-15.70796326794897
 40
-15.70796326794897
 40
-14.72621556370216
 40
-13.74446785945534
 40
-12.76272015520853
 40
-12.27184630308513
 40
-11.78097245096172
 40
-11.29009859883832
 40
-10.79922474671491
 40
-9.817477042468102
 40
-8.835729338221292
 40
-8.344855486097888
 40
-7.853981633974483
 40
-7.363107781851078
 40
-6.872233929727672
 40
-5.890486225480862
 40
-4.908738521234051
 40
-4.417864669110646
 40
-3.926990816987241
 40
-3.436116964863836
 40
-2.945243112740431
 40
-1.963495408493621
 40
-0.9817477042468103
 40
0.0
 40
0.0
 40
0.0
 40
0.0
 10
4206.702265976903
 20
-21.26324928862471
 30
-0.0000000000004832
 10
4206.702265976897
 20
-21.61602685956382
 30
-0.0000000000004832
 10
4206.574032155422
 20
-22.38099987514306
 30
-0.0000000000004832
 10
4205.886625074219
 20
-23.44766065151748
 30
-0.0000000000004832
 10
4204.998592071099
 20
-24.02108953516552
 30
-0.0000000000004832
 10
4204.244170340781
 20
-24.23154611825748
 30
-0.0000000000004832
 10
4203.702262803191
 20
-24.2791042092781
 30
-0.0000000000004832
 10
4203.160374307873
 20
-24.23153277637778
 30
-0.0000000000004832
 10
4202.405876408464
 20
-24.0211651391503
 30
-0.0000000000004832
 10
4201.518167320291
 20
-23.44734814893422
 30
-0.0000000000004832
 10
4200.944349797379
 20
-22.5596385749684
 30
-0.0000000000004832
 10
4200.733983444408
 20
-21.80514175419239
 30
-0.0000000000004832
 10
4200.686407243151
 20
-21.26324928862482
 30
-0.0000000000004832
 10
4200.733983444408
 20
-20.72135682305748
 30
-0.0000000000004832
 10
4200.94434979738
 20
-19.96686000228055
 30
-0.0000000000004832
 10
4201.518167320291
 20
-19.07915042831496
 30
-0.0000000000004832
 10
4202.405876408464
 20
-18.50533343809957
 30
-0.0000000000004832
 10
4203.160374307872
 20
-18.29496580087107
 30
-0.0000000000004832
 10
4203.702262803191
 20
-18.24739436797154
 30
-0.0000000000004832
 10
4204.244170340781
 20
-18.29495245899159
 30
-0.0000000000004832
 10
4204.9985920711
 20
-18.50540904208412
 30
-0.0000000000004832
 10
4205.886625074219
 20
-19.0788379257317
 30
-0.0000000000004832
 10
4206.574032155422
 20
-20.14549870210783
 30
-0.0000000000004832
 10
4206.702265976897
 20
-20.91047171768446
 30
-0.0000000000004832
 10
4206.702265976903
 20
-21.26324928862471
 30
-0.0000000000004832
  0
SPLINE
  5
14C
330
1F
100
AcDbEntity
  8
图层 03
100
AcDbSpline
210
0.0
220
0.0
230
1.0
 70
    11
 71
     3
 72
    29
 73
    25
 74
     0
 42
0.0000000001
 43
0.0000000001
 40
-15.70796326794897
 40
-15.70796326794897
 40
-15.70796326794897
 40
-15.70796326794897
 40
-14.72621556370216
 40
-13.74446785945534
 40
-12.76272015520853
 40
-12.27184630308513
 40
-11.78097245096172
 40
-11.29009859883832
 40
-10.79922474671491
 40
-9.817477042468102
 40
-8.835729338221292
 40
-8.344855486097888
 40
-7.853981633974483
 40
-7.363107781851078
 40
-6.872233929727672
 40
-5.890486225480862
 40
-4.908738521234051
 40
-4.417864669110646
 40
-3.926990816987241
 40
-3.436116964863836
 40
-2.945243112740431
 40
-1.963495408493621
 40
-0.9817477042468103
 40
0.0
 40
0.0
 40
0.0
 40
0.0
 10
4143.100680401603
 20
82.63356788885335
 30
-0.0000000000004832
 10
4143.100680401599
 20
82.28079031791435
 30
-0.0000000000004832
 10
4142.972446580124
 20
81.51581730233545
 30
-0.0000000000004832
 10
4142.28503949892
 20
80.44915652596092
 30
-0.0000000000004832
 10
4141.3970064958
 20
79.87572764231277
 30
-0.0000000000004832
 10
4140.642584765483
 20
79.66527105922
 30
-0.0000000000004832
 10
4140.100677227892
 20
79.61771296820007
 30
-0.0000000000004832
 10
4139.558788732574
 20
79.66528440110051
 30
-0.0000000000004832
 10
4138.804290833165
 20
79.8756520383281
 30
-0.0000000000004832
 10
4137.916581744992
 20
80.44946902854326
 30
-0.0000000000004832
 10
4137.34276422208
 20
81.33717860251
 30
-0.0000000000004832
 10
4137.132397869109
 20
82.09167542328578
 30
-0.0000000000004832
 10
4137.084821667851
 20
82.63356788885358
 30
-0.0000000000004832
 10
4137.132397869109
 20
83.17546035442047
 30
-0.0000000000004832
 10
4137.342764222081
 20
83.92995717519841
 30
-0.0000000000004832
 10
4137.916581744991
 20
84.81766674916298
 30
-0.0000000000004832
 10
4138.804290833165
 20
85.39148373937883
 30
-0.0000000000004832
 10
4139.558788732574
 20
85.60185137660687
 30
-0.0000000000004832
 10
4140.100677227892
 20
85.64942280950686
 30
-0.0000000000004832
 10
4140.642584765482
 20
85.60186471848647
 30
-0.0000000000004832
 10
4141.3970064958
 20
85.39140813539461
 30
-0.0000000000004832
 10
4142.28503949892
 20
84.81797925174567
 30
-0.0000000000004832
 10
4142.972446580124
 20
83.75131847537114
 30
-0.0000000000004832
 10
4143.100680401599
 20
82.98634545979303
 30
-0.0000000000004832
 10
4143.100680401603
 20
82.63356788885335
 30
-0.0000000000004832
  0
SPLINE
  5
14D
330
1F
100
AcDbEntity
  8
图层 03
100
AcDbSpline
210
0.0
220
0.0
230
1.0
 70
    11
 71
     3
 72
    29
 73
    25
 74
     0
 42
0.0000000001
 43
0.0000000001
 40
-15.70796326794897
 40
-15.70796326794897
 40
-15.70796326794897
 40
-15.70796326794897
 40
-14.72621556370216
 40
-13.74446785945534
 40
-12.76272015520853
 40
-12.27184630308513
 40
-11.78097245096172
 40
-11.29009859883832
 40
-10.79922474671491
 40
-9.817477042468102
 40
-8.835729338221292
 40
-8.344855486097888
 40
-7.853981633974483
 40
-7.363107781851078
 40
-6.872233929727672
 40
-5.890486225480862
 40
-4.908738521234051
 40
-4.417864669110646
 40
-3.926990816987241
 40
-3.436116964863836
 40
-2.945243112740431
 40
-1.963495408493621
 40
-0.9817477042468103
 40
0.0
 40
0.0
 40
0.0
 40
0.0
 10
4199.217430530733
 20
144.3880839130024
 30
-0.0000000000004832
 10
4199.217430530728
 20
144.035306342063
 30
-0.0000000000004832
 10
4199.089196709253
 20
143.2703333264849
 30
-0.0000000000004832
 10
4198.401789628049
 20
142.2036725501097
 30
-0.0000000000004832
 10
4197.51375662493
 20
141.6302436664616
 30
-0.0000000000004832
 10
4196.759334894611
 20
141.4197870833698
 30
-0.0000000000004832
 10
4196.217427357021
 20
141.3722289923491
 30
-0.0000000000004832
 10
4195.675538861702
 20
141.4198004252493
 30
-0.0000000000004832
 10
4194.921040962295
 20
141.6301680624773
 30
-0.0000000000004832
 10
4194.033331874121
 20
142.2039850526921
 30
-0.0000000000004832
 10
4193.45951435121
 20
143.0916946266595
 30
-0.0000000000004832
 10
4193.249147998238
 20
143.8461914474346
 30
-0.0000000000004832
 10
4193.201571796981
 20
144.3880839130027
 30
-0.0000000000004832
 10
4193.249147998238
 20
144.9299763785696
 30
-0.0000000000004832
 10
4193.459514351211
 20
145.6844731993474
 30
-0.0000000000004832
 10
4194.03333187412
 20
146.5721827733119
 30
-0.0000000000004832
 10
4194.921040962294
 20
147.1459997635282
 30
-0.0000000000004832
 10
4195.675538861703
 20
147.3563674007557
 30
-0.0000000000004832
 10
4196.217427357022
 20
147.4039388336557
 30
-0.0000000000004832
 10
4196.759334894611
 20
147.3563807426356
 30
-0.0000000000004832
 10
4197.51375662493
 20
147.145924159543
 30
-0.0000000000004832
 10
4198.401789628049
 20
146.5724952758954
 30
-0.0000000000004832
 10
4199.089196709253
 20
145.5058344995193
 30
-0.0000000000004832
 10
4199.217430530728
 20
144.7408614839428
 30
-0.0000000000004832
 10
4199.217430530733
 20
144.3880839130024
 30
-0.0000000000004832
  0
SPLINE
  5
14E
330
1F
100
AcDbEntity
  8
图层 03
100
AcDbSpline
210
0.0
220
0.0
230
1.0
 70
    11
 71
     3
 72
    29
 73
    25
 74
     0
 42
0.0000000001
 43
0.0000000001
 40
-15.70796326794897
 40
-15.70796326794897
 40
-15.70796326794897
 40
-15.70796326794897
 40
-14.72621556370216
 40
-13.74446785945534
 40
-12.76272015520853
 40
-12.27184630308513
 40
-11.78097245096172
 40
-11.29009859883832
 40
-10.79922474671491
 40
-9.817477042468102
 40
-8.835729338221292
 40
-8.344855486097888
 40
-7.853981633974483
 40
-7.363107781851078
 40
-6.872233929727672
 40
-5.890486225480862
 40
-4.908738521234051
 40
-4.417864669110646
 40
-3.926990816987241
 40
-3.436116964863836
 40
-2.945243112740431
 40
-1.963495408493621
 40
-0.9817477042468103
 40
0.0
 40
0.0
 40
0.0
 40
0.0
 10
4311.641028941242
 20
8.850154868253185
 30
-0.0000000000004832
 10
4311.641028941236
 20
8.497377297314188
 30
-0.0000000000004832
 10
4311.512795119761
 20
7.732404281734716
 30
-0.0000000000004832
 10
4310.825388038557
 20
6.665743505361434
 30
-0.0000000000004832
 10
4309.937355035438
 20
6.092314621711466
 30
-0.0000000000004832
 10
4309.182933305119
 20
5.881858038619953
 30
-0.0000000000004832
 10
4308.641025767529
 20
5.834299947599447
 30
-0.0000000000004832
 10
4308.099137272211
 20
5.881871380500115
 30
-0.0000000000004832
 10
4307.344639372803
 20
6.092239017727479
 30
-0.0000000000004832
 10
4306.456930284628
 20
6.66605600794378
 30
-0.0000000000004832
 10
4305.883112761718
 20
7.553765581908351
 30
-0.0000000000004832
 10
4305.672746408746
 20
8.308262402686069
 30
-0.0000000000004832
 10
4305.625170207489
 20
8.85015486825273
 30
-0.0000000000004832
 10
4305.672746408746
 20
9.392047333820074
 30
-0.0000000000004832
 10
4305.883112761718
 20
10.14654415459813
 30
-0.0000000000004832
 10
4306.456930284628
 20
11.03425372856236
 30
-0.0000000000004832
 10
4307.344639372803
 20
11.60807071877889
 30
-0.0000000000004832
 10
4308.099137272211
 20
11.81843835600648
 30
-0.0000000000004832
 10
4308.641025767529
 20
11.86600978890669
 30
-0.0000000000004832
 10
4309.182933305119
 20
11.81845169788608
 30
-0.0000000000004832
 10
4309.937355035438
 20
11.60799511479422
 30
-0.0000000000004832
 10
4310.825388038556
 20
11.03456623114607
 30
-0.0000000000004832
 10
4311.512795119761
 20
9.967905454770289
 30
-0.0000000000004832
 10
4311.641028941236
 20
9.202932439192523
 30
-0.0000000000004832
 10
4311.641028941242
 20
8.850154868253185
 30
-0.0000000000004832
  0
SPLINE
  5
14F
330
1F
100
AcDbEntity
  8
图层 03
100
AcDbSpline
210
0.0
220
0.0
230
1.0
 70
    11
 71
     3
 72
    29
 73
    25
 74
     0
 42
0.0000000001
 43
0.0000000001
 40
-15.70796326794897
 40
-15.70796326794897
 40
-15.70796326794897
 40
-15.70796326794897
 40
-14.72621556370216
 40
-13.74446785945534
 40
-12.76272015520853
 40
-12.27184630308513
 40
-11.78097245096172
 40
-11.29009859883832
 40
-10.79922474671491
 40
-9.817477042468102
 40
-8.835729338221292
 40
-8.344855486097888
 40
-7.853981633974483
 40
-7.363107781851078
 40
-6.872233929727672
 40
-5.890486225480862
 40
-4.908738521234051
 40
-4.417864669110646
 40
-3.926990816987241
 40
-3.436116964863836
 40
-2.945243112740431
 40
-1.963495408493621
 40
-0.9817477042468103
 40
0.0
 40
0.0
 40
0.0
 40
0.0
 10
4287.784423830311
 20
99.64565312492641
 30
-0.0000000000004832
 10
4287.784423830305
 20
99.2928755539873
 30
-0.0000000000004832
 10
4287.656190008831
 20
98.52790253840794
 30
-0.0000000000004832
 10
4286.968782927627
 20
97.46124176203375
 30
-0.0000000000004832
 10
4286.080749924507
 20
96.88781287838538
 30
-0.0000000000004832
 10
4285.326328194189
 20
96.67735629529352
 30
-0.0000000000004832
 10
4284.784420656599
 20
96.62979820427267
 30
-0.0000000000004832
 10
4284.242532161281
 20
96.67736963717368
 30
-0.0000000000004832
 10
4283.488034261873
 20
96.88773727440082
 30
-0.0000000000004832
 10
4282.600325173698
 20
97.46155426461632
 30
-0.0000000000004832
 10
4282.026507650788
 20
98.34926383858283
 30
-0.0000000000004832
 10
4281.816141297816
 20
99.10376065935907
 30
-0.0000000000004832
 10
4281.768565096558
 20
99.64565312492618
 30
-0.0000000000004832
 10
4281.816141297816
 20
100.1875455904935
 30
-0.0000000000004832
 10
4282.026507650788
 20
100.9420424112707
 30
-0.0000000000004832
 10
4282.600325173698
 20
101.8297519852363
 30
-0.0000000000004832
 10
4283.488034261873
 20
102.4035689754514
 30
-0.0000000000004832
 10
4284.242532161281
 20
102.6139366126798
 30
-0.0000000000004832
 10
4284.784420656599
 20
102.6615080455795
 30
-0.0000000000004832
 10
4285.326328194189
 20
102.6139499545595
 30
-0.0000000000004832
 10
4286.080749924507
 20
102.4034933714669
 30
-0.0000000000004832
 10
4286.968782927626
 20
101.830064487819
 30
-0.0000000000004832
 10
4287.656190008831
 20
100.7634037114437
 30
-0.0000000000004832
 10
4287.784423830306
 20
99.99843069586609
 30
-0.0000000000004832
 10
4287.784423830311
 20
99.64565312492641
 30
-0.0000000000004832
  0
SPLINE
  5
150
330
1F
100
AcDbEntity
  8
图层 03
100
AcDbSpline
210
0.0
220
0.0
230
1.0
 70
    11
 71
     3
 72
    29
 73
    25
 74
     0
 42
0.0000000001
 43
0.0000000001
 40
-15.70796326794897
 40
-15.70796326794897
 40
-15.70796326794897
 40
-15.70796326794897
 40
-14.72621556370216
 40
-13.74446785945534
 40
-12.76272015520853
 40
-12.27184630308513
 40
-11.78097245096172
 40
-11.29009859883832
 40
-10.79922474671491
 40
-9.817477042468102
 40
-8.835729338221292
 40
-8.344855486097888
 40
-7.853981633974483
 40
-7.363107781851078
 40
-6.872233929727672
 40
-5.890486225480862
 40
-4.908738521234051
 40
-4.417864669110646
 40
-3.926990816987241
 40
-3.436116964863836
 40
-2.945243112740431
 40
-1.963495408493621
 40
-0.9817477042468103
 40
0.0
 40
0.0
 40
0.0
 40
0.0
 10
4196.05006552645
 20
43.30430402091429
 30
-0.0000000000004832
 10
4196.050065526444
 20
42.95152644997472
 30
-0.0000000000004832
 10
4195.921831704969
 20
42.18655343439639
 30
-0.0000000000004832
 10
4195.234424623766
 20
41.11989265802163
 30
-0.0000000000004832
 10
4194.346391620646
 20
40.54646377437325
 30
-0.0000000000004832
 10
4193.591969890328
 20
40.33600719128174
 30
-0.0000000000004832
 10
4193.050062352737
 20
40.28844910026055
 30
-0.0000000000004832
 10
4192.508173857419
 20
40.33602053316145
 30
-0.0000000000004832
 10
4191.753675958011
 20
40.54638817038892
 30
-0.0000000000004832
 10
4190.865966869836
 20
41.12020516060443
 30
-0.0000000000004832
 10
4190.292149346927
 20
42.00791473456979
 30
-0.0000000000004832
 10
4190.081782993955
 20
42.76241155534706
 30
-0.0000000000004832
 10
4190.034206792697
 20
43.30430402091417
 30
-0.0000000000004832
 10
4190.081782993954
 20
43.84619648648163
 30
-0.0000000000004832
 10
4190.292149346926
 20
44.60069330725844
 30
-0.0000000000004832
 10
4190.865966869836
 20
45.48840288122403
 30
-0.0000000000004832
 10
4191.753675958011
 20
46.06221987143999
 30
-0.0000000000004832
 10
4192.508173857419
 20
46.2725875086677
 30
-0.0000000000004832
 10
4193.050062352737
 20
46.3201589415678
 30
-0.0000000000004832
 10
4193.591969890327
 20
46.27260085054741
 30
-0.0000000000004832
 10
4194.346391620646
 20
46.0621442674551
 30
-0.0000000000004832
 10
4195.234424623765
 20
45.48871538380706
 30
-0.0000000000004832
 10
4195.921831704969
 20
44.42205460743196
 30
-0.0000000000004832
 10
4196.050065526444
 20
43.65708159185385
 30
-0.0000000000004832
 10
4196.05006552645
 20
43.30430402091429
 30
-0.0000000000004832
  0
SPLINE
  5
151
330
1F
100
AcDbEntity
  8
图层 03
100
AcDbSpline
210
0.0
220
0.0
230
1.0
 70
    11
 71
     3
 72
    29
 73
    25
 74
     0
 42
0.0000000001
 43
0.0000000001
 40
-15.70796326794897
 40
-15.70796326794897
 40
-15.70796326794897
 40
-15.70796326794897
 40
-14.72621556370216
 40
-13.74446785945534
 40
-12.76272015520853
 40
-12.27184630308513
 40
-11.78097245096172
 40
-11.29009859883832
 40
-10.79922474671491
 40
-9.817477042468102
 40
-8.835729338221292
 40
-8.344855486097888
 40
-7.853981633974483
 40
-7.363107781851078
 40
-6.872233929727672
 40
-5.890486225480862
 40
-4.908738521234051
 40
-4.417864669110646
 40
-3.926990816987241
 40
-3.436116964863836
 40
-2.945243112740431
 40
-1.963495408493621
 40
-0.9817477042468103
 40
0.0
 40
0.0
 40
0.0
 40
0.0
 10
4140.005116047503
 20
-6.928504970531094
 30
-0.0000000000004832
 10
4140.005116047498
 20
-7.281282541469636
 30
-0.0000000000004832
 10
4139.876882226023
 20
-8.046255557049108
 30
-0.0000000000004832
 10
4139.18947514482
 20
-9.112916333423073
 30
-0.0000000000004832
 10
4138.301442141699
 20
-9.686345217071903
 30
-0.0000000000004832
 10
4137.547020411382
 20
-9.896801800163871
 30
-0.0000000000004832
 10
4137.00511287379
 20
-9.944359891184263
 30
-0.0000000000004832
 10
4136.463224378473
 20
-9.896788458283936
 30
-0.0000000000004832
 10
4135.708726479064
 20
-9.686420821056686
 30
-0.0000000000004832
 10
4134.821017390891
 20
-9.112603830840271
 30
-0.0000000000004832
 10
4134.247199867979
 20
-8.224894256874904
 30
-0.0000000000004832
 10
4134.036833515009
 20
-7.47039743609821
 30
-0.0000000000004832
 10
4133.98925731375
 20
-6.928504970531321
 30
-0.0000000000004832
 10
4134.036833515009
 20
-6.38661250496375
 30
-0.0000000000004832
 10
4134.24719986798
 20
-5.632115684186488
 30
-0.0000000000004832
 10
4134.821017390891
 20
-4.744406110221462
 30
-0.0000000000004832
 10
4135.708726479064
 20
-4.170589120005388
 30
-0.0000000000004832
 10
4136.463224378473
 20
-3.960221482777683
 30
-0.0000000000004832
 10
4137.00511287379
 20
-3.912650049877811
 30
-0.0000000000004832
 10
4137.547020411382
 20
-3.960208140897521
 30
-0.0000000000004832
 10
4138.301442141699
 20
-4.170664723990285
 30
-0.0000000000004832
 10
4139.18947514482
 20
-4.744093607638206
 30
-0.0000000000004832
 10
4139.876882226023
 20
-5.810754384013762
 30
-0.0000000000004832
 10
4140.005116047498
 20
-6.575727399591074
 30
-0.0000000000004832
 10
4140.005116047503
 20
-6.928504970531094
 30
-0.0000000000004832
  0
POLYLINE
  5
153
330
1F
100
AcDbEntity
  8
图层01
100
AcDb2dPolyline
 66
     1
 10
0.0
 20
0.0
 30
0.0
 70
     1
  0
VERTEX
  5
154
330
153
100
AcDbEntity
  8
图层01
100
AcDbVertex
100
AcDb2dVertex
 10
4010.0
 20
-200.0
 30
0.0
  0
VERTEX
  5
155
330
153
100
AcDbEntity
  8
图层01
100
AcDbVertex
100
AcDb2dVertex
 10
4410.0
 20
-200.0
 30
0.0
  0
VERTEX
  5
156
330
153
100
AcDbEntity
  8
图层01
100
AcDbVertex
100
AcDb2dVertex
 10
4410.0
 20
200.0
 30
0.0
  0
VERTEX
  5
157
330
153
100
AcDbEntity
  8
图层01
100
AcDbVertex
100
AcDb2dVertex
 10
4010.0
 20
200.0
 30
0.0
  0
SEQEND
  5
158
330
153
100
AcDbEntity
  8
图层01
  0
ENDSEC
  0
SECTION
  2
OBJECTS
  0
DICTIONARY
  5
C
330
0
100
AcDbDictionary
281
     1
  3
ACAD_DETAILVIEWSTYLE
350
194
  3
ACAD_GROUP
350
D
  3
ACAD_LAYOUT
350
1A
  3
ACAD_MATERIAL
350
43
  3
ACAD_MLEADERSTYLE
350
5B
  3
ACAD_MLINESTYLE
350
17
  3
ACAD_PLOTSETTINGS
350
19
  3
ACAD_PLOTSTYLENAME
350
E
  3
ACAD_SCALELIST
350
47
  3
ACAD_SECTIONVIEWSTYLE
350
195
  3
ACAD_TABLESTYLE
350
59
  3
ACAD_VISUALSTYLE
350
2A
  3
ACDB_RECOMPOSE_DATA
350
191
  3
AcDbVariableDictionary
350
159
  0
SUN
  5
5D
330
29
100
AcDbSun
 90
        1
290
     0
 63
     7
421
 16777215
 40
1.0
291
     1
 91
  2455826
 92
 54000000
292
     0
 70
     2
 71
   256
280
     1
  0
DICTIONARY
  5
194
102
{ACAD_REACTORS
330
C
102
}
330
C
100
AcDbDictionary
281
     1
  0
DICTIONARY
  5
D
102
{ACAD_REACTORS
330
C
102
}
330
C
100
AcDbDictionary
281
     1
  0
DICTIONARY
  5
1A
102
{ACAD_REACTORS
330
C
102
}
330
C
100
AcDbDictionary
281
     1
  3
Layout1
350
1E
  3
Layout2
350
26
  3
Model
350
22
  0
DICTIONARY
  5
43
102
{ACAD_REACTORS
330
C
102
}
330
C
100
AcDbDictionary
281
     1
  3
ByBlock
350
45
  3
ByLayer
350
44
  3
Global
350
46
  0
DICTIONARY
  5
5B
102
{ACAD_REACTORS
330
C
102
}
330
C
100
AcDbDictionary
281
     1
  3
Standard
350
5C
  0
DICTIONARY
  5
17
102
{ACAD_REACTORS
330
C
102
}
330
C
100
AcDbDictionary
281
     1
  3
Standard
350
18
  0
DICTIONARY
  5
19
102
{ACAD_REACTORS
330
C
102
}
330
C
100
AcDbDictionary
281
     1
  0
ACDBDICTIONARYWDFLT
  5
E
102
{ACAD_REACTORS
330
C
102
}
330
C
100
AcDbDictionary
281
     1
  3
Normal
350
F
100
AcDbDictionaryWithDefault
340
F
  0
DICTIONARY
  5
47
102
{ACAD_REACTORS
330
C
102
}
330
C
100
AcDbDictionary
281
     1
  3
A0
350
48
  3
A1
350
49
  3
A2
350
4A
  3
A3
350
4B
  3
A4
350
4C
  3
A5
350
4D
  3
A6
350
4E
  3
A7
350
4F
  3
A8
350
50
  3
A9
350
51
  3
B1
350
52
  3
B2
350
53
  3
B3
350
54
  3
B4
350
55
  3
B5
350
56
  3
B6
350
57
  3
B7
350
58
  0
DICTIONARY
  5
195
102
{ACAD_REACTORS
330
C
102
}
330
C
100
AcDbDictionary
281
     1
  0
DICTIONARY
  5
59
102
{ACAD_REACTORS
330
C
102
}
330
C
100
AcDbDictionary
281
     1
  3
Standard
350
5A
  0
DICTIONARY
  5
2A
102
{ACAD_REACTORS
330
C
102
}
330
C
100
AcDbDictionary
281
     1
  3
2dWireframe
350
2F
  3
Basic
350
32
  3
Brighten
350
36
  3
ColorChange
350
3A
  3
Conceptual
350
34
  3
Dim
350
35
  3
EdgeColorOff
350
3D
  3
Facepattern
350
39
  3
Flat
350
2B
  3
FlatWithEdges
350
2C
  3
Gouraud
350
2D
  3
GouraudWithEdges
350
2E
  3
Hidden
350
31
  3
JitterOff
350
3B
  3
Linepattern
350
38
  3
OverhangOff
350
3C
  3
Realistic
350
33
  3
Shaded
350
42
  3
Shaded with edges
350
41
  3
Shades of Gray
350
3E
  3
Sketchy
350
3F
  3
Thicken
350
37
  3
Wireframe
350
30
  3
X-Ray
350
40
  0
XRECORD
  5
191
102
{ACAD_REACTORS
330
C
102
}
330
C
100
AcDbXrecord
280
     1
 90
        1
330
5A
  0
DICTIONARY
  5
159
102
{ACAD_REACTORS
330
C
102
}
330
C
100
AcDbDictionary
281
     1
  3
CANNOSCALE
350
15A
  3
CMLEADERSTYLE
350
193
  3
CTABLESTYLE
350
192
  3
XCLIPFRAME
350
15B
  0
LAYOUT
  5
1E
102
{ACAD_REACTORS
330
1A
102
}
330
1A
100
AcDbPlotSettings
  1

  2
none_device
  4

  6

 40
0.0
 41
0.0
 42
0.0
 43
0.0
 44
0.0
 45
0.0
 46
0.0
 47
0.0
 48
0.0
 49
0.0
140
0.0
141
0.0
142
1.0
143
1.0
 70
   688
 72
     0
 73
     0
 74
     5
  7

 75
    16
 76
     0
 77
     2
 78
   300
147
1.0
148
0.0
149
0.0
100
AcDbLayout
  1
Layout1
 70
     1
 71
     1
 10
0.0
 20
0.0
 11
12.0
 21
9.0
 12
0.0
 22
0.0
 32
0.0
 14
1.000000000000000E+20
 24
1.000000000000000E+20
 34
1.000000000000000E+20
 15
-1.000000000000000E+20
 25
-1.000000000000000E+20
 35
-1.000000000000000E+20
146
0.0
 13
0.0
 23
0.0
 33
0.0
 16
1.0
 26
0.0
 36
0.0
 17
0.0
 27
1.0
 37
0.0
 76
     0
330
1B
  0
LAYOUT
  5
26
102
{ACAD_REACTORS
330
1A
102
}
330
1A
100
AcDbPlotSettings
  1

  2
none_device
  4

  6

 40
0.0
 41
0.0
 42
0.0
 43
0.0
 44
0.0
 45
0.0
 46
0.0
 47
0.0
 48
0.0
 49
0.0
140
0.0
141
0.0
142
1.0
143
1.0
 70
   688
 72
     0
 73
     0
 74
     5
  7

 75
    16
 76
     0
 77
     2
 78
   300
147
1.0
148
0.0
149
0.0
100
AcDbLayout
  1
Layout2
 70
     1
 71
     2
 10
0.0
 20
0.0
 11
0.0
 21
0.0
 12
0.0
 22
0.0
 32
0.0
 14
0.0
 24
0.0
 34
0.0
 15
0.0
 25
0.0
 35
0.0
146
0.0
 13
0.0
 23
0.0
 33
0.0
 16
1.0
 26
0.0
 36
0.0
 17
0.0
 27
1.0
 37
0.0
 76
     0
330
23
  0
LAYOUT
  5
22
102
{ACAD_REACTORS
330
1A
102
}
330
1A
100
AcDbPlotSettings
  1

  2
none_device
  4
Letter_(8.50_x_11.00_Inches)
  6

 40
6.35
 41
6.35
 42
6.35000508
 43
6.35000508
 44
215.9
 45
279.4
 46
0.0
 47
0.0
 48
0.0
 49
0.0
140
0.0
141
0.0
142
1.0
143
1.0
 70
  1712
 72
     0
 73
     0
 74
     0
  7

 75
     0
 76
     0
 77
     2
 78
   300
147
1.0
148
0.0
149
0.0
100
AcDbLayout
  1
Model
 70
     1
 71
     0
 10
0.0
 20
0.0
 11
12.0
 21
9.0
 12
0.0
 22
0.0
 32
0.0
 14
1.000000000000000E+20
 24
1.000000000000000E+20
 34
1.000000000000000E+20
 15
-1.000000000000000E+20
 25
-1.000000000000000E+20
 35
-1.000000000000000E+20
146
0.0
 13
0.0
 23
0.0
 33
0.0
 16
1.0
 26
0.0
 36
0.0
 17
0.0
 27
1.0
 37
0.0
 76
     0
330
1F
331
29
  0
MATERIAL
  5
45
102
{ACAD_REACTORS
330
43
102
}
330
43
100
AcDbMaterial
  1
ByBlock
 72
     1
 94
      127
  0
MATERIAL
  5
44
102
{ACAD_REACTORS
330
43
102
}
330
43
100
AcDbMaterial
  1
ByLayer
 72
     1
 94
      127
  0
MATERIAL
  5
46
102
{ACAD_REACTORS
330
43
102
}
330
43
100
AcDbMaterial
  1
Global
 72
     1
 94
      127
  0
MLEADERSTYLE
  5
5C
102
{ACAD_REACTORS
330
5B
102
}
102
{ACAD_XDICTIONARY
360
18F
102
}
330
5B
100
AcDbMLeaderStyle
170
     2
171
     1
172
     0
 90
        2
 40
0.0
 41
0.0
173
     1
 91
-1056964608
340
14
 92
       -2
290
     1
 42
0.09
291
     1
 43
0.36
  3
Standard
341
0
 44
0.18
300

342
11
174
     1
178
     6
175
     1
176
     0
 93
-1056964608
 45
0.18
292
     0
297
     0
 46
0.18
343
0
 94
-1056964608
 47
1.0
 49
1.0
140
1.0
293
     1
141
0.0
294
     1
177
     0
142
1.0
295
     0
296
     0
143
0.125
1001
ACAD_MLEADERVER
1070
     2
  0
MLINESTYLE
  5
18
102
{ACAD_REACTORS
330
17
102
}
330
17
100
AcDbMlineStyle
  2
Standard
 70
     0
  3

 62
   256
 51
90.0
 52
90.0
 71
     2
 49
0.5
 62
   256
  6
BYLAYER
 49
-0.5
 62
   256
  6
BYLAYER
  0
ACDBPLACEHOLDER
  5
F
102
{ACAD_REACTORS
330
E
102
}
330
E
  0
SCALE
  5
48
102
{ACAD_REACTORS
330
47
102
}
330
47
100
AcDbScale
 70
     0
300
1:1
140
1.0
141
1.0
290
     1
  0
SCALE
  5
49
102
{ACAD_REACTORS
330
47
102
}
330
47
100
AcDbScale
 70
     0
300
1/128" = 1'-0"
140
0.0078125
141
12.0
290
     0
  0
SCALE
  5
4A
102
{ACAD_REACTORS
330
47
102
}
330
47
100
AcDbScale
 70
     0
300
1/64" = 1'-0"
140
0.015625
141
12.0
290
     0
  0
SCALE
  5
4B
102
{ACAD_REACTORS
330
47
102
}
330
47
100
AcDbScale
 70
     0
300
1/32" = 1'-0"
140
0.03125
141
12.0
290
     0
  0
SCALE
  5
4C
102
{ACAD_REACTORS
330
47
102
}
330
47
100
AcDbScale
 70
     0
300
1/16" = 1'-0"
140
0.0625
141
12.0
290
     0
  0
SCALE
  5
4D
102
{ACAD_REACTORS
330
47
102
}
330
47
100
AcDbScale
 70
     0
300
3/32" = 1'-0"
140
0.09375
141
12.0
290
     0
  0
SCALE
  5
4E
102
{ACAD_REACTORS
330
47
102
}
330
47
100
AcDbScale
 70
     0
300
1/8" = 1'-0"
140
0.125
141
12.0
290
     0
  0
SCALE
  5
4F
102
{ACAD_REACTORS
330
47
102
}
330
47
100
AcDbScale
 70
     0
300
3/16" = 1'-0"
140
0.1875
141
12.0
290
     0
  0
SCALE
  5
50
102
{ACAD_REACTORS
330
47
102
}
330
47
100
AcDbScale
 70
     0
300
1/4" = 1'-0"
140
0.25
141
12.0
290
     0
  0
SCALE
  5
51
102
{ACAD_REACTORS
330
47
102
}
330
47
100
AcDbScale
 70
     0
300
3/8" = 1'-0"
140
0.375
141
12.0
290
     0
  0
SCALE
  5
52
102
{ACAD_REACTORS
330
47
102
}
330
47
100
AcDbScale
 70
     0
300
1/2" = 1'-0"
140
0.5
141
12.0
290
     0
  0
SCALE
  5
53
102
{ACAD_REACTORS
330
47
102
}
330
47
100
AcDbScale
 70
     0
300
3/4" = 1'-0"
140
0.75
141
12.0
290
     0
  0
SCALE
  5
54
102
{ACAD_REACTORS
330
47
102
}
330
47
100
AcDbScale
 70
     0
300
1" = 1'-0"
140
1.0
141
12.0
290
     0
  0
SCALE
  5
55
102
{ACAD_REACTORS
330
47
102
}
330
47
100
AcDbScale
 70
     0
300
1-1/2" = 1'-0"
140
1.5
141
12.0
290
     0
  0
SCALE
  5
56
102
{ACAD_REACTORS
330
47
102
}
330
47
100
AcDbScale
 70
     0
300
3" = 1'-0"
140
3.0
141
12.0
290
     0
  0
SCALE
  5
57
102
{ACAD_REACTORS
330
47
102
}
330
47
100
AcDbScale
 70
     0
300
6" = 1'-0"
140
6.0
141
12.0
290
     0
  0
SCALE
  5
58
102
{ACAD_REACTORS
330
47
102
}
330
47
100
AcDbScale
 70
     0
300
1'-0" = 1'-0"
140
12.0
141
12.0
290
     0
  0
TABLESTYLE
  5
5A
102
{ACAD_REACTORS
330
59
102
}
102
{ACAD_XDICTIONARY
360
18C
102
}
330
59
100
AcDbTableStyle
  3
Standard
 70
     0
 71
     0
 40
0.06
 41
0.06
280
     0
281
     0
  7
Standard
140
0.18
170
     2
 62
     0
 63
   257
283
     0
 90
        4
 91
        0
  1

274
    -2
284
     1
 64
     0
275
    -2
285
     1
 65
     0
276
    -2
286
     1
 66
     0
277
    -2
287
     1
 67
     0
278
    -2
288
     1
 68
     0
279
    -2
289
     1
 69
     0
  7
Standard
140
0.25
170
     5
 62
     0
 63
   257
283
     0
 90
        4
 91
        0
  1

274
    -2
284
     1
 64
     0
275
    -2
285
     1
 65
     0
276
    -2
286
     1
 66
     0
277
    -2
287
     1
 67
     0
278
    -2
288
     1
 68
     0
279
    -2
289
     1
 69
     0
  7
Standard
140
0.18
170
     5
 62
     0
 63
   257
283
     0
 90
        4
 91
        0
  1

274
    -2
284
     1
 64
     0
275
    -2
285
     1
 65
     0
276
    -2
286
     1
 66
     0
277
    -2
287
     1
 67
     0
278
    -2
288
     1
 68
     0
279
    -2
289
     1
 69
     0
  0
VISUALSTYLE
  5
2F
102
{ACAD_REACTORS
330
2A
102
}
102
{ACAD_XDICTIONARY
360
164
102
}
330
2A
100
AcDbVisualStyle
  2
2dWireframe
 70
     4
 71
     0
 72
     2
 73
     0
 90
        0
 40
0.6
 41
30.0
 62
     5
 63
     7
421
 16777215
 74
     1
 91
        4
 64
     7
 65
   257
 75
     1
175
     1
 42
1.0
 92
        0
 66
   257
 43
1.0
 76
     1
 77
     6
 78
     2
 67
     7
 79
     5
170
     0
171
     0
290
     0
174
     0
 93
        1
 44
0.0
173
     0
291
     0
 45
0.0
  0
VISUALSTYLE
  5
32
102
{ACAD_REACTORS
330
2A
102
}
102
{ACAD_XDICTIONARY
360
16A
102
}
330
2A
100
AcDbVisualStyle
  2
Basic
 70
     7
 71
     1
 72
     0
 73
     1
 90
        0
 40
0.6
 41
30.0
 62
     5
 63
     7
421
 16777215
 74
     0
 91
        4
 64
     7
 65
   257
 75
     1
175
     1
 42
1.0
 92
        8
 66
     7
 43
1.0
 76
     1
 77
     6
 78
     2
 67
     7
 79
     5
170
     0
171
     0
290
     0
174
     0
 93
        1
 44
0.0
173
     0
291
     1
 45
0.0
  0
VISUALSTYLE
  5
36
102
{ACAD_REACTORS
330
2A
102
}
102
{ACAD_XDICTIONARY
360
172
102
}
330
2A
100
AcDbVisualStyle
  2
Brighten
 70
    12
 71
     2
 72
     2
 73
     0
 90
        0
 40
0.6
 41
30.0
 62
     5
 63
     7
421
 16777215
 74
     1
 91
        4
 64
     7
 65
   257
 75
     1
175
     1
 42
1.0
 92
        8
 66
     7
 43
1.0
 76
     1
 77
     6
 78
     2
 67
     7
 79
     5
170
     0
171
     0
290
     0
174
     0
 93
        1
 44
50.0
173
     0
291
     1
 45
0.0
  0
VISUALSTYLE
  5
3A
102
{ACAD_REACTORS
330
2A
102
}
102
{ACAD_XDICTIONARY
360
17A
102
}
330
2A
100
AcDbVisualStyle
  2
ColorChange
 70
    16
 71
     2
 72
     2
 73
     3
 90
        0
 40
0.6
 41
30.0
 62
     5
 63
     8
421
  8421504
 74
     1
 91
        4
 64
     7
 65
   257
 75
     1
175
     1
 42
1.0
 92
        8
 66
     8
424
  8421504
 43
1.0
 76
     1
 77
     6
 78
     2
 67
     7
 79
     5
170
     0
171
     0
290
     0
174
     0
 93
        1
 44
0.0
173
     0
291
     1
 45
0.0
  0
VISUALSTYLE
  5
34
102
{ACAD_REACTORS
330
2A
102
}
102
{ACAD_XDICTIONARY
360
16E
102
}
330
2A
100
AcDbVisualStyle
  2
Conceptual
 70
     9
 71
     3
 72
     2
 73
     0
 90
        0
 40
0.6
 41
30.0
 62
     5
 63
     7
421
 16777215
 74
     2
 91
        2
 64
     7
 65
   257
 75
     1
175
     1
 42
179.0
 92
        8
 66
     7
 43
1.0
 76
     1
 77
     6
 78
     2
 67
     7
 79
     3
170
     0
171
     0
290
     0
174
     0
 93
        1
 44
0.0
173
     0
291
     0
 45
0.0
  0
VISUALSTYLE
  5
35
102
{ACAD_REACTORS
330
2A
102
}
102
{ACAD_XDICTIONARY
360
170
102
}
330
2A
100
AcDbVisualStyle
  2
Dim
 70
    11
 71
     2
 72
     2
 73
     0
 90
        0
 40
0.6
 41
30.0
 62
     5
 63
     7
421
 16777215
 74
     1
 91
        4
 64
     7
 65
   257
 75
     1
175
     1
 42
1.0
 92
        8
 66
     7
 43
1.0
 76
     1
 77
     6
 78
     2
 67
     7
 79
     5
170
     0
171
     0
290
     0
174
     0
 93
        1
 44
-50.0
173
     0
291
     1
 45
0.0
  0
VISUALSTYLE
  5
3D
102
{ACAD_REACTORS
330
2A
102
}
102
{ACAD_XDICTIONARY
360
180
102
}
330
2A
100
AcDbVisualStyle
  2
EdgeColorOff
 70
    22
 71
     2
 72
     2
 73
     0
 90
        0
 40
0.6
 41
30.0
 62
     5
 63
     7
421
 16777215
 74
     1
 91
        4
 64
     7
 65
   257
 75
     1
175
     1
 42
1.0
 92
        8
 66
     7
 43
1.0
 76
     1
 77
     6
 78
     2
 67
     7
 79
     5
170
     0
171
     0
290
     0
174
     0
 93
        1
 44
0.0
173
     0
291
     1
 45
0.0
  0
VISUALSTYLE
  5
39
102
{ACAD_REACTORS
330
2A
102
}
102
{ACAD_XDICTIONARY
360
178
102
}
330
2A
100
AcDbVisualStyle
  2
Facepattern
 70
    15
 71
     2
 72
     2
 73
     0
 90
        0
 40
0.6
 41
30.0
 62
     5
 63
     7
421
 16777215
 74
     1
 91
        4
 64
     7
 65
   257
 75
     1
175
     1
 42
1.0
 92
        8
 66
     7
 43
1.0
 76
     1
 77
     6
 78
     2
 67
     7
 79
     5
170
     0
171
     0
290
     0
174
     0
 93
        1
 44
0.0
173
     0
291
     1
 45
0.0
  0
VISUALSTYLE
  5
2B
102
{ACAD_REACTORS
330
2A
102
}
102
{ACAD_XDICTIONARY
360
15C
102
}
330
2A
100
AcDbVisualStyle
  2
Flat
 70
     0
 71
     2
 72
     1
 73
     1
 90
        2
 40
0.6
 41
30.0
 62
     5
 63
     7
421
 16777215
 74
     0
 91
        0
 64
     7
 65
   257
 75
     1
175
     1
 42
1.0
 92
        8
 66
     7
 43
1.0
 76
     1
 77
     6
 78
     2
 67
     7
 79
     5
170
     0
171
     0
290
     0
174
     0
 93
       13
 44
0.0
173
     0
291
     1
 45
0.0
  0
VISUALSTYLE
  5
2C
102
{ACAD_REACTORS
330
2A
102
}
102
{ACAD_XDICTIONARY
360
15E
102
}
330
2A
100
AcDbVisualStyle
  2
FlatWithEdges
 70
     1
 71
     2
 72
     1
 73
     1
 90
        2
 40
0.6
 41
30.0
 62
     5
 63
     7
421
 16777215
 74
     1
 91
        0
 64
     7
 65
   257
 75
     1
175
     1
 42
1.0
 92
        0
 66
   257
 43
1.0
 76
     1
 77
     6
 78
     2
 67
     7
 79
     5
170
     0
171
     0
290
     0
174
     0
 93
       13
 44
0.0
173
     0
291
     1
 45
0.0
  0
VISUALSTYLE
  5
2D
102
{ACAD_REACTORS
330
2A
102
}
102
{ACAD_XDICTIONARY
360
160
102
}
330
2A
100
AcDbVisualStyle
  2
Gouraud
 70
     2
 71
     2
 72
     2
 73
     1
 90
        2
 40
0.6
 41
30.0
 62
     5
 63
     7
421
 16777215
 74
     0
 91
        0
 64
     7
 65
   257
 75
     1
175
     1
 42
1.0
 92
        0
 66
     7
 43
1.0
 76
     1
 77
     6
 78
     2
 67
     7
 79
     5
170
     0
171
     0
290
     0
174
     0
 93
       13
 44
0.0
173
     0
291
     1
 45
0.0
  0
VISUALSTYLE
  5
2E
102
{ACAD_REACTORS
330
2A
102
}
102
{ACAD_XDICTIONARY
360
162
102
}
330
2A
100
AcDbVisualStyle
  2
GouraudWithEdges
 70
     3
 71
     2
 72
     2
 73
     1
 90
        2
 40
0.6
 41
30.0
 62
     5
 63
     7
421
 16777215
 74
     1
 91
        0
 64
     7
 65
   257
 75
     1
175
     1
 42
1.0
 92
        0
 66
   257
 43
1.0
 76
     1
 77
     6
 78
     2
 67
     7
 79
     5
170
     0
171
     0
290
     0
174
     0
 93
       13
 44
0.0
173
     0
291
     1
 45
0.0
  0
VISUALSTYLE
  5
31
102
{ACAD_REACTORS
330
2A
102
}
102
{ACAD_XDICTIONARY
360
168
102
}
330
2A
100
AcDbVisualStyle
  2
Hidden
 70
     6
 71
     1
 72
     2
 73
     2
 90
        0
 40
0.6
 41
30.0
 62
     5
 63
     7
421
 16777215
 74
     2
 91
        2
 64
     7
 65
   257
 75
     2
175
     1
 42
40.0
 92
        0
 66
   257
 43
1.0
 76
     1
 77
     6
 78
     2
 67
     7
 79
     3
170
     0
171
     0
290
     0
174
     0
 93
        1
 44
0.0
173
     0
291
     0
 45
0.0
  0
VISUALSTYLE
  5
3B
102
{ACAD_REACTORS
330
2A
102
}
102
{ACAD_XDICTIONARY
360
17C
102
}
330
2A
100
AcDbVisualStyle
  2
JitterOff
 70
    20
 71
     2
 72
     2
 73
     0
 90
        0
 40
0.6
 41
30.0
 62
     5
 63
     7
421
 16777215
 74
     1
 91
        4
 64
     7
 65
   257
 75
     1
175
     1
 42
1.0
 92
       10
 66
     7
 43
1.0
 76
     1
 77
     6
 78
     2
 67
     7
 79
     5
170
     0
171
     0
290
     0
174
     0
 93
        1
 44
0.0
173
     0
291
     1
 45
0.0
  0
VISUALSTYLE
  5
38
102
{ACAD_REACTORS
330
2A
102
}
102
{ACAD_XDICTIONARY
360
176
102
}
330
2A
100
AcDbVisualStyle
  2
Linepattern
 70
    14
 71
     2
 72
     2
 73
     0
 90
        0
 40
0.6
 41
30.0
 62
     5
 63
     7
421
 16777215
 74
     1
 91
        4
 64
     7
 65
   257
 75
     7
175
     7
 42
1.0
 92
        8
 66
     7
 43
1.0
 76
     1
 77
     6
 78
     2
 67
     7
 79
     5
170
     0
171
     0
290
     0
174
     0
 93
        1
 44
0.0
173
     0
291
     1
 45
0.0
  0
VISUALSTYLE
  5
3C
102
{ACAD_REACTORS
330
2A
102
}
102
{ACAD_XDICTIONARY
360
17E
102
}
330
2A
100
AcDbVisualStyle
  2
OverhangOff
 70
    21
 71
     2
 72
     2
 73
     0
 90
        0
 40
0.6
 41
30.0
 62
     5
 63
     7
421
 16777215
 74
     1
 91
        4
 64
     7
 65
   257
 75
     1
175
     1
 42
1.0
 92
        9
 66
     7
 43
1.0
 76
     1
 77
     6
 78
     2
 67
     7
 79
     5
170
     0
171
     0
290
     0
174
     0
 93
        1
 44
0.0
173
     0
291
     1
 45
0.0
  0
VISUALSTYLE
  5
33
102
{ACAD_REACTORS
330
2A
102
}
102
{ACAD_XDICTIONARY
360
16C
102
}
330
2A
100
AcDbVisualStyle
  2
Realistic
 70
     8
 71
     2
 72
     3
 73
     0
 90
        2
 40
0.6
 41
30.0
 62
     5
 63
     7
421
 16777215
 74
     0
 91
        0
 64
     7
 65
   257
 75
     1
175
     1
 42
1.0
 92
        8
 66
   257
 43
1.0
 76
     1
 77
     6
 78
     2
 67
     7
 79
     3
170
     0
171
     0
290
     0
174
     0
 93
       13
 44
0.0
173
     0
291
     0
 45
0.0
  0
VISUALSTYLE
  5
42
102
{ACAD_REACTORS
330
2A
102
}
102
{ACAD_XDICTIONARY
360
18A
102
}
330
2A
100
AcDbVisualStyle
  2
Shaded
 70
    27
 71
     2
 72
     2
 73
     1
 90
        2
 40
0.6
 41
30.0
 62
     5
 63
     7
421
 16777215
 74
     0
 91
        4
 64
     7
 65
   257
 75
     1
175
     1
 42
1.0
 92
        8
 66
   257
 43
1.0
 76
     1
 77
     6
 78
     2
 67
     8
425
  7895160
 79
     3
170
     0
171
     0
290
     0
174
     0
 93
        5
 44
0.0
173
     0
291
     0
 45
0.0
  0
VISUALSTYLE
  5
41
102
{ACAD_REACTORS
330
2A
102
}
102
{ACAD_XDICTIONARY
360
188
102
}
330
2A
100
AcDbVisualStyle
  2
Shaded with edges
 70
    26
 71
     2
 72
     2
 73
     1
 90
        2
 40
0.6
 41
30.0
 62
     5
 63
     7
421
 16777215
 74
     1
 91
       10
 64
     7
 65
   257
 75
     2
175
     1
 42
1.0
 92
        8
 66
   257
 43
1.0
 76
     1
 77
     6
 78
     2
 67
     7
 79
     3
170
     0
171
     0
290
     0
174
     0
 93
        5
 44
0.0
173
     0
291
     0
 45
0.0
  0
VISUALSTYLE
  5
3E
102
{ACAD_REACTORS
330
2A
102
}
102
{ACAD_XDICTIONARY
360
182
102
}
330
2A
100
AcDbVisualStyle
  2
Shades of Gray
 70
    23
 71
     2
 72
     2
 73
     3
 90
        0
 40
0.6
 41
30.0
 62
     5
 63
     7
421
 16777215
 74
     2
 91
        2
 64
     7
 65
     7
 75
     1
175
     1
 42
40.0
 92
        8
 66
     7
 43
1.0
 76
     1
 77
     6
 78
     2
 67
     7
 79
     3
170
     0
171
     0
290
     0
174
     0
 93
        1
 44
0.0
173
     0
291
     0
 45
0.0
  0
VISUALSTYLE
  5
3F
102
{ACAD_REACTORS
330
2A
102
}
102
{ACAD_XDICTIONARY
360
184
102
}
330
2A
100
AcDbVisualStyle
  2
Sketchy
 70
    24
 71
     1
 72
     2
 73
     2
 90
        0
 40
0.6
 41
30.0
 62
     5
 63
     7
421
 16777215
 74
     2
 91
        2
 64
     7
 65
     7
 75
     1
175
     1
 42
40.0
 92
       11
 66
     7
 43
1.0
 76
     1
 77
     6
 78
     2
 67
     7
 79
     6
170
     0
171
     0
290
     0
174
     0
 93
        1
 44
0.0
173
     0
291
     0
 45
0.0
  0
VISUALSTYLE
  5
37
102
{ACAD_REACTORS
330
2A
102
}
102
{ACAD_XDICTIONARY
360
174
102
}
330
2A
100
AcDbVisualStyle
  2
Thicken
 70
    13
 71
     2
 72
     2
 73
     0
 90
        0
 40
0.6
 41
30.0
 62
     5
 63
     7
421
 16777215
 74
     1
 91
        4
 64
     7
 65
   257
 75
     1
175
     1
 42
1.0
 92
       12
 66
     7
 43
1.0
 76
     1
 77
     6
 78
     2
 67
     7
 79
     5
170
     0
171
     0
290
     0
174
     0
 93
        1
 44
0.0
173
     0
291
     1
 45
0.0
  0
VISUALSTYLE
  5
30
102
{ACAD_REACTORS
330
2A
102
}
102
{ACAD_XDICTIONARY
360
166
102
}
330
2A
100
AcDbVisualStyle
  2
Wireframe
 70
     5
 71
     0
 72
     2
 73
     0
 90
        0
 40
0.6
 41
30.0
 62
     5
 63
     7
421
 16777215
 74
     1
 91
        4
 64
     7
 65
   257
 75
     1
175
     1
 42
1.0
 92
        0
 66
   257
 43
1.0
 76
     1
 77
     6
 78
     2
 67
     7
 79
     3
170
     0
171
     0
290
     0
174
     0
 93
        1
 44
0.0
173
     0
291
     0
 45
0.0
  0
VISUALSTYLE
  5
40
102
{ACAD_REACTORS
330
2A
102
}
102
{ACAD_XDICTIONARY
360
186
102
}
330
2A
100
AcDbVisualStyle
  2
X-Ray
 70
    25
 71
     2
 72
     2
 73
     1
 90
        1
 40
0.5
 41
30.0
 62
     5
 63
     7
421
 16777215
 74
     1
 91
        0
 64
     7
 65
   257
 75
     1
175
     1
 42
1.0
 92
        8
 66
     7
 43
1.0
 76
     1
 77
     6
 78
     2
 67
     7
 79
     3
170
     0
171
     0
290
     0
174
     0
 93
       13
 44
0.0
173
     0
291
     0
 45
0.0
  0
DICTIONARYVAR
  5
15A
102
{ACAD_REACTORS
330
159
102
}
330
159
100
DictionaryVariables
280
     0
  1
1:1
  0
DICTIONARYVAR
  5
193
102
{ACAD_REACTORS
330
159
102
}
330
159
100
DictionaryVariables
280
     0
  1
Standard
  0
DICTIONARYVAR
  5
192
102
{ACAD_REACTORS
330
159
102
}
330
159
100
DictionaryVariables
280
     0
  1
Standard
  0
DICTIONARYVAR
  5
15B
102
{ACAD_REACTORS
330
159
102
}
330
159
100
DictionaryVariables
280
     0
  1
2
  0
DICTIONARY
  5
18F
330
5C
100
AcDbDictionary
280
     1
281
     1
  3
ACAD_XREC_ROUNDTRIP
360
190
  0
DICTIONARY
  5
18C
330
5A
100
AcDbDictionary
280
     1
281
     1
  3
ACAD_ROUNDTRIP_2008_TABLESTYLE_CELLSTYLEMAP
360
18D
  0
DICTIONARY
  5
164
330
2F
100
AcDbDictionary
280
     1
281
     1
  3
ACAD_XREC_ROUNDTRIP
360
165
  0
DICTIONARY
  5
16A
330
32
100
AcDbDictionary
280
     1
281
     1
  3
ACAD_XREC_ROUNDTRIP
360
16B
  0
DICTIONARY
  5
172
330
36
100
AcDbDictionary
280
     1
281
     1
  3
ACAD_XREC_ROUNDTRIP
360
173
  0
DICTIONARY
  5
17A
330
3A
100
AcDbDictionary
280
     1
281
     1
  3
ACAD_XREC_ROUNDTRIP
360
17B
  0
DICTIONARY
  5
16E
330
34
100
AcDbDictionary
280
     1
281
     1
  3
ACAD_XREC_ROUNDTRIP
360
16F
  0
DICTIONARY
  5
170
330
35
100
AcDbDictionary
280
     1
281
     1
  3
ACAD_XREC_ROUNDTRIP
360
171
  0
DICTIONARY
  5
180
330
3D
100
AcDbDictionary
280
     1
281
     1
  3
ACAD_XREC_ROUNDTRIP
360
181
  0
DICTIONARY
  5
178
330
39
100
AcDbDictionary
280
     1
281
     1
  3
ACAD_XREC_ROUNDTRIP
360
179
  0
DICTIONARY
  5
15C
330
2B
100
AcDbDictionary
280
     1
281
     1
  3
ACAD_XREC_ROUNDTRIP
360
15D
  0
DICTIONARY
  5
15E
330
2C
100
AcDbDictionary
280
     1
281
     1
  3
ACAD_XREC_ROUNDTRIP
360
15F
  0
DICTIONARY
  5
160
330
2D
100
AcDbDictionary
280
     1
281
     1
  3
ACAD_XREC_ROUNDTRIP
360
161
  0
DICTIONARY
  5
162
330
2E
100
AcDbDictionary
280
     1
281
     1
  3
ACAD_XREC_ROUNDTRIP
360
163
  0
DICTIONARY
  5
168
330
31
100
AcDbDictionary
280
     1
281
     1
  3
ACAD_XREC_ROUNDTRIP
360
169
  0
DICTIONARY
  5
17C
330
3B
100
AcDbDictionary
280
     1
281
     1
  3
ACAD_XREC_ROUNDTRIP
360
17D
  0
DICTIONARY
  5
176
330
38
100
AcDbDictionary
280
     1
281
     1
  3
ACAD_XREC_ROUNDTRIP
360
177
  0
DICTIONARY
  5
17E
330
3C
100
AcDbDictionary
280
     1
281
     1
  3
ACAD_XREC_ROUNDTRIP
360
17F
  0
DICTIONARY
  5
16C
330
33
100
AcDbDictionary
280
     1
281
     1
  3
ACAD_XREC_ROUNDTRIP
360
16D
  0
DICTIONARY
  5
18A
330
42
100
AcDbDictionary
280
     1
281
     1
  3
ACAD_XREC_ROUNDTRIP
360
18B
  0
DICTIONARY
  5
188
330
41
100
AcDbDictionary
280
     1
281
     1
  3
ACAD_XREC_ROUNDTRIP
360
189
  0
DICTIONARY
  5
182
330
3E
100
AcDbDictionary
280
     1
281
     1
  3
ACAD_XREC_ROUNDTRIP
360
183
  0
DICTIONARY
  5
184
330
3F
100
AcDbDictionary
280
     1
281
     1
  3
ACAD_XREC_ROUNDTRIP
360
185
  0
DICTIONARY
  5
174
330
37
100
AcDbDictionary
280
     1
281
     1
  3
ACAD_XREC_ROUNDTRIP
360
175
  0
DICTIONARY
  5
166
330
30
100
AcDbDictionary
280
     1
281
     1
  3
ACAD_XREC_ROUNDTRIP
360
167
  0
DICTIONARY
  5
186
330
40
100
AcDbDictionary
280
     1
281
     1
  3
ACAD_XREC_ROUNDTRIP
360
187
  0
XRECORD
  5
190
102
{ACAD_REACTORS
330
18F
102
}
330
18F
100
AcDbXrecord
280
     1
102
ACAD_ROUNDTRIP_2010_MLEADER_STYLE
  0
CELLSTYLEMAP
  5
18D
102
{ACAD_REACTORS
330
18C
102
}
330
18C
100
AcDbCellStyleMap
 90
        3
300
CELLSTYLE
  1
TABLEFORMAT_BEGIN
 90
        5
170
     1
 91
        0
 92
    32768
 62
   257
 93
        1
300
CONTENTFORMAT
  1
CONTENTFORMAT_BEGIN
 90
        0
 91
        0
 92
        4
 93
        0
300

 40
0.0
140
1.0
 94
        5
 62
     0
340
11
144
0.25
309
CONTENTFORMAT_END
171
     1
301
MARGIN
  1
CELLMARGIN_BEGIN
 40
0.06
 40
0.06
 40
0.06
 40
0.06
 40
0.06
 40
0.06
309
CELLMARGIN_END
 94
        6
 95
        1
302
GRIDFORMAT
  1
GRIDFORMAT_BEGIN
 90
        0
 91
        1
 62
     0
 92
       -2
340
14
 93
        0
 40
0.045
309
GRIDFORMAT_END
 95
        2
302
GRIDFORMAT
  1
GRIDFORMAT_BEGIN
 90
        0
 91
        1
 62
     0
 92
       -2
340
14
 93
        0
 40
0.045
309
GRIDFORMAT_END
 95
        4
302
GRIDFORMAT
  1
GRIDFORMAT_BEGIN
 90
        0
 91
        1
 62
     0
 92
       -2
340
14
 93
        0
 40
0.045
309
GRIDFORMAT_END
 95
        8
302
GRIDFORMAT
  1
GRIDFORMAT_BEGIN
 90
        0
 91
        1
 62
     0
 92
       -2
340
14
 93
        0
 40
0.045
309
GRIDFORMAT_END
 95
       16
302
GRIDFORMAT
  1
GRIDFORMAT_BEGIN
 90
        0
 91
        1
 62
     0
 92
       -2
340
14
 93
        0
 40
0.045
309
GRIDFORMAT_END
 95
       32
302
GRIDFORMAT
  1
GRIDFORMAT_BEGIN
 90
        0
 91
        1
 62
     0
 92
       -2
340
14
 93
        0
 40
0.045
309
GRIDFORMAT_END
309
TABLEFORMAT_END
  1
CELLSTYLE_BEGIN
 90
        1
 91
        1
300
_TITLE
309
CELLSTYLE_END
300
CELLSTYLE
  1
TABLEFORMAT_BEGIN
 90
        5
170
     1
 91
        0
 92
        0
 62
   257
 93
        1
300
CONTENTFORMAT
  1
CONTENTFORMAT_BEGIN
 90
        0
 91
        0
 92
        4
 93
        0
300

 40
0.0
140
1.0
 94
        5
 62
     0
340
11
144
0.18
309
CONTENTFORMAT_END
171
     1
301
MARGIN
  1
CELLMARGIN_BEGIN
 40
0.06
 40
0.06
 40
0.06
 40
0.06
 40
0.06
 40
0.06
309
CELLMARGIN_END
 94
        6
 95
        1
302
GRIDFORMAT
  1
GRIDFORMAT_BEGIN
 90
        0
 91
        1
 62
     0
 92
       -2
340
14
 93
        0
 40
0.045
309
GRIDFORMAT_END
 95
        2
302
GRIDFORMAT
  1
GRIDFORMAT_BEGIN
 90
        0
 91
        1
 62
     0
 92
       -2
340
14
 93
        0
 40
0.045
309
GRIDFORMAT_END
 95
        4
302
GRIDFORMAT
  1
GRIDFORMAT_BEGIN
 90
        0
 91
        1
 62
     0
 92
       -2
340
14
 93
        0
 40
0.045
309
GRIDFORMAT_END
 95
        8
302
GRIDFORMAT
  1
GRIDFORMAT_BEGIN
 90
        0
 91
        1
 62
     0
 92
       -2
340
14
 93
        0
 40
0.045
309
GRIDFORMAT_END
 95
       16
302
GRIDFORMAT
  1
GRIDFORMAT_BEGIN
 90
        0
 91
        1
 62
     0
 92
       -2
340
14
 93
        0
 40
0.045
309
GRIDFORMAT_END
 95
       32
302
GRIDFORMAT
  1
GRIDFORMAT_BEGIN
 90
        0
 91
        1
 62
     0
 92
       -2
340
14
 93
        0
 40
0.045
309
GRIDFORMAT_END
309
TABLEFORMAT_END
  1
CELLSTYLE_BEGIN
 90
        2
 91
        1
300
_HEADER
309
CELLSTYLE_END
300
CELLSTYLE
  1
TABLEFORMAT_BEGIN
 90
        5
170
     1
 91
        0
 92
        0
 62
   257
 93
        1
300
CONTENTFORMAT
  1
CONTENTFORMAT_BEGIN
 90
        0
 91
        0
 92
        4
 93
        0
300

 40
0.0
140
1.0
 94
        2
 62
     0
340
11
144
0.18
309
CONTENTFORMAT_END
171
     1
301
MARGIN
  1
CELLMARGIN_BEGIN
 40
0.06
 40
0.06
 40
0.06
 40
0.06
 40
0.06
 40
0.06
309
CELLMARGIN_END
 94
        6
 95
        1
302
GRIDFORMAT
  1
GRIDFORMAT_BEGIN
 90
        0
 91
        1
 62
     0
 92
       -2
340
14
 93
        0
 40
0.045
309
GRIDFORMAT_END
 95
        2
302
GRIDFORMAT
  1
GRIDFORMAT_BEGIN
 90
        0
 91
        1
 62
     0
 92
       -2
340
14
 93
        0
 40
0.045
309
GRIDFORMAT_END
 95
        4
302
GRIDFORMAT
  1
GRIDFORMAT_BEGIN
 90
        0
 91
        1
 62
     0
 92
       -2
340
14
 93
        0
 40
0.045
309
GRIDFORMAT_END
 95
        8
302
GRIDFORMAT
  1
GRIDFORMAT_BEGIN
 90
        0
 91
        1
 62
     0
 92
       -2
340
14
 93
        0
 40
0.045
309
GRIDFORMAT_END
 95
       16
302
GRIDFORMAT
  1
GRIDFORMAT_BEGIN
 90
        0
 91
        1
 62
     0
 92
       -2
340
14
 93
        0
 40
0.045
309
GRIDFORMAT_END
 95
       32
302
GRIDFORMAT
  1
GRIDFORMAT_BEGIN
 90
        0
 91
        1
 62
     0
 92
       -2
340
14
 93
        0
 40
0.045
309
GRIDFORMAT_END
309
TABLEFORMAT_END
  1
CELLSTYLE_BEGIN
 90
        3
 91
        2
300
_DATA
309
CELLSTYLE_END
  0
XRECORD
  5
165
102
{ACAD_REACTORS
330
164
102
}
330
164
100
AcDbXrecord
280
     1
102
RTVSPropertyOp0
 70
     1
102
RTVSPropertyOp1
 70
     1
102
RTVSPropertyOp2
 70
     1
102
RTVSPropertyOp3
 70
     1
102
RTVSPropertyOp4
 70
     1
102
RTVSPropertyOp5
 70
     1
102
RTVSPropertyOp6
 70
     1
102
RTVSPropertyOp7
 70
     1
102
RTVSPropertyOp8
 70
     1
102
RTVSPropertyOp9
 70
     1
102
RTVSPropertyOp10
 70
     1
102
RTVSPropertyOp11
 70
     1
102
RTVSPropertyOp12
 70
     1
102
RTVSPropertyOp13
 70
     1
102
RTVSPropertyOp14
 70
     1
102
RTVSPropertyOp15
 70
     1
102
RTVSPropertyOp16
 70
     1
102
RTVSPropertyOp17
 70
     1
102
RTVSPropertyOp18
 70
     1
102
RTVSPropertyOp19
 70
     1
102
RTVSPropertyOp20
 70
     1
102
RTVSPropertyOp21
 70
     1
102
RTVSPropertyOp22
 70
     1
102
RTVSPropertyOp23
 70
     1
102
RTVSPropertyOp24
 70
     1
102
RTVSPropertyOp25
 70
     1
102
RTVSPropertyOp26
 70
     1
102
RTVSPropertyOp27
 70
     1
102
RTVSPropertyOp28
 70
     1
102
RTVSPropertyOp29
 70
     1
102
RTVSPropertyOp30
 70
     1
102
RTVSPropertyOp31
 70
     1
102
RTVSPropertyOp32
 70
     1
102
RTVSPropertyOp33
 70
     1
102
RTVSPropertyOp34
 70
     1
102
RTVSPropertyOp35
 70
     1
102
RTVSPropertyOp36
 70
     1
102
RTVSPropertyOp37
 70
     1
102
RTVSPropertyOp38
 70
     1
102
RTVSPropertyOp39
 70
     1
102
RTVSPropertyOp40
 70
     1
102
RTVSPropertyOp41
 70
     1
102
RTVSPropertyOp42
 70
     1
102
RTVSPropertyOp43
 70
     1
102
RTVSPropertyOp44
 70
     1
102
RTVSPropertyOp45
 70
     1
102
RTVSPropertyOp46
 70
     1
102
RTVSPropertyOp47
 70
     1
102
RTVSPropertyOp48
 70
     1
102
RTVSPropertyOp49
 70
     1
102
RTVSPropertyOp50
 70
     1
102
RTVSPropertyOp51
 70
     0
102
RTVSPropertyOp52
 70
     0
102
RTVSPropertyOp53
 70
     1
102
RTVSPropertyOp54
 70
     1
102
RTVSPropertyOp55
 70
     1
102
RTVSPropertyOp56
 70
     1
102
RTVSPropertyOp57
 70
     1
102
RTVSPost2010Prop28
280
     1
102
RTVSPost2010PropOp28
 70
     1
102
RTVSPost2010Prop29
280
     1
102
RTVSPost2010PropOp29
 70
     1
102
RTVSPost2010Prop30
280
     0
102
RTVSPost2010PropOp30
 70
     1
102
RTVSPost2010Prop31
280
     0
102
RTVSPost2010PropOp31
 70
     1
102
RTVSPost2010Prop32
280
     0
102
RTVSPost2010PropOp32
 70
     1
102
RTVSPost2010Prop33
280
     0
102
RTVSPost2010PropOp33
 70
     1
102
RTVSPost2010Prop34
280
     0
102
RTVSPost2010PropOp34
 70
     1
102
RTVSPost2010Prop35
280
     0
102
RTVSPost2010PropOp35
 70
     1
102
RTVSPost2010Prop36
280
     0
102
RTVSPost2010PropOp36
 70
     1
102
RTVSPost2010Prop37
 90
       50
102
RTVSPost2010PropOp37
 70
     1
102
RTVSPost2010Prop38
140
0.0
102
RTVSPost2010PropOp38
 70
     1
102
RTVSPost2010Prop39
140
1.0
102
RTVSPost2010PropOp39
 70
     1
102
RTVSPost2010Prop40
 90
        0
102
RTVSPost2010PropOp40
 70
     1
102
RTVSPost2010Prop41ColorIndex
 90
       18
102
RTVSPost2010Prop41ColorRGB
 90
        0
102
RTVSPost2010PropOp41
 70
     1
102
RTVSPost2010Prop42
 90
       50
102
RTVSPost2010PropOp42
 70
     1
102
RTVSPost2010Prop43
 90
        3
102
RTVSPost2010PropOp43
 70
     1
102
RTVSPost2010Prop44ColorIndex
 90
        5
102
RTVSPost2010Prop44ColorRGB
 90
      255
102
RTVSPost2010PropOp44
 70
     1
102
RTVSPost2010Prop45
280
     0
102
RTVSPost2010PropOp45
 70
     1
102
RTVSPost2010Prop46
 90
       50
102
RTVSPost2010PropOp46
 70
     1
102
RTVSPost2010Prop47
 90
       50
102
RTVSPost2010PropOp47
 70
     1
102
RTVSPost2010Prop48
 90
       50
102
RTVSPost2010PropOp48
 70
     1
102
RTVSPost2010Prop49
280
     0
102
RTVSPost2010PropOp49
 70
     1
102
RTVSPost2010Prop50
 90
       50
102
RTVSPost2010PropOp50
 70
     1
102
RTVSPost2010Prop51ColorIndex
 90
      256
102
RTVSPost2010Prop51ColorRGB
 90
-16777216
102
RTVSPost2010PropOp51
 70
     0
102
RTVSPost2010Prop52
140
1.0
102
RTVSPost2010PropOp52
 70
     0
102
RTVSPost2010Prop53
 90
        2
102
RTVSPost2010PropOp53
 70
     1
102
RTVSPost2010Prop54
  1
strokes_ogs.tif
102
RTVSPost2010PropOp54
 70
     1
102
RTVSPost2010Prop55
280
     0
102
RTVSPost2010PropOp55
 70
     1
102
RTVSPost2010Prop56
140
1.0
102
RTVSPost2010PropOp56
 70
     1
102
RTVSPost2010Prop57
140
1.0
102
RTVSPost2010PropOp57
 70
     1
  0
XRECORD
  5
16B
102
{ACAD_REACTORS
330
16A
102
}
330
16A
100
AcDbXrecord
280
     1
102
RTVSPropertyOp0
 70
     1
102
RTVSPropertyOp1
 70
     1
102
RTVSPropertyOp2
 70
     1
102
RTVSPropertyOp3
 70
     1
102
RTVSPropertyOp4
 70
     1
102
RTVSPropertyOp5
 70
     1
102
RTVSPropertyOp6
 70
     1
102
RTVSPropertyOp7
 70
     1
102
RTVSPropertyOp8
 70
     1
102
RTVSPropertyOp9
 70
     1
102
RTVSPropertyOp10
 70
     1
102
RTVSPropertyOp11
 70
     1
102
RTVSPropertyOp12
 70
     1
102
RTVSPropertyOp13
 70
     1
102
RTVSPropertyOp14
 70
     1
102
RTVSPropertyOp15
 70
     1
102
RTVSPropertyOp16
 70
     1
102
RTVSPropertyOp17
 70
     1
102
RTVSPropertyOp18
 70
     1
102
RTVSPropertyOp19
 70
     1
102
RTVSPropertyOp20
 70
     1
102
RTVSPropertyOp21
 70
     1
102
RTVSPropertyOp22
 70
     1
102
RTVSPropertyOp23
 70
     1
102
RTVSPropertyOp24
 70
     1
102
RTVSPropertyOp25
 70
     1
102
RTVSPropertyOp26
 70
     1
102
RTVSPropertyOp27
 70
     1
102
RTVSPropertyOp28
 70
     1
102
RTVSPropertyOp29
 70
     1
102
RTVSPropertyOp30
 70
     1
102
RTVSPropertyOp31
 70
     1
102
RTVSPropertyOp32
 70
     1
102
RTVSPropertyOp33
 70
     1
102
RTVSPropertyOp34
 70
     1
102
RTVSPropertyOp35
 70
     1
102
RTVSPropertyOp36
 70
     1
102
RTVSPropertyOp37
 70
     1
102
RTVSPropertyOp38
 70
     1
102
RTVSPropertyOp39
 70
     1
102
RTVSPropertyOp40
 70
     1
102
RTVSPropertyOp41
 70
     1
102
RTVSPropertyOp42
 70
     1
102
RTVSPropertyOp43
 70
     1
102
RTVSPropertyOp44
 70
     1
102
RTVSPropertyOp45
 70
     1
102
RTVSPropertyOp46
 70
     1
102
RTVSPropertyOp47
 70
     1
102
RTVSPropertyOp48
 70
     1
102
RTVSPropertyOp49
 70
     1
102
RTVSPropertyOp50
 70
     1
102
RTVSPropertyOp51
 70
     0
102
RTVSPropertyOp52
 70
     0
102
RTVSPropertyOp53
 70
     1
102
RTVSPropertyOp54
 70
     1
102
RTVSPropertyOp55
 70
     1
102
RTVSPropertyOp56
 70
     1
102
RTVSPropertyOp57
 70
     1
102
RTVSPost2010Prop28
280
     0
102
RTVSPost2010PropOp28
 70
     1
102
RTVSPost2010Prop29
280
     1
102
RTVSPost2010PropOp29
 70
     1
102
RTVSPost2010Prop30
280
     1
102
RTVSPost2010PropOp30
 70
     1
102
RTVSPost2010Prop31
280
     0
102
RTVSPost2010PropOp31
 70
     1
102
RTVSPost2010Prop32
280
     0
102
RTVSPost2010PropOp32
 70
     1
102
RTVSPost2010Prop33
280
     0
102
RTVSPost2010PropOp33
 70
     1
102
RTVSPost2010Prop34
280
     0
102
RTVSPost2010PropOp34
 70
     1
102
RTVSPost2010Prop35
280
     0
102
RTVSPost2010PropOp35
 70
     1
102
RTVSPost2010Prop36
280
     0
102
RTVSPost2010PropOp36
 70
     1
102
RTVSPost2010Prop37
 90
       50
102
RTVSPost2010PropOp37
 70
     1
102
RTVSPost2010Prop38
140
0.0
102
RTVSPost2010PropOp38
 70
     1
102
RTVSPost2010Prop39
140
1.0
102
RTVSPost2010PropOp39
 70
     1
102
RTVSPost2010Prop40
 90
        0
102
RTVSPost2010PropOp40
 70
     1
102
RTVSPost2010Prop41ColorIndex
 90
       18
102
RTVSPost2010Prop41ColorRGB
 90
        0
102
RTVSPost2010PropOp41
 70
     1
102
RTVSPost2010Prop42
 90
       50
102
RTVSPost2010PropOp42
 70
     1
102
RTVSPost2010Prop43
 90
        3
102
RTVSPost2010PropOp43
 70
     1
102
RTVSPost2010Prop44ColorIndex
 90
        5
102
RTVSPost2010Prop44ColorRGB
 90
      255
102
RTVSPost2010PropOp44
 70
     1
102
RTVSPost2010Prop45
280
     0
102
RTVSPost2010PropOp45
 70
     1
102
RTVSPost2010Prop46
 90
       50
102
RTVSPost2010PropOp46
 70
     1
102
RTVSPost2010Prop47
 90
       50
102
RTVSPost2010PropOp47
 70
     1
102
RTVSPost2010Prop48
 90
       50
102
RTVSPost2010PropOp48
 70
     1
102
RTVSPost2010Prop49
280
     0
102
RTVSPost2010PropOp49
 70
     1
102
RTVSPost2010Prop50
 90
       50
102
RTVSPost2010PropOp50
 70
     1
102
RTVSPost2010Prop51ColorIndex
 90
      256
102
RTVSPost2010Prop51ColorRGB
 90
-16777216
102
RTVSPost2010PropOp51
 70
     0
102
RTVSPost2010Prop52
140
1.0
102
RTVSPost2010PropOp52
 70
     0
102
RTVSPost2010Prop53
 90
        2
102
RTVSPost2010PropOp53
 70
     1
102
RTVSPost2010Prop54
  1
strokes_ogs.tif
102
RTVSPost2010PropOp54
 70
     1
102
RTVSPost2010Prop55
280
     0
102
RTVSPost2010PropOp55
 70
     1
102
RTVSPost2010Prop56
140
1.0
102
RTVSPost2010PropOp56
 70
     1
102
RTVSPost2010Prop57
140
1.0
102
RTVSPost2010PropOp57
 70
     1
  0
XRECORD
  5
173
102
{ACAD_REACTORS
330
172
102
}
330
172
100
AcDbXrecord
280
     1
102
RTVSPropertyOp0
 70
     1
102
RTVSPropertyOp1
 70
     1
102
RTVSPropertyOp2
 70
     1
102
RTVSPropertyOp3
 70
     1
102
RTVSPropertyOp4
 70
     1
102
RTVSPropertyOp5
 70
     1
102
RTVSPropertyOp6
 70
     1
102
RTVSPropertyOp7
 70
     1
102
RTVSPropertyOp8
 70
     1
102
RTVSPropertyOp9
 70
     1
102
RTVSPropertyOp10
 70
     1
102
RTVSPropertyOp11
 70
     1
102
RTVSPropertyOp12
 70
     1
102
RTVSPropertyOp13
 70
     1
102
RTVSPropertyOp14
 70
     1
102
RTVSPropertyOp15
 70
     1
102
RTVSPropertyOp16
 70
     1
102
RTVSPropertyOp17
 70
     1
102
RTVSPropertyOp18
 70
     1
102
RTVSPropertyOp19
 70
     1
102
RTVSPropertyOp20
 70
     1
102
RTVSPropertyOp21
 70
     1
102
RTVSPropertyOp22
 70
     1
102
RTVSPropertyOp23
 70
     1
102
RTVSPropertyOp24
 70
     1
102
RTVSPropertyOp25
 70
     1
102
RTVSPropertyOp26
 70
     1
102
RTVSPropertyOp27
 70
     1
102
RTVSPropertyOp28
 70
     1
102
RTVSPropertyOp29
 70
     1
102
RTVSPropertyOp30
 70
     1
102
RTVSPropertyOp31
 70
     1
102
RTVSPropertyOp32
 70
     1
102
RTVSPropertyOp33
 70
     1
102
RTVSPropertyOp34
 70
     1
102
RTVSPropertyOp35
 70
     1
102
RTVSPropertyOp36
 70
     1
102
RTVSPropertyOp37
 70
     1
102
RTVSPropertyOp38
 70
     1
102
RTVSPropertyOp39
 70
     1
102
RTVSPropertyOp40
 70
     1
102
RTVSPropertyOp41
 70
     1
102
RTVSPropertyOp42
 70
     1
102
RTVSPropertyOp43
 70
     1
102
RTVSPropertyOp44
 70
     1
102
RTVSPropertyOp45
 70
     1
102
RTVSPropertyOp46
 70
     1
102
RTVSPropertyOp47
 70
     1
102
RTVSPropertyOp48
 70
     1
102
RTVSPropertyOp49
 70
     1
102
RTVSPropertyOp50
 70
     1
102
RTVSPropertyOp51
 70
     0
102
RTVSPropertyOp52
 70
     0
102
RTVSPropertyOp53
 70
     1
102
RTVSPropertyOp54
 70
     1
102
RTVSPropertyOp55
 70
     1
102
RTVSPropertyOp56
 70
     1
102
RTVSPropertyOp57
 70
     1
102
RTVSPost2010Prop28
280
     0
102
RTVSPost2010PropOp28
 70
     1
102
RTVSPost2010Prop29
280
     1
102
RTVSPost2010PropOp29
 70
     1
102
RTVSPost2010Prop30
280
     1
102
RTVSPost2010PropOp30
 70
     1
102
RTVSPost2010Prop31
280
     0
102
RTVSPost2010PropOp31
 70
     1
102
RTVSPost2010Prop32
280
     0
102
RTVSPost2010PropOp32
 70
     1
102
RTVSPost2010Prop33
280
     0
102
RTVSPost2010PropOp33
 70
     1
102
RTVSPost2010Prop34
280
     0
102
RTVSPost2010PropOp34
 70
     1
102
RTVSPost2010Prop35
280
     0
102
RTVSPost2010PropOp35
 70
     1
102
RTVSPost2010Prop36
280
     0
102
RTVSPost2010PropOp36
 70
     1
102
RTVSPost2010Prop37
 90
       50
102
RTVSPost2010PropOp37
 70
     1
102
RTVSPost2010Prop38
140
0.0
102
RTVSPost2010PropOp38
 70
     1
102
RTVSPost2010Prop39
140
1.0
102
RTVSPost2010PropOp39
 70
     1
102
RTVSPost2010Prop40
 90
        0
102
RTVSPost2010PropOp40
 70
     1
102
RTVSPost2010Prop41ColorIndex
 90
       18
102
RTVSPost2010Prop41ColorRGB
 90
        0
102
RTVSPost2010PropOp41
 70
     1
102
RTVSPost2010Prop42
 90
       50
102
RTVSPost2010PropOp42
 70
     1
102
RTVSPost2010Prop43
 90
        3
102
RTVSPost2010PropOp43
 70
     1
102
RTVSPost2010Prop44ColorIndex
 90
        5
102
RTVSPost2010Prop44ColorRGB
 90
      255
102
RTVSPost2010PropOp44
 70
     1
102
RTVSPost2010Prop45
280
     0
102
RTVSPost2010PropOp45
 70
     1
102
RTVSPost2010Prop46
 90
       50
102
RTVSPost2010PropOp46
 70
     1
102
RTVSPost2010Prop47
 90
       50
102
RTVSPost2010PropOp47
 70
     1
102
RTVSPost2010Prop48
 90
       50
102
RTVSPost2010PropOp48
 70
     1
102
RTVSPost2010Prop49
280
     0
102
RTVSPost2010PropOp49
 70
     1
102
RTVSPost2010Prop50
 90
       50
102
RTVSPost2010PropOp50
 70
     1
102
RTVSPost2010Prop51ColorIndex
 90
      256
102
RTVSPost2010Prop51ColorRGB
 90
-16777216
102
RTVSPost2010PropOp51
 70
     0
102
RTVSPost2010Prop52
140
1.0
102
RTVSPost2010PropOp52
 70
     0
102
RTVSPost2010Prop53
 90
        2
102
RTVSPost2010PropOp53
 70
     1
102
RTVSPost2010Prop54
  1
strokes_ogs.tif
102
RTVSPost2010PropOp54
 70
     1
102
RTVSPost2010Prop55
280
     0
102
RTVSPost2010PropOp55
 70
     1
102
RTVSPost2010Prop56
140
1.0
102
RTVSPost2010PropOp56
 70
     1
102
RTVSPost2010Prop57
140
1.0
102
RTVSPost2010PropOp57
 70
     1
  0
XRECORD
  5
17B
102
{ACAD_REACTORS
330
17A
102
}
330
17A
100
AcDbXrecord
280
     1
102
RTVSPropertyOp0
 70
     1
102
RTVSPropertyOp1
 70
     1
102
RTVSPropertyOp2
 70
     1
102
RTVSPropertyOp3
 70
     1
102
RTVSPropertyOp4
 70
     1
102
RTVSPropertyOp5
 70
     1
102
RTVSPropertyOp6
 70
     1
102
RTVSPropertyOp7
 70
     1
102
RTVSPropertyOp8
 70
     1
102
RTVSPropertyOp9
 70
     1
102
RTVSPropertyOp10
 70
     1
102
RTVSPropertyOp11
 70
     1
102
RTVSPropertyOp12
 70
     1
102
RTVSPropertyOp13
 70
     1
102
RTVSPropertyOp14
 70
     1
102
RTVSPropertyOp15
 70
     1
102
RTVSPropertyOp16
 70
     1
102
RTVSPropertyOp17
 70
     1
102
RTVSPropertyOp18
 70
     1
102
RTVSPropertyOp19
 70
     1
102
RTVSPropertyOp20
 70
     1
102
RTVSPropertyOp21
 70
     1
102
RTVSPropertyOp22
 70
     1
102
RTVSPropertyOp23
 70
     1
102
RTVSPropertyOp24
 70
     1
102
RTVSPropertyOp25
 70
     1
102
RTVSPropertyOp26
 70
     1
102
RTVSPropertyOp27
 70
     1
102
RTVSPropertyOp28
 70
     1
102
RTVSPropertyOp29
 70
     1
102
RTVSPropertyOp30
 70
     1
102
RTVSPropertyOp31
 70
     1
102
RTVSPropertyOp32
 70
     1
102
RTVSPropertyOp33
 70
     1
102
RTVSPropertyOp34
 70
     1
102
RTVSPropertyOp35
 70
     1
102
RTVSPropertyOp36
 70
     1
102
RTVSPropertyOp37
 70
     1
102
RTVSPropertyOp38
 70
     1
102
RTVSPropertyOp39
 70
     1
102
RTVSPropertyOp40
 70
     1
102
RTVSPropertyOp41
 70
     1
102
RTVSPropertyOp42
 70
     1
102
RTVSPropertyOp43
 70
     1
102
RTVSPropertyOp44
 70
     1
102
RTVSPropertyOp45
 70
     1
102
RTVSPropertyOp46
 70
     1
102
RTVSPropertyOp47
 70
     1
102
RTVSPropertyOp48
 70
     1
102
RTVSPropertyOp49
 70
     1
102
RTVSPropertyOp50
 70
     1
102
RTVSPropertyOp51
 70
     0
102
RTVSPropertyOp52
 70
     0
102
RTVSPropertyOp53
 70
     1
102
RTVSPropertyOp54
 70
     1
102
RTVSPropertyOp55
 70
     1
102
RTVSPropertyOp56
 70
     1
102
RTVSPropertyOp57
 70
     1
102
RTVSPost2010Prop28
280
     0
102
RTVSPost2010PropOp28
 70
     1
102
RTVSPost2010Prop29
280
     1
102
RTVSPost2010PropOp29
 70
     1
102
RTVSPost2010Prop30
280
     1
102
RTVSPost2010PropOp30
 70
     1
102
RTVSPost2010Prop31
280
     0
102
RTVSPost2010PropOp31
 70
     1
102
RTVSPost2010Prop32
280
     0
102
RTVSPost2010PropOp32
 70
     1
102
RTVSPost2010Prop33
280
     0
102
RTVSPost2010PropOp33
 70
     1
102
RTVSPost2010Prop34
280
     0
102
RTVSPost2010PropOp34
 70
     1
102
RTVSPost2010Prop35
280
     0
102
RTVSPost2010PropOp35
 70
     1
102
RTVSPost2010Prop36
280
     0
102
RTVSPost2010PropOp36
 70
     1
102
RTVSPost2010Prop37
 90
       50
102
RTVSPost2010PropOp37
 70
     1
102
RTVSPost2010Prop38
140
0.0
102
RTVSPost2010PropOp38
 70
     1
102
RTVSPost2010Prop39
140
1.0
102
RTVSPost2010PropOp39
 70
     1
102
RTVSPost2010Prop40
 90
        0
102
RTVSPost2010PropOp40
 70
     1
102
RTVSPost2010Prop41ColorIndex
 90
       18
102
RTVSPost2010Prop41ColorRGB
 90
        0
102
RTVSPost2010PropOp41
 70
     1
102
RTVSPost2010Prop42
 90
       50
102
RTVSPost2010PropOp42
 70
     1
102
RTVSPost2010Prop43
 90
        3
102
RTVSPost2010PropOp43
 70
     1
102
RTVSPost2010Prop44ColorIndex
 90
        5
102
RTVSPost2010Prop44ColorRGB
 90
      255
102
RTVSPost2010PropOp44
 70
     1
102
RTVSPost2010Prop45
280
     0
102
RTVSPost2010PropOp45
 70
     1
102
RTVSPost2010Prop46
 90
       50
102
RTVSPost2010PropOp46
 70
     1
102
RTVSPost2010Prop47
 90
       50
102
RTVSPost2010PropOp47
 70
     1
102
RTVSPost2010Prop48
 90
       50
102
RTVSPost2010PropOp48
 70
     1
102
RTVSPost2010Prop49
280
     0
102
RTVSPost2010PropOp49
 70
     1
102
RTVSPost2010Prop50
 90
       50
102
RTVSPost2010PropOp50
 70
     1
102
RTVSPost2010Prop51ColorIndex
 90
      256
102
RTVSPost2010Prop51ColorRGB
 90
-16777216
102
RTVSPost2010PropOp51
 70
     0
102
RTVSPost2010Prop52
140
1.0
102
RTVSPost2010PropOp52
 70
     0
102
RTVSPost2010Prop53
 90
        2
102
RTVSPost2010PropOp53
 70
     1
102
RTVSPost2010Prop54
  1
strokes_ogs.tif
102
RTVSPost2010PropOp54
 70
     1
102
RTVSPost2010Prop55
280
     0
102
RTVSPost2010PropOp55
 70
     1
102
RTVSPost2010Prop56
140
1.0
102
RTVSPost2010PropOp56
 70
     1
102
RTVSPost2010Prop57
140
1.0
102
RTVSPost2010PropOp57
 70
     1
  0
XRECORD
  5
16F
102
{ACAD_REACTORS
330
16E
102
}
330
16E
100
AcDbXrecord
280
     1
102
RTVSPropertyOp0
 70
     1
102
RTVSPropertyOp1
 70
     1
102
RTVSPropertyOp2
 70
     1
102
RTVSPropertyOp3
 70
     1
102
RTVSPropertyOp4
 70
     1
102
RTVSPropertyOp5
 70
     1
102
RTVSPropertyOp6
 70
     1
102
RTVSPropertyOp7
 70
     1
102
RTVSPropertyOp8
 70
     1
102
RTVSPropertyOp9
 70
     1
102
RTVSPropertyOp10
 70
     1
102
RTVSPropertyOp11
 70
     1
102
RTVSPropertyOp12
 70
     1
102
RTVSPropertyOp13
 70
     1
102
RTVSPropertyOp14
 70
     1
102
RTVSPropertyOp15
 70
     1
102
RTVSPropertyOp16
 70
     1
102
RTVSPropertyOp17
 70
     1
102
RTVSPropertyOp18
 70
     1
102
RTVSPropertyOp19
 70
     1
102
RTVSPropertyOp20
 70
     1
102
RTVSPropertyOp21
 70
     1
102
RTVSPropertyOp22
 70
     1
102
RTVSPropertyOp23
 70
     1
102
RTVSPropertyOp24
 70
     1
102
RTVSPropertyOp25
 70
     1
102
RTVSPropertyOp26
 70
     1
102
RTVSPropertyOp27
 70
     1
102
RTVSPropertyOp28
 70
     1
102
RTVSPropertyOp29
 70
     1
102
RTVSPropertyOp30
 70
     1
102
RTVSPropertyOp31
 70
     1
102
RTVSPropertyOp32
 70
     1
102
RTVSPropertyOp33
 70
     1
102
RTVSPropertyOp34
 70
     1
102
RTVSPropertyOp35
 70
     1
102
RTVSPropertyOp36
 70
     1
102
RTVSPropertyOp37
 70
     1
102
RTVSPropertyOp38
 70
     1
102
RTVSPropertyOp39
 70
     1
102
RTVSPropertyOp40
 70
     1
102
RTVSPropertyOp41
 70
     1
102
RTVSPropertyOp42
 70
     1
102
RTVSPropertyOp43
 70
     1
102
RTVSPropertyOp44
 70
     1
102
RTVSPropertyOp45
 70
     1
102
RTVSPropertyOp46
 70
     1
102
RTVSPropertyOp47
 70
     1
102
RTVSPropertyOp48
 70
     1
102
RTVSPropertyOp49
 70
     1
102
RTVSPropertyOp50
 70
     1
102
RTVSPropertyOp51
 70
     0
102
RTVSPropertyOp52
 70
     0
102
RTVSPropertyOp53
 70
     1
102
RTVSPropertyOp54
 70
     1
102
RTVSPropertyOp55
 70
     1
102
RTVSPropertyOp56
 70
     1
102
RTVSPropertyOp57
 70
     1
102
RTVSPost2010Prop28
280
     0
102
RTVSPost2010PropOp28
 70
     1
102
RTVSPost2010Prop29
280
     1
102
RTVSPost2010PropOp29
 70
     1
102
RTVSPost2010Prop30
280
     1
102
RTVSPost2010PropOp30
 70
     1
102
RTVSPost2010Prop31
280
     0
102
RTVSPost2010PropOp31
 70
     1
102
RTVSPost2010Prop32
280
     0
102
RTVSPost2010PropOp32
 70
     1
102
RTVSPost2010Prop33
280
     0
102
RTVSPost2010PropOp33
 70
     1
102
RTVSPost2010Prop34
280
     0
102
RTVSPost2010PropOp34
 70
     1
102
RTVSPost2010Prop35
280
     0
102
RTVSPost2010PropOp35
 70
     1
102
RTVSPost2010Prop36
280
     0
102
RTVSPost2010PropOp36
 70
     1
102
RTVSPost2010Prop37
 90
       50
102
RTVSPost2010PropOp37
 70
     1
102
RTVSPost2010Prop38
140
0.0
102
RTVSPost2010PropOp38
 70
     1
102
RTVSPost2010Prop39
140
1.0
102
RTVSPost2010PropOp39
 70
     1
102
RTVSPost2010Prop40
 90
        0
102
RTVSPost2010PropOp40
 70
     1
102
RTVSPost2010Prop41ColorIndex
 90
       18
102
RTVSPost2010Prop41ColorRGB
 90
        0
102
RTVSPost2010PropOp41
 70
     1
102
RTVSPost2010Prop42
 90
       50
102
RTVSPost2010PropOp42
 70
     1
102
RTVSPost2010Prop43
 90
        3
102
RTVSPost2010PropOp43
 70
     1
102
RTVSPost2010Prop44ColorIndex
 90
        5
102
RTVSPost2010Prop44ColorRGB
 90
      255
102
RTVSPost2010PropOp44
 70
     1
102
RTVSPost2010Prop45
280
     0
102
RTVSPost2010PropOp45
 70
     1
102
RTVSPost2010Prop46
 90
       50
102
RTVSPost2010PropOp46
 70
     1
102
RTVSPost2010Prop47
 90
       50
102
RTVSPost2010PropOp47
 70
     1
102
RTVSPost2010Prop48
 90
       50
102
RTVSPost2010PropOp48
 70
     1
102
RTVSPost2010Prop49
280
     0
102
RTVSPost2010PropOp49
 70
     1
102
RTVSPost2010Prop50
 90
       50
102
RTVSPost2010PropOp50
 70
     1
102
RTVSPost2010Prop51ColorIndex
 90
      256
102
RTVSPost2010Prop51ColorRGB
 90
-16777216
102
RTVSPost2010PropOp51
 70
     0
102
RTVSPost2010Prop52
140
1.0
102
RTVSPost2010PropOp52
 70
     0
102
RTVSPost2010Prop53
 90
        2
102
RTVSPost2010PropOp53
 70
     1
102
RTVSPost2010Prop54
  1
strokes_ogs.tif
102
RTVSPost2010PropOp54
 70
     1
102
RTVSPost2010Prop55
280
     0
102
RTVSPost2010PropOp55
 70
     1
102
RTVSPost2010Prop56
140
1.0
102
RTVSPost2010PropOp56
 70
     1
102
RTVSPost2010Prop57
140
1.0
102
RTVSPost2010PropOp57
 70
     1
  0
XRECORD
  5
171
102
{ACAD_REACTORS
330
170
102
}
330
170
100
AcDbXrecord
280
     1
102
RTVSPropertyOp0
 70
     1
102
RTVSPropertyOp1
 70
     1
102
RTVSPropertyOp2
 70
     1
102
RTVSPropertyOp3
 70
     1
102
RTVSPropertyOp4
 70
     1
102
RTVSPropertyOp5
 70
     1
102
RTVSPropertyOp6
 70
     1
102
RTVSPropertyOp7
 70
     1
102
RTVSPropertyOp8
 70
     1
102
RTVSPropertyOp9
 70
     1
102
RTVSPropertyOp10
 70
     1
102
RTVSPropertyOp11
 70
     1
102
RTVSPropertyOp12
 70
     1
102
RTVSPropertyOp13
 70
     1
102
RTVSPropertyOp14
 70
     1
102
RTVSPropertyOp15
 70
     1
102
RTVSPropertyOp16
 70
     1
102
RTVSPropertyOp17
 70
     1
102
RTVSPropertyOp18
 70
     1
102
RTVSPropertyOp19
 70
     1
102
RTVSPropertyOp20
 70
     1
102
RTVSPropertyOp21
 70
     1
102
RTVSPropertyOp22
 70
     1
102
RTVSPropertyOp23
 70
     1
102
RTVSPropertyOp24
 70
     1
102
RTVSPropertyOp25
 70
     1
102
RTVSPropertyOp26
 70
     1
102
RTVSPropertyOp27
 70
     1
102
RTVSPropertyOp28
 70
     1
102
RTVSPropertyOp29
 70
     1
102
RTVSPropertyOp30
 70
     1
102
RTVSPropertyOp31
 70
     1
102
RTVSPropertyOp32
 70
     1
102
RTVSPropertyOp33
 70
     1
102
RTVSPropertyOp34
 70
     1
102
RTVSPropertyOp35
 70
     1
102
RTVSPropertyOp36
 70
     1
102
RTVSPropertyOp37
 70
     1
102
RTVSPropertyOp38
 70
     1
102
RTVSPropertyOp39
 70
     1
102
RTVSPropertyOp40
 70
     1
102
RTVSPropertyOp41
 70
     1
102
RTVSPropertyOp42
 70
     1
102
RTVSPropertyOp43
 70
     1
102
RTVSPropertyOp44
 70
     1
102
RTVSPropertyOp45
 70
     1
102
RTVSPropertyOp46
 70
     1
102
RTVSPropertyOp47
 70
     1
102
RTVSPropertyOp48
 70
     1
102
RTVSPropertyOp49
 70
     1
102
RTVSPropertyOp50
 70
     1
102
RTVSPropertyOp51
 70
     0
102
RTVSPropertyOp52
 70
     0
102
RTVSPropertyOp53
 70
     1
102
RTVSPropertyOp54
 70
     1
102
RTVSPropertyOp55
 70
     1
102
RTVSPropertyOp56
 70
     1
102
RTVSPropertyOp57
 70
     1
102
RTVSPost2010Prop28
280
     0
102
RTVSPost2010PropOp28
 70
     1
102
RTVSPost2010Prop29
280
     1
102
RTVSPost2010PropOp29
 70
     1
102
RTVSPost2010Prop30
280
     1
102
RTVSPost2010PropOp30
 70
     1
102
RTVSPost2010Prop31
280
     0
102
RTVSPost2010PropOp31
 70
     1
102
RTVSPost2010Prop32
280
     0
102
RTVSPost2010PropOp32
 70
     1
102
RTVSPost2010Prop33
280
     0
102
RTVSPost2010PropOp33
 70
     1
102
RTVSPost2010Prop34
280
     0
102
RTVSPost2010PropOp34
 70
     1
102
RTVSPost2010Prop35
280
     0
102
RTVSPost2010PropOp35
 70
     1
102
RTVSPost2010Prop36
280
     0
102
RTVSPost2010PropOp36
 70
     1
102
RTVSPost2010Prop37
 90
       50
102
RTVSPost2010PropOp37
 70
     1
102
RTVSPost2010Prop38
140
0.0
102
RTVSPost2010PropOp38
 70
     1
102
RTVSPost2010Prop39
140
1.0
102
RTVSPost2010PropOp39
 70
     1
102
RTVSPost2010Prop40
 90
        0
102
RTVSPost2010PropOp40
 70
     1
102
RTVSPost2010Prop41ColorIndex
 90
       18
102
RTVSPost2010Prop41ColorRGB
 90
        0
102
RTVSPost2010PropOp41
 70
     1
102
RTVSPost2010Prop42
 90
       50
102
RTVSPost2010PropOp42
 70
     1
102
RTVSPost2010Prop43
 90
        3
102
RTVSPost2010PropOp43
 70
     1
102
RTVSPost2010Prop44ColorIndex
 90
        5
102
RTVSPost2010Prop44ColorRGB
 90
      255
102
RTVSPost2010PropOp44
 70
     1
102
RTVSPost2010Prop45
280
     0
102
RTVSPost2010PropOp45
 70
     1
102
RTVSPost2010Prop46
 90
       50
102
RTVSPost2010PropOp46
 70
     1
102
RTVSPost2010Prop47
 90
       50
102
RTVSPost2010PropOp47
 70
     1
102
RTVSPost2010Prop48
 90
       50
102
RTVSPost2010PropOp48
 70
     1
102
RTVSPost2010Prop49
280
     0
102
RTVSPost2010PropOp49
 70
     1
102
RTVSPost2010Prop50
 90
       50
102
RTVSPost2010PropOp50
 70
     1
102
RTVSPost2010Prop51ColorIndex
 90
      256
102
RTVSPost2010Prop51ColorRGB
 90
-16777216
102
RTVSPost2010PropOp51
 70
     0
102
RTVSPost2010Prop52
140
1.0
102
RTVSPost2010PropOp52
 70
     0
102
RTVSPost2010Prop53
 90
        2
102
RTVSPost2010PropOp53
 70
     1
102
RTVSPost2010Prop54
  1
strokes_ogs.tif
102
RTVSPost2010PropOp54
 70
     1
102
RTVSPost2010Prop55
280
     0
102
RTVSPost2010PropOp55
 70
     1
102
RTVSPost2010Prop56
140
1.0
102
RTVSPost2010PropOp56
 70
     1
102
RTVSPost2010Prop57
140
1.0
102
RTVSPost2010PropOp57
 70
     1
  0
XRECORD
  5
181
102
{ACAD_REACTORS
330
180
102
}
330
180
100
AcDbXrecord
280
     1
102
RTVSPropertyOp0
 70
     0
102
RTVSPropertyOp1
 70
     0
102
RTVSPropertyOp2
 70
     0
102
RTVSPropertyOp3
 70
     0
102
RTVSPropertyOp4
 70
     0
102
RTVSPropertyOp5
 70
     0
102
RTVSPropertyOp6
 70
     0
102
RTVSPropertyOp7
 70
     0
102
RTVSPropertyOp8
 70
     0
102
RTVSPropertyOp9
 70
     0
102
RTVSPropertyOp10
 70
     0
102
RTVSPropertyOp11
 70
     0
102
RTVSPropertyOp12
 70
     0
102
RTVSPropertyOp13
 70
     0
102
RTVSPropertyOp14
 70
     2
102
RTVSPropertyOp15
 70
     0
102
RTVSPropertyOp16
 70
     0
102
RTVSPropertyOp17
 70
     0
102
RTVSPropertyOp18
 70
     0
102
RTVSPropertyOp19
 70
     0
102
RTVSPropertyOp20
 70
     0
102
RTVSPropertyOp21
 70
     0
102
RTVSPropertyOp22
 70
     0
102
RTVSPropertyOp23
 70
     0
102
RTVSPropertyOp24
 70
     0
102
RTVSPropertyOp25
 70
     0
102
RTVSPropertyOp26
 70
     0
102
RTVSPropertyOp27
 70
     0
102
RTVSPropertyOp28
 70
     0
102
RTVSPropertyOp29
 70
     0
102
RTVSPropertyOp30
 70
     0
102
RTVSPropertyOp31
 70
     0
102
RTVSPropertyOp32
 70
     0
102
RTVSPropertyOp33
 70
     0
102
RTVSPropertyOp34
 70
     0
102
RTVSPropertyOp35
 70
     0
102
RTVSPropertyOp36
 70
     0
102
RTVSPropertyOp37
 70
     0
102
RTVSPropertyOp38
 70
     0
102
RTVSPropertyOp39
 70
     0
102
RTVSPropertyOp40
 70
     0
102
RTVSPropertyOp41
 70
     0
102
RTVSPropertyOp42
 70
     0
102
RTVSPropertyOp43
 70
     0
102
RTVSPropertyOp44
 70
     0
102
RTVSPropertyOp45
 70
     0
102
RTVSPropertyOp46
 70
     0
102
RTVSPropertyOp47
 70
     0
102
RTVSPropertyOp48
 70
     0
102
RTVSPropertyOp49
 70
     0
102
RTVSPropertyOp50
 70
     0
102
RTVSPropertyOp51
 70
     0
102
RTVSPropertyOp52
 70
     0
102
RTVSPropertyOp53
 70
     0
102
RTVSPropertyOp54
 70
     0
102
RTVSPropertyOp55
 70
     0
102
RTVSPropertyOp56
 70
     0
102
RTVSPropertyOp57
 70
     0
102
RTVSPost2010Prop28
280
     0
102
RTVSPost2010PropOp28
 70
     0
102
RTVSPost2010Prop29
280
     1
102
RTVSPost2010PropOp29
 70
     0
102
RTVSPost2010Prop30
280
     1
102
RTVSPost2010PropOp30
 70
     0
102
RTVSPost2010Prop31
280
     0
102
RTVSPost2010PropOp31
 70
     0
102
RTVSPost2010Prop32
280
     0
102
RTVSPost2010PropOp32
 70
     0
102
RTVSPost2010Prop33
280
     0
102
RTVSPost2010PropOp33
 70
     0
102
RTVSPost2010Prop34
280
     0
102
RTVSPost2010PropOp34
 70
     0
102
RTVSPost2010Prop35
280
     0
102
RTVSPost2010PropOp35
 70
     0
102
RTVSPost2010Prop36
280
     0
102
RTVSPost2010PropOp36
 70
     0
102
RTVSPost2010Prop37
 90
       50
102
RTVSPost2010PropOp37
 70
     0
102
RTVSPost2010Prop38
140
0.0
102
RTVSPost2010PropOp38
 70
     0
102
RTVSPost2010Prop39
140
1.0
102
RTVSPost2010PropOp39
 70
     0
102
RTVSPost2010Prop40
 90
        0
102
RTVSPost2010PropOp40
 70
     0
102
RTVSPost2010Prop41ColorIndex
 90
       18
102
RTVSPost2010Prop41ColorRGB
 90
        0
102
RTVSPost2010PropOp41
 70
     0
102
RTVSPost2010Prop42
 90
       50
102
RTVSPost2010PropOp42
 70
     0
102
RTVSPost2010Prop43
 90
        3
102
RTVSPost2010PropOp43
 70
     0
102
RTVSPost2010Prop44ColorIndex
 90
        5
102
RTVSPost2010Prop44ColorRGB
 90
      255
102
RTVSPost2010PropOp44
 70
     0
102
RTVSPost2010Prop45
280
     0
102
RTVSPost2010PropOp45
 70
     0
102
RTVSPost2010Prop46
 90
       50
102
RTVSPost2010PropOp46
 70
     0
102
RTVSPost2010Prop47
 90
       50
102
RTVSPost2010PropOp47
 70
     0
102
RTVSPost2010Prop48
 90
       50
102
RTVSPost2010PropOp48
 70
     0
102
RTVSPost2010Prop49
280
     0
102
RTVSPost2010PropOp49
 70
     0
102
RTVSPost2010Prop50
 90
       50
102
RTVSPost2010PropOp50
 70
     0
102
RTVSPost2010Prop51ColorIndex
 90
      256
102
RTVSPost2010Prop51ColorRGB
 90
-16777216
102
RTVSPost2010PropOp51
 70
     0
102
RTVSPost2010Prop52
140
1.0
102
RTVSPost2010PropOp52
 70
     0
102
RTVSPost2010Prop53
 90
        2
102
RTVSPost2010PropOp53
 70
     0
102
RTVSPost2010Prop54
  1
strokes_ogs.tif
102
RTVSPost2010PropOp54
 70
     0
102
RTVSPost2010Prop55
280
     0
102
RTVSPost2010PropOp55
 70
     0
102
RTVSPost2010Prop56
140
1.0
102
RTVSPost2010PropOp56
 70
     0
102
RTVSPost2010Prop57
140
1.0
102
RTVSPost2010PropOp57
 70
     0
  0
XRECORD
  5
179
102
{ACAD_REACTORS
330
178
102
}
330
178
100
AcDbXrecord
280
     1
102
RTVSPropertyOp0
 70
     1
102
RTVSPropertyOp1
 70
     1
102
RTVSPropertyOp2
 70
     1
102
RTVSPropertyOp3
 70
     1
102
RTVSPropertyOp4
 70
     1
102
RTVSPropertyOp5
 70
     1
102
RTVSPropertyOp6
 70
     1
102
RTVSPropertyOp7
 70
     1
102
RTVSPropertyOp8
 70
     1
102
RTVSPropertyOp9
 70
     1
102
RTVSPropertyOp10
 70
     1
102
RTVSPropertyOp11
 70
     1
102
RTVSPropertyOp12
 70
     1
102
RTVSPropertyOp13
 70
     1
102
RTVSPropertyOp14
 70
     1
102
RTVSPropertyOp15
 70
     1
102
RTVSPropertyOp16
 70
     1
102
RTVSPropertyOp17
 70
     1
102
RTVSPropertyOp18
 70
     1
102
RTVSPropertyOp19
 70
     1
102
RTVSPropertyOp20
 70
     1
102
RTVSPropertyOp21
 70
     1
102
RTVSPropertyOp22
 70
     1
102
RTVSPropertyOp23
 70
     1
102
RTVSPropertyOp24
 70
     1
102
RTVSPropertyOp25
 70
     1
102
RTVSPropertyOp26
 70
     1
102
RTVSPropertyOp27
 70
     1
102
RTVSPropertyOp28
 70
     1
102
RTVSPropertyOp29
 70
     1
102
RTVSPropertyOp30
 70
     1
102
RTVSPropertyOp31
 70
     1
102
RTVSPropertyOp32
 70
     1
102
RTVSPropertyOp33
 70
     1
102
RTVSPropertyOp34
 70
     1
102
RTVSPropertyOp35
 70
     1
102
RTVSPropertyOp36
 70
     1
102
RTVSPropertyOp37
 70
     1
102
RTVSPropertyOp38
 70
     1
102
RTVSPropertyOp39
 70
     1
102
RTVSPropertyOp40
 70
     1
102
RTVSPropertyOp41
 70
     1
102
RTVSPropertyOp42
 70
     1
102
RTVSPropertyOp43
 70
     1
102
RTVSPropertyOp44
 70
     1
102
RTVSPropertyOp45
 70
     1
102
RTVSPropertyOp46
 70
     1
102
RTVSPropertyOp47
 70
     1
102
RTVSPropertyOp48
 70
     1
102
RTVSPropertyOp49
 70
     1
102
RTVSPropertyOp50
 70
     1
102
RTVSPropertyOp51
 70
     0
102
RTVSPropertyOp52
 70
     0
102
RTVSPropertyOp53
 70
     1
102
RTVSPropertyOp54
 70
     1
102
RTVSPropertyOp55
 70
     1
102
RTVSPropertyOp56
 70
     1
102
RTVSPropertyOp57
 70
     1
102
RTVSPost2010Prop28
280
     0
102
RTVSPost2010PropOp28
 70
     1
102
RTVSPost2010Prop29
280
     1
102
RTVSPost2010PropOp29
 70
     1
102
RTVSPost2010Prop30
280
     1
102
RTVSPost2010PropOp30
 70
     1
102
RTVSPost2010Prop31
280
     0
102
RTVSPost2010PropOp31
 70
     1
102
RTVSPost2010Prop32
280
     0
102
RTVSPost2010PropOp32
 70
     1
102
RTVSPost2010Prop33
280
     0
102
RTVSPost2010PropOp33
 70
     1
102
RTVSPost2010Prop34
280
     0
102
RTVSPost2010PropOp34
 70
     1
102
RTVSPost2010Prop35
280
     0
102
RTVSPost2010PropOp35
 70
     1
102
RTVSPost2010Prop36
280
     0
102
RTVSPost2010PropOp36
 70
     1
102
RTVSPost2010Prop37
 90
       50
102
RTVSPost2010PropOp37
 70
     1
102
RTVSPost2010Prop38
140
0.0
102
RTVSPost2010PropOp38
 70
     1
102
RTVSPost2010Prop39
140
1.0
102
RTVSPost2010PropOp39
 70
     1
102
RTVSPost2010Prop40
 90
        0
102
RTVSPost2010PropOp40
 70
     1
102
RTVSPost2010Prop41ColorIndex
 90
       18
102
RTVSPost2010Prop41ColorRGB
 90
        0
102
RTVSPost2010PropOp41
 70
     1
102
RTVSPost2010Prop42
 90
       50
102
RTVSPost2010PropOp42
 70
     1
102
RTVSPost2010Prop43
 90
        3
102
RTVSPost2010PropOp43
 70
     1
102
RTVSPost2010Prop44ColorIndex
 90
        5
102
RTVSPost2010Prop44ColorRGB
 90
      255
102
RTVSPost2010PropOp44
 70
     1
102
RTVSPost2010Prop45
280
     0
102
RTVSPost2010PropOp45
 70
     1
102
RTVSPost2010Prop46
 90
       50
102
RTVSPost2010PropOp46
 70
     1
102
RTVSPost2010Prop47
 90
       50
102
RTVSPost2010PropOp47
 70
     1
102
RTVSPost2010Prop48
 90
       50
102
RTVSPost2010PropOp48
 70
     1
102
RTVSPost2010Prop49
280
     0
102
RTVSPost2010PropOp49
 70
     1
102
RTVSPost2010Prop50
 90
       50
102
RTVSPost2010PropOp50
 70
     1
102
RTVSPost2010Prop51ColorIndex
 90
      256
102
RTVSPost2010Prop51ColorRGB
 90
-16777216
102
RTVSPost2010PropOp51
 70
     0
102
RTVSPost2010Prop52
140
1.0
102
RTVSPost2010PropOp52
 70
     0
102
RTVSPost2010Prop53
 90
        2
102
RTVSPost2010PropOp53
 70
     1
102
RTVSPost2010Prop54
  1
strokes_ogs.tif
102
RTVSPost2010PropOp54
 70
     1
102
RTVSPost2010Prop55
280
     0
102
RTVSPost2010PropOp55
 70
     1
102
RTVSPost2010Prop56
140
1.0
102
RTVSPost2010PropOp56
 70
     1
102
RTVSPost2010Prop57
140
1.0
102
RTVSPost2010PropOp57
 70
     1
  0
XRECORD
  5
15D
102
{ACAD_REACTORS
330
15C
102
}
330
15C
100
AcDbXrecord
280
     1
102
RTVSPropertyOp0
 70
     1
102
RTVSPropertyOp1
 70
     1
102
RTVSPropertyOp2
 70
     1
102
RTVSPropertyOp3
 70
     1
102
RTVSPropertyOp4
 70
     1
102
RTVSPropertyOp5
 70
     1
102
RTVSPropertyOp6
 70
     1
102
RTVSPropertyOp7
 70
     1
102
RTVSPropertyOp8
 70
     1
102
RTVSPropertyOp9
 70
     1
102
RTVSPropertyOp10
 70
     1
102
RTVSPropertyOp11
 70
     1
102
RTVSPropertyOp12
 70
     1
102
RTVSPropertyOp13
 70
     1
102
RTVSPropertyOp14
 70
     1
102
RTVSPropertyOp15
 70
     1
102
RTVSPropertyOp16
 70
     1
102
RTVSPropertyOp17
 70
     1
102
RTVSPropertyOp18
 70
     1
102
RTVSPropertyOp19
 70
     1
102
RTVSPropertyOp20
 70
     1
102
RTVSPropertyOp21
 70
     1
102
RTVSPropertyOp22
 70
     1
102
RTVSPropertyOp23
 70
     1
102
RTVSPropertyOp24
 70
     1
102
RTVSPropertyOp25
 70
     1
102
RTVSPropertyOp26
 70
     1
102
RTVSPropertyOp27
 70
     1
102
RTVSPropertyOp28
 70
     1
102
RTVSPropertyOp29
 70
     1
102
RTVSPropertyOp30
 70
     1
102
RTVSPropertyOp31
 70
     1
102
RTVSPropertyOp32
 70
     1
102
RTVSPropertyOp33
 70
     1
102
RTVSPropertyOp34
 70
     1
102
RTVSPropertyOp35
 70
     1
102
RTVSPropertyOp36
 70
     1
102
RTVSPropertyOp37
 70
     1
102
RTVSPropertyOp38
 70
     1
102
RTVSPropertyOp39
 70
     1
102
RTVSPropertyOp40
 70
     1
102
RTVSPropertyOp41
 70
     1
102
RTVSPropertyOp42
 70
     1
102
RTVSPropertyOp43
 70
     1
102
RTVSPropertyOp44
 70
     1
102
RTVSPropertyOp45
 70
     1
102
RTVSPropertyOp46
 70
     1
102
RTVSPropertyOp47
 70
     1
102
RTVSPropertyOp48
 70
     1
102
RTVSPropertyOp49
 70
     1
102
RTVSPropertyOp50
 70
     1
102
RTVSPropertyOp51
 70
     0
102
RTVSPropertyOp52
 70
     0
102
RTVSPropertyOp53
 70
     1
102
RTVSPropertyOp54
 70
     1
102
RTVSPropertyOp55
 70
     1
102
RTVSPropertyOp56
 70
     1
102
RTVSPropertyOp57
 70
     1
102
RTVSPost2010Prop28
280
     0
102
RTVSPost2010PropOp28
 70
     1
102
RTVSPost2010Prop29
280
     1
102
RTVSPost2010PropOp29
 70
     1
102
RTVSPost2010Prop30
280
     1
102
RTVSPost2010PropOp30
 70
     1
102
RTVSPost2010Prop31
280
     0
102
RTVSPost2010PropOp31
 70
     1
102
RTVSPost2010Prop32
280
     0
102
RTVSPost2010PropOp32
 70
     1
102
RTVSPost2010Prop33
280
     0
102
RTVSPost2010PropOp33
 70
     1
102
RTVSPost2010Prop34
280
     0
102
RTVSPost2010PropOp34
 70
     1
102
RTVSPost2010Prop35
280
     0
102
RTVSPost2010PropOp35
 70
     1
102
RTVSPost2010Prop36
280
     0
102
RTVSPost2010PropOp36
 70
     1
102
RTVSPost2010Prop37
 90
       50
102
RTVSPost2010PropOp37
 70
     1
102
RTVSPost2010Prop38
140
0.0
102
RTVSPost2010PropOp38
 70
     1
102
RTVSPost2010Prop39
140
1.0
102
RTVSPost2010PropOp39
 70
     1
102
RTVSPost2010Prop40
 90
        0
102
RTVSPost2010PropOp40
 70
     1
102
RTVSPost2010Prop41ColorIndex
 90
       18
102
RTVSPost2010Prop41ColorRGB
 90
        0
102
RTVSPost2010PropOp41
 70
     1
102
RTVSPost2010Prop42
 90
       50
102
RTVSPost2010PropOp42
 70
     1
102
RTVSPost2010Prop43
 90
        3
102
RTVSPost2010PropOp43
 70
     1
102
RTVSPost2010Prop44ColorIndex
 90
        5
102
RTVSPost2010Prop44ColorRGB
 90
      255
102
RTVSPost2010PropOp44
 70
     1
102
RTVSPost2010Prop45
280
     0
102
RTVSPost2010PropOp45
 70
     1
102
RTVSPost2010Prop46
 90
       50
102
RTVSPost2010PropOp46
 70
     1
102
RTVSPost2010Prop47
 90
       50
102
RTVSPost2010PropOp47
 70
     1
102
RTVSPost2010Prop48
 90
       50
102
RTVSPost2010PropOp48
 70
     1
102
RTVSPost2010Prop49
280
     0
102
RTVSPost2010PropOp49
 70
     1
102
RTVSPost2010Prop50
 90
       50
102
RTVSPost2010PropOp50
 70
     1
102
RTVSPost2010Prop51ColorIndex
 90
      256
102
RTVSPost2010Prop51ColorRGB
 90
-16777216
102
RTVSPost2010PropOp51
 70
     0
102
RTVSPost2010Prop52
140
1.0
102
RTVSPost2010PropOp52
 70
     0
102
RTVSPost2010Prop53
 90
        2
102
RTVSPost2010PropOp53
 70
     1
102
RTVSPost2010Prop54
  1
strokes_ogs.tif
102
RTVSPost2010PropOp54
 70
     1
102
RTVSPost2010Prop55
280
     0
102
RTVSPost2010PropOp55
 70
     1
102
RTVSPost2010Prop56
140
1.0
102
RTVSPost2010PropOp56
 70
     1
102
RTVSPost2010Prop57
140
1.0
102
RTVSPost2010PropOp57
 70
     1
  0
XRECORD
  5
15F
102
{ACAD_REACTORS
330
15E
102
}
330
15E
100
AcDbXrecord
280
     1
102
RTVSPropertyOp0
 70
     1
102
RTVSPropertyOp1
 70
     1
102
RTVSPropertyOp2
 70
     1
102
RTVSPropertyOp3
 70
     1
102
RTVSPropertyOp4
 70
     1
102
RTVSPropertyOp5
 70
     1
102
RTVSPropertyOp6
 70
     1
102
RTVSPropertyOp7
 70
     1
102
RTVSPropertyOp8
 70
     1
102
RTVSPropertyOp9
 70
     1
102
RTVSPropertyOp10
 70
     1
102
RTVSPropertyOp11
 70
     1
102
RTVSPropertyOp12
 70
     1
102
RTVSPropertyOp13
 70
     1
102
RTVSPropertyOp14
 70
     1
102
RTVSPropertyOp15
 70
     1
102
RTVSPropertyOp16
 70
     1
102
RTVSPropertyOp17
 70
     1
102
RTVSPropertyOp18
 70
     1
102
RTVSPropertyOp19
 70
     1
102
RTVSPropertyOp20
 70
     1
102
RTVSPropertyOp21
 70
     1
102
RTVSPropertyOp22
 70
     1
102
RTVSPropertyOp23
 70
     1
102
RTVSPropertyOp24
 70
     1
102
RTVSPropertyOp25
 70
     1
102
RTVSPropertyOp26
 70
     1
102
RTVSPropertyOp27
 70
     1
102
RTVSPropertyOp28
 70
     1
102
RTVSPropertyOp29
 70
     1
102
RTVSPropertyOp30
 70
     1
102
RTVSPropertyOp31
 70
     1
102
RTVSPropertyOp32
 70
     1
102
RTVSPropertyOp33
 70
     1
102
RTVSPropertyOp34
 70
     1
102
RTVSPropertyOp35
 70
     1
102
RTVSPropertyOp36
 70
     1
102
RTVSPropertyOp37
 70
     1
102
RTVSPropertyOp38
 70
     1
102
RTVSPropertyOp39
 70
     1
102
RTVSPropertyOp40
 70
     1
102
RTVSPropertyOp41
 70
     1
102
RTVSPropertyOp42
 70
     1
102
RTVSPropertyOp43
 70
     1
102
RTVSPropertyOp44
 70
     1
102
RTVSPropertyOp45
 70
     1
102
RTVSPropertyOp46
 70
     1
102
RTVSPropertyOp47
 70
     1
102
RTVSPropertyOp48
 70
     1
102
RTVSPropertyOp49
 70
     1
102
RTVSPropertyOp50
 70
     1
102
RTVSPropertyOp51
 70
     0
102
RTVSPropertyOp52
 70
     0
102
RTVSPropertyOp53
 70
     1
102
RTVSPropertyOp54
 70
     1
102
RTVSPropertyOp55
 70
     1
102
RTVSPropertyOp56
 70
     1
102
RTVSPropertyOp57
 70
     1
102
RTVSPost2010Prop28
280
     0
102
RTVSPost2010PropOp28
 70
     1
102
RTVSPost2010Prop29
280
     1
102
RTVSPost2010PropOp29
 70
     1
102
RTVSPost2010Prop30
280
     1
102
RTVSPost2010PropOp30
 70
     1
102
RTVSPost2010Prop31
280
     0
102
RTVSPost2010PropOp31
 70
     1
102
RTVSPost2010Prop32
280
     0
102
RTVSPost2010PropOp32
 70
     1
102
RTVSPost2010Prop33
280
     0
102
RTVSPost2010PropOp33
 70
     1
102
RTVSPost2010Prop34
280
     0
102
RTVSPost2010PropOp34
 70
     1
102
RTVSPost2010Prop35
280
     0
102
RTVSPost2010PropOp35
 70
     1
102
RTVSPost2010Prop36
280
     0
102
RTVSPost2010PropOp36
 70
     1
102
RTVSPost2010Prop37
 90
       50
102
RTVSPost2010PropOp37
 70
     1
102
RTVSPost2010Prop38
140
0.0
102
RTVSPost2010PropOp38
 70
     1
102
RTVSPost2010Prop39
140
1.0
102
RTVSPost2010PropOp39
 70
     1
102
RTVSPost2010Prop40
 90
        0
102
RTVSPost2010PropOp40
 70
     1
102
RTVSPost2010Prop41ColorIndex
 90
       18
102
RTVSPost2010Prop41ColorRGB
 90
        0
102
RTVSPost2010PropOp41
 70
     1
102
RTVSPost2010Prop42
 90
       50
102
RTVSPost2010PropOp42
 70
     1
102
RTVSPost2010Prop43
 90
        3
102
RTVSPost2010PropOp43
 70
     1
102
RTVSPost2010Prop44ColorIndex
 90
        5
102
RTVSPost2010Prop44ColorRGB
 90
      255
102
RTVSPost2010PropOp44
 70
     1
102
RTVSPost2010Prop45
280
     0
102
RTVSPost2010PropOp45
 70
     1
102
RTVSPost2010Prop46
 90
       50
102
RTVSPost2010PropOp46
 70
     1
102
RTVSPost2010Prop47
 90
       50
102
RTVSPost2010PropOp47
 70
     1
102
RTVSPost2010Prop48
 90
       50
102
RTVSPost2010PropOp48
 70
     1
102
RTVSPost2010Prop49
280
     0
102
RTVSPost2010PropOp49
 70
     1
102
RTVSPost2010Prop50
 90
       50
102
RTVSPost2010PropOp50
 70
     1
102
RTVSPost2010Prop51ColorIndex
 90
      256
102
RTVSPost2010Prop51ColorRGB
 90
-16777216
102
RTVSPost2010PropOp51
 70
     0
102
RTVSPost2010Prop52
140
1.0
102
RTVSPost2010PropOp52
 70
     0
102
RTVSPost2010Prop53
 90
        2
102
RTVSPost2010PropOp53
 70
     1
102
RTVSPost2010Prop54
  1
strokes_ogs.tif
102
RTVSPost2010PropOp54
 70
     1
102
RTVSPost2010Prop55
280
     0
102
RTVSPost2010PropOp55
 70
     1
102
RTVSPost2010Prop56
140
1.0
102
RTVSPost2010PropOp56
 70
     1
102
RTVSPost2010Prop57
140
1.0
102
RTVSPost2010PropOp57
 70
     1
  0
XRECORD
  5
161
102
{ACAD_REACTORS
330
160
102
}
330
160
100
AcDbXrecord
280
     1
102
RTVSPropertyOp0
 70
     1
102
RTVSPropertyOp1
 70
     1
102
RTVSPropertyOp2
 70
     1
102
RTVSPropertyOp3
 70
     1
102
RTVSPropertyOp4
 70
     1
102
RTVSPropertyOp5
 70
     1
102
RTVSPropertyOp6
 70
     1
102
RTVSPropertyOp7
 70
     1
102
RTVSPropertyOp8
 70
     1
102
RTVSPropertyOp9
 70
     1
102
RTVSPropertyOp10
 70
     1
102
RTVSPropertyOp11
 70
     1
102
RTVSPropertyOp12
 70
     1
102
RTVSPropertyOp13
 70
     1
102
RTVSPropertyOp14
 70
     1
102
RTVSPropertyOp15
 70
     1
102
RTVSPropertyOp16
 70
     1
102
RTVSPropertyOp17
 70
     1
102
RTVSPropertyOp18
 70
     1
102
RTVSPropertyOp19
 70
     1
102
RTVSPropertyOp20
 70
     1
102
RTVSPropertyOp21
 70
     1
102
RTVSPropertyOp22
 70
     1
102
RTVSPropertyOp23
 70
     1
102
RTVSPropertyOp24
 70
     1
102
RTVSPropertyOp25
 70
     1
102
RTVSPropertyOp26
 70
     1
102
RTVSPropertyOp27
 70
     1
102
RTVSPropertyOp28
 70
     1
102
RTVSPropertyOp29
 70
     1
102
RTVSPropertyOp30
 70
     1
102
RTVSPropertyOp31
 70
     1
102
RTVSPropertyOp32
 70
     1
102
RTVSPropertyOp33
 70
     1
102
RTVSPropertyOp34
 70
     1
102
RTVSPropertyOp35
 70
     1
102
RTVSPropertyOp36
 70
     1
102
RTVSPropertyOp37
 70
     1
102
RTVSPropertyOp38
 70
     1
102
RTVSPropertyOp39
 70
     1
102
RTVSPropertyOp40
 70
     1
102
RTVSPropertyOp41
 70
     1
102
RTVSPropertyOp42
 70
     1
102
RTVSPropertyOp43
 70
     1
102
RTVSPropertyOp44
 70
     1
102
RTVSPropertyOp45
 70
     1
102
RTVSPropertyOp46
 70
     1
102
RTVSPropertyOp47
 70
     1
102
RTVSPropertyOp48
 70
     1
102
RTVSPropertyOp49
 70
     1
102
RTVSPropertyOp50
 70
     1
102
RTVSPropertyOp51
 70
     0
102
RTVSPropertyOp52
 70
     0
102
RTVSPropertyOp53
 70
     1
102
RTVSPropertyOp54
 70
     1
102
RTVSPropertyOp55
 70
     1
102
RTVSPropertyOp56
 70
     1
102
RTVSPropertyOp57
 70
     1
102
RTVSPost2010Prop28
280
     0
102
RTVSPost2010PropOp28
 70
     1
102
RTVSPost2010Prop29
280
     1
102
RTVSPost2010PropOp29
 70
     1
102
RTVSPost2010Prop30
280
     1
102
RTVSPost2010PropOp30
 70
     1
102
RTVSPost2010Prop31
280
     0
102
RTVSPost2010PropOp31
 70
     1
102
RTVSPost2010Prop32
280
     0
102
RTVSPost2010PropOp32
 70
     1
102
RTVSPost2010Prop33
280
     0
102
RTVSPost2010PropOp33
 70
     1
102
RTVSPost2010Prop34
280
     0
102
RTVSPost2010PropOp34
 70
     1
102
RTVSPost2010Prop35
280
     0
102
RTVSPost2010PropOp35
 70
     1
102
RTVSPost2010Prop36
280
     0
102
RTVSPost2010PropOp36
 70
     1
102
RTVSPost2010Prop37
 90
       50
102
RTVSPost2010PropOp37
 70
     1
102
RTVSPost2010Prop38
140
0.0
102
RTVSPost2010PropOp38
 70
     1
102
RTVSPost2010Prop39
140
1.0
102
RTVSPost2010PropOp39
 70
     1
102
RTVSPost2010Prop40
 90
        0
102
RTVSPost2010PropOp40
 70
     1
102
RTVSPost2010Prop41ColorIndex
 90
       18
102
RTVSPost2010Prop41ColorRGB
 90
        0
102
RTVSPost2010PropOp41
 70
     1
102
RTVSPost2010Prop42
 90
       50
102
RTVSPost2010PropOp42
 70
     1
102
RTVSPost2010Prop43
 90
        3
102
RTVSPost2010PropOp43
 70
     1
102
RTVSPost2010Prop44ColorIndex
 90
        5
102
RTVSPost2010Prop44ColorRGB
 90
      255
102
RTVSPost2010PropOp44
 70
     1
102
RTVSPost2010Prop45
280
     0
102
RTVSPost2010PropOp45
 70
     1
102
RTVSPost2010Prop46
 90
       50
102
RTVSPost2010PropOp46
 70
     1
102
RTVSPost2010Prop47
 90
       50
102
RTVSPost2010PropOp47
 70
     1
102
RTVSPost2010Prop48
 90
       50
102
RTVSPost2010PropOp48
 70
     1
102
RTVSPost2010Prop49
280
     0
102
RTVSPost2010PropOp49
 70
     1
102
RTVSPost2010Prop50
 90
       50
102
RTVSPost2010PropOp50
 70
     1
102
RTVSPost2010Prop51ColorIndex
 90
      256
102
RTVSPost2010Prop51ColorRGB
 90
-16777216
102
RTVSPost2010PropOp51
 70
     0
102
RTVSPost2010Prop52
140
1.0
102
RTVSPost2010PropOp52
 70
     0
102
RTVSPost2010Prop53
 90
        2
102
RTVSPost2010PropOp53
 70
     1
102
RTVSPost2010Prop54
  1
strokes_ogs.tif
102
RTVSPost2010PropOp54
 70
     1
102
RTVSPost2010Prop55
280
     0
102
RTVSPost2010PropOp55
 70
     1
102
RTVSPost2010Prop56
140
1.0
102
RTVSPost2010PropOp56
 70
     1
102
RTVSPost2010Prop57
140
1.0
102
RTVSPost2010PropOp57
 70
     1
  0
XRECORD
  5
163
102
{ACAD_REACTORS
330
162
102
}
330
162
100
AcDbXrecord
280
     1
102
RTVSPropertyOp0
 70
     1
102
RTVSPropertyOp1
 70
     1
102
RTVSPropertyOp2
 70
     1
102
RTVSPropertyOp3
 70
     1
102
RTVSPropertyOp4
 70
     1
102
RTVSPropertyOp5
 70
     1
102
RTVSPropertyOp6
 70
     1
102
RTVSPropertyOp7
 70
     1
102
RTVSPropertyOp8
 70
     1
102
RTVSPropertyOp9
 70
     1
102
RTVSPropertyOp10
 70
     1
102
RTVSPropertyOp11
 70
     1
102
RTVSPropertyOp12
 70
     1
102
RTVSPropertyOp13
 70
     1
102
RTVSPropertyOp14
 70
     1
102
RTVSPropertyOp15
 70
     1
102
RTVSPropertyOp16
 70
     1
102
RTVSPropertyOp17
 70
     1
102
RTVSPropertyOp18
 70
     1
102
RTVSPropertyOp19
 70
     1
102
RTVSPropertyOp20
 70
     1
102
RTVSPropertyOp21
 70
     1
102
RTVSPropertyOp22
 70
     1
102
RTVSPropertyOp23
 70
     1
102
RTVSPropertyOp24
 70
     1
102
RTVSPropertyOp25
 70
     1
102
RTVSPropertyOp26
 70
     1
102
RTVSPropertyOp27
 70
     1
102
RTVSPropertyOp28
 70
     1
102
RTVSPropertyOp29
 70
     1
102
RTVSPropertyOp30
 70
     1
102
RTVSPropertyOp31
 70
     1
102
RTVSPropertyOp32
 70
     1
102
RTVSPropertyOp33
 70
     1
102
RTVSPropertyOp34
 70
     1
102
RTVSPropertyOp35
 70
     1
102
RTVSPropertyOp36
 70
     1
102
RTVSPropertyOp37
 70
     1
102
RTVSPropertyOp38
 70
     1
102
RTVSPropertyOp39
 70
     1
102
RTVSPropertyOp40
 70
     1
102
RTVSPropertyOp41
 70
     1
102
RTVSPropertyOp42
 70
     1
102
RTVSPropertyOp43
 70
     1
102
RTVSPropertyOp44
 70
     1
102
RTVSPropertyOp45
 70
     1
102
RTVSPropertyOp46
 70
     1
102
RTVSPropertyOp47
 70
     1
102
RTVSPropertyOp48
 70
     1
102
RTVSPropertyOp49
 70
     1
102
RTVSPropertyOp50
 70
     1
102
RTVSPropertyOp51
 70
     0
102
RTVSPropertyOp52
 70
     0
102
RTVSPropertyOp53
 70
     1
102
RTVSPropertyOp54
 70
     1
102
RTVSPropertyOp55
 70
     1
102
RTVSPropertyOp56
 70
     1
102
RTVSPropertyOp57
 70
     1
102
RTVSPost2010Prop28
280
     0
102
RTVSPost2010PropOp28
 70
     1
102
RTVSPost2010Prop29
280
     1
102
RTVSPost2010PropOp29
 70
     1
102
RTVSPost2010Prop30
280
     1
102
RTVSPost2010PropOp30
 70
     1
102
RTVSPost2010Prop31
280
     0
102
RTVSPost2010PropOp31
 70
     1
102
RTVSPost2010Prop32
280
     0
102
RTVSPost2010PropOp32
 70
     1
102
RTVSPost2010Prop33
280
     0
102
RTVSPost2010PropOp33
 70
     1
102
RTVSPost2010Prop34
280
     0
102
RTVSPost2010PropOp34
 70
     1
102
RTVSPost2010Prop35
280
     0
102
RTVSPost2010PropOp35
 70
     1
102
RTVSPost2010Prop36
280
     0
102
RTVSPost2010PropOp36
 70
     1
102
RTVSPost2010Prop37
 90
       50
102
RTVSPost2010PropOp37
 70
     1
102
RTVSPost2010Prop38
140
0.0
102
RTVSPost2010PropOp38
 70
     1
102
RTVSPost2010Prop39
140
1.0
102
RTVSPost2010PropOp39
 70
     1
102
RTVSPost2010Prop40
 90
        0
102
RTVSPost2010PropOp40
 70
     1
102
RTVSPost2010Prop41ColorIndex
 90
       18
102
RTVSPost2010Prop41ColorRGB
 90
        0
102
RTVSPost2010PropOp41
 70
     1
102
RTVSPost2010Prop42
 90
       50
102
RTVSPost2010PropOp42
 70
     1
102
RTVSPost2010Prop43
 90
        3
102
RTVSPost2010PropOp43
 70
     1
102
RTVSPost2010Prop44ColorIndex
 90
        5
102
RTVSPost2010Prop44ColorRGB
 90
      255
102
RTVSPost2010PropOp44
 70
     1
102
RTVSPost2010Prop45
280
     0
102
RTVSPost2010PropOp45
 70
     1
102
RTVSPost2010Prop46
 90
       50
102
RTVSPost2010PropOp46
 70
     1
102
RTVSPost2010Prop47
 90
       50
102
RTVSPost2010PropOp47
 70
     1
102
RTVSPost2010Prop48
 90
       50
102
RTVSPost2010PropOp48
 70
     1
102
RTVSPost2010Prop49
280
     0
102
RTVSPost2010PropOp49
 70
     1
102
RTVSPost2010Prop50
 90
       50
102
RTVSPost2010PropOp50
 70
     1
102
RTVSPost2010Prop51ColorIndex
 90
      256
102
RTVSPost2010Prop51ColorRGB
 90
-16777216
102
RTVSPost2010PropOp51
 70
     0
102
RTVSPost2010Prop52
140
1.0
102
RTVSPost2010PropOp52
 70
     0
102
RTVSPost2010Prop53
 90
        2
102
RTVSPost2010PropOp53
 70
     1
102
RTVSPost2010Prop54
  1
strokes_ogs.tif
102
RTVSPost2010PropOp54
 70
     1
102
RTVSPost2010Prop55
280
     0
102
RTVSPost2010PropOp55
 70
     1
102
RTVSPost2010Prop56
140
1.0
102
RTVSPost2010PropOp56
 70
     1
102
RTVSPost2010Prop57
140
1.0
102
RTVSPost2010PropOp57
 70
     1
  0
XRECORD
  5
169
102
{ACAD_REACTORS
330
168
102
}
330
168
100
AcDbXrecord
280
     1
102
RTVSPropertyOp0
 70
     1
102
RTVSPropertyOp1
 70
     1
102
RTVSPropertyOp2
 70
     1
102
RTVSPropertyOp3
 70
     1
102
RTVSPropertyOp4
 70
     1
102
RTVSPropertyOp5
 70
     1
102
RTVSPropertyOp6
 70
     1
102
RTVSPropertyOp7
 70
     1
102
RTVSPropertyOp8
 70
     1
102
RTVSPropertyOp9
 70
     1
102
RTVSPropertyOp10
 70
     1
102
RTVSPropertyOp11
 70
     1
102
RTVSPropertyOp12
 70
     1
102
RTVSPropertyOp13
 70
     1
102
RTVSPropertyOp14
 70
     1
102
RTVSPropertyOp15
 70
     1
102
RTVSPropertyOp16
 70
     1
102
RTVSPropertyOp17
 70
     1
102
RTVSPropertyOp18
 70
     1
102
RTVSPropertyOp19
 70
     1
102
RTVSPropertyOp20
 70
     1
102
RTVSPropertyOp21
 70
     1
102
RTVSPropertyOp22
 70
     1
102
RTVSPropertyOp23
 70
     1
102
RTVSPropertyOp24
 70
     1
102
RTVSPropertyOp25
 70
     1
102
RTVSPropertyOp26
 70
     1
102
RTVSPropertyOp27
 70
     1
102
RTVSPropertyOp28
 70
     1
102
RTVSPropertyOp29
 70
     1
102
RTVSPropertyOp30
 70
     1
102
RTVSPropertyOp31
 70
     1
102
RTVSPropertyOp32
 70
     1
102
RTVSPropertyOp33
 70
     1
102
RTVSPropertyOp34
 70
     1
102
RTVSPropertyOp35
 70
     1
102
RTVSPropertyOp36
 70
     1
102
RTVSPropertyOp37
 70
     1
102
RTVSPropertyOp38
 70
     1
102
RTVSPropertyOp39
 70
     1
102
RTVSPropertyOp40
 70
     1
102
RTVSPropertyOp41
 70
     1
102
RTVSPropertyOp42
 70
     1
102
RTVSPropertyOp43
 70
     1
102
RTVSPropertyOp44
 70
     1
102
RTVSPropertyOp45
 70
     1
102
RTVSPropertyOp46
 70
     1
102
RTVSPropertyOp47
 70
     1
102
RTVSPropertyOp48
 70
     1
102
RTVSPropertyOp49
 70
     1
102
RTVSPropertyOp50
 70
     1
102
RTVSPropertyOp51
 70
     0
102
RTVSPropertyOp52
 70
     0
102
RTVSPropertyOp53
 70
     1
102
RTVSPropertyOp54
 70
     1
102
RTVSPropertyOp55
 70
     1
102
RTVSPropertyOp56
 70
     1
102
RTVSPropertyOp57
 70
     1
102
RTVSPost2010Prop28
280
     0
102
RTVSPost2010PropOp28
 70
     1
102
RTVSPost2010Prop29
280
     1
102
RTVSPost2010PropOp29
 70
     1
102
RTVSPost2010Prop30
280
     1
102
RTVSPost2010PropOp30
 70
     1
102
RTVSPost2010Prop31
280
     0
102
RTVSPost2010PropOp31
 70
     1
102
RTVSPost2010Prop32
280
     0
102
RTVSPost2010PropOp32
 70
     1
102
RTVSPost2010Prop33
280
     0
102
RTVSPost2010PropOp33
 70
     1
102
RTVSPost2010Prop34
280
     0
102
RTVSPost2010PropOp34
 70
     1
102
RTVSPost2010Prop35
280
     0
102
RTVSPost2010PropOp35
 70
     1
102
RTVSPost2010Prop36
280
     0
102
RTVSPost2010PropOp36
 70
     1
102
RTVSPost2010Prop37
 90
       50
102
RTVSPost2010PropOp37
 70
     1
102
RTVSPost2010Prop38
140
0.0
102
RTVSPost2010PropOp38
 70
     1
102
RTVSPost2010Prop39
140
1.0
102
RTVSPost2010PropOp39
 70
     1
102
RTVSPost2010Prop40
 90
        0
102
RTVSPost2010PropOp40
 70
     1
102
RTVSPost2010Prop41ColorIndex
 90
       18
102
RTVSPost2010Prop41ColorRGB
 90
        0
102
RTVSPost2010PropOp41
 70
     1
102
RTVSPost2010Prop42
 90
       50
102
RTVSPost2010PropOp42
 70
     1
102
RTVSPost2010Prop43
 90
        3
102
RTVSPost2010PropOp43
 70
     1
102
RTVSPost2010Prop44ColorIndex
 90
        5
102
RTVSPost2010Prop44ColorRGB
 90
      255
102
RTVSPost2010PropOp44
 70
     1
102
RTVSPost2010Prop45
280
     0
102
RTVSPost2010PropOp45
 70
     1
102
RTVSPost2010Prop46
 90
       50
102
RTVSPost2010PropOp46
 70
     1
102
RTVSPost2010Prop47
 90
       50
102
RTVSPost2010PropOp47
 70
     1
102
RTVSPost2010Prop48
 90
       50
102
RTVSPost2010PropOp48
 70
     1
102
RTVSPost2010Prop49
280
     0
102
RTVSPost2010PropOp49
 70
     1
102
RTVSPost2010Prop50
 90
       50
102
RTVSPost2010PropOp50
 70
     1
102
RTVSPost2010Prop51ColorIndex
 90
      256
102
RTVSPost2010Prop51ColorRGB
 90
-16777216
102
RTVSPost2010PropOp51
 70
     0
102
RTVSPost2010Prop52
140
1.0
102
RTVSPost2010PropOp52
 70
     0
102
RTVSPost2010Prop53
 90
        2
102
RTVSPost2010PropOp53
 70
     1
102
RTVSPost2010Prop54
  1
strokes_ogs.tif
102
RTVSPost2010PropOp54
 70
     1
102
RTVSPost2010Prop55
280
     0
102
RTVSPost2010PropOp55
 70
     1
102
RTVSPost2010Prop56
140
1.0
102
RTVSPost2010PropOp56
 70
     1
102
RTVSPost2010Prop57
140
1.0
102
RTVSPost2010PropOp57
 70
     1
  0
XRECORD
  5
17D
102
{ACAD_REACTORS
330
17C
102
}
330
17C
100
AcDbXrecord
280
     1
102
RTVSPropertyOp0
 70
     0
102
RTVSPropertyOp1
 70
     0
102
RTVSPropertyOp2
 70
     0
102
RTVSPropertyOp3
 70
     0
102
RTVSPropertyOp4
 70
     0
102
RTVSPropertyOp5
 70
     0
102
RTVSPropertyOp6
 70
     0
102
RTVSPropertyOp7
 70
     0
102
RTVSPropertyOp8
 70
     0
102
RTVSPropertyOp9
 70
     0
102
RTVSPropertyOp10
 70
     0
102
RTVSPropertyOp11
 70
     0
102
RTVSPropertyOp12
 70
     0
102
RTVSPropertyOp13
 70
     0
102
RTVSPropertyOp14
 70
     2
102
RTVSPropertyOp15
 70
     0
102
RTVSPropertyOp16
 70
     0
102
RTVSPropertyOp17
 70
     0
102
RTVSPropertyOp18
 70
     0
102
RTVSPropertyOp19
 70
     0
102
RTVSPropertyOp20
 70
     0
102
RTVSPropertyOp21
 70
     0
102
RTVSPropertyOp22
 70
     0
102
RTVSPropertyOp23
 70
     0
102
RTVSPropertyOp24
 70
     0
102
RTVSPropertyOp25
 70
     0
102
RTVSPropertyOp26
 70
     0
102
RTVSPropertyOp27
 70
     0
102
RTVSPropertyOp28
 70
     0
102
RTVSPropertyOp29
 70
     0
102
RTVSPropertyOp30
 70
     0
102
RTVSPropertyOp31
 70
     0
102
RTVSPropertyOp32
 70
     0
102
RTVSPropertyOp33
 70
     0
102
RTVSPropertyOp34
 70
     0
102
RTVSPropertyOp35
 70
     0
102
RTVSPropertyOp36
 70
     0
102
RTVSPropertyOp37
 70
     0
102
RTVSPropertyOp38
 70
     0
102
RTVSPropertyOp39
 70
     0
102
RTVSPropertyOp40
 70
     0
102
RTVSPropertyOp41
 70
     0
102
RTVSPropertyOp42
 70
     0
102
RTVSPropertyOp43
 70
     0
102
RTVSPropertyOp44
 70
     0
102
RTVSPropertyOp45
 70
     0
102
RTVSPropertyOp46
 70
     0
102
RTVSPropertyOp47
 70
     0
102
RTVSPropertyOp48
 70
     0
102
RTVSPropertyOp49
 70
     0
102
RTVSPropertyOp50
 70
     0
102
RTVSPropertyOp51
 70
     0
102
RTVSPropertyOp52
 70
     0
102
RTVSPropertyOp53
 70
     0
102
RTVSPropertyOp54
 70
     0
102
RTVSPropertyOp55
 70
     0
102
RTVSPropertyOp56
 70
     0
102
RTVSPropertyOp57
 70
     0
102
RTVSPost2010Prop28
280
     0
102
RTVSPost2010PropOp28
 70
     0
102
RTVSPost2010Prop29
280
     1
102
RTVSPost2010PropOp29
 70
     0
102
RTVSPost2010Prop30
280
     1
102
RTVSPost2010PropOp30
 70
     0
102
RTVSPost2010Prop31
280
     0
102
RTVSPost2010PropOp31
 70
     0
102
RTVSPost2010Prop32
280
     0
102
RTVSPost2010PropOp32
 70
     0
102
RTVSPost2010Prop33
280
     0
102
RTVSPost2010PropOp33
 70
     0
102
RTVSPost2010Prop34
280
     0
102
RTVSPost2010PropOp34
 70
     0
102
RTVSPost2010Prop35
280
     0
102
RTVSPost2010PropOp35
 70
     0
102
RTVSPost2010Prop36
280
     0
102
RTVSPost2010PropOp36
 70
     0
102
RTVSPost2010Prop37
 90
       50
102
RTVSPost2010PropOp37
 70
     0
102
RTVSPost2010Prop38
140
0.0
102
RTVSPost2010PropOp38
 70
     0
102
RTVSPost2010Prop39
140
1.0
102
RTVSPost2010PropOp39
 70
     0
102
RTVSPost2010Prop40
 90
        0
102
RTVSPost2010PropOp40
 70
     0
102
RTVSPost2010Prop41ColorIndex
 90
       18
102
RTVSPost2010Prop41ColorRGB
 90
        0
102
RTVSPost2010PropOp41
 70
     0
102
RTVSPost2010Prop42
 90
       50
102
RTVSPost2010PropOp42
 70
     0
102
RTVSPost2010Prop43
 90
        3
102
RTVSPost2010PropOp43
 70
     0
102
RTVSPost2010Prop44ColorIndex
 90
        5
102
RTVSPost2010Prop44ColorRGB
 90
      255
102
RTVSPost2010PropOp44
 70
     0
102
RTVSPost2010Prop45
280
     0
102
RTVSPost2010PropOp45
 70
     0
102
RTVSPost2010Prop46
 90
       50
102
RTVSPost2010PropOp46
 70
     0
102
RTVSPost2010Prop47
 90
       50
102
RTVSPost2010PropOp47
 70
     0
102
RTVSPost2010Prop48
 90
       50
102
RTVSPost2010PropOp48
 70
     0
102
RTVSPost2010Prop49
280
     0
102
RTVSPost2010PropOp49
 70
     0
102
RTVSPost2010Prop50
 90
       50
102
RTVSPost2010PropOp50
 70
     0
102
RTVSPost2010Prop51ColorIndex
 90
      256
102
RTVSPost2010Prop51ColorRGB
 90
-16777216
102
RTVSPost2010PropOp51
 70
     0
102
RTVSPost2010Prop52
140
1.0
102
RTVSPost2010PropOp52
 70
     0
102
RTVSPost2010Prop53
 90
        2
102
RTVSPost2010PropOp53
 70
     0
102
RTVSPost2010Prop54
  1
strokes_ogs.tif
102
RTVSPost2010PropOp54
 70
     0
102
RTVSPost2010Prop55
280
     0
102
RTVSPost2010PropOp55
 70
     0
102
RTVSPost2010Prop56
140
1.0
102
RTVSPost2010PropOp56
 70
     0
102
RTVSPost2010Prop57
140
1.0
102
RTVSPost2010PropOp57
 70
     0
  0
XRECORD
  5
177
102
{ACAD_REACTORS
330
176
102
}
330
176
100
AcDbXrecord
280
     1
102
RTVSPropertyOp0
 70
     1
102
RTVSPropertyOp1
 70
     1
102
RTVSPropertyOp2
 70
     1
102
RTVSPropertyOp3
 70
     1
102
RTVSPropertyOp4
 70
     1
102
RTVSPropertyOp5
 70
     1
102
RTVSPropertyOp6
 70
     1
102
RTVSPropertyOp7
 70
     1
102
RTVSPropertyOp8
 70
     1
102
RTVSPropertyOp9
 70
     1
102
RTVSPropertyOp10
 70
     1
102
RTVSPropertyOp11
 70
     1
102
RTVSPropertyOp12
 70
     1
102
RTVSPropertyOp13
 70
     1
102
RTVSPropertyOp14
 70
     1
102
RTVSPropertyOp15
 70
     1
102
RTVSPropertyOp16
 70
     1
102
RTVSPropertyOp17
 70
     1
102
RTVSPropertyOp18
 70
     1
102
RTVSPropertyOp19
 70
     1
102
RTVSPropertyOp20
 70
     1
102
RTVSPropertyOp21
 70
     1
102
RTVSPropertyOp22
 70
     1
102
RTVSPropertyOp23
 70
     1
102
RTVSPropertyOp24
 70
     1
102
RTVSPropertyOp25
 70
     1
102
RTVSPropertyOp26
 70
     1
102
RTVSPropertyOp27
 70
     1
102
RTVSPropertyOp28
 70
     1
102
RTVSPropertyOp29
 70
     1
102
RTVSPropertyOp30
 70
     1
102
RTVSPropertyOp31
 70
     1
102
RTVSPropertyOp32
 70
     1
102
RTVSPropertyOp33
 70
     1
102
RTVSPropertyOp34
 70
     1
102
RTVSPropertyOp35
 70
     1
102
RTVSPropertyOp36
 70
     1
102
RTVSPropertyOp37
 70
     1
102
RTVSPropertyOp38
 70
     1
102
RTVSPropertyOp39
 70
     1
102
RTVSPropertyOp40
 70
     1
102
RTVSPropertyOp41
 70
     1
102
RTVSPropertyOp42
 70
     1
102
RTVSPropertyOp43
 70
     1
102
RTVSPropertyOp44
 70
     1
102
RTVSPropertyOp45
 70
     1
102
RTVSPropertyOp46
 70
     1
102
RTVSPropertyOp47
 70
     1
102
RTVSPropertyOp48
 70
     1
102
RTVSPropertyOp49
 70
     1
102
RTVSPropertyOp50
 70
     1
102
RTVSPropertyOp51
 70
     0
102
RTVSPropertyOp52
 70
     0
102
RTVSPropertyOp53
 70
     1
102
RTVSPropertyOp54
 70
     1
102
RTVSPropertyOp55
 70
     1
102
RTVSPropertyOp56
 70
     1
102
RTVSPropertyOp57
 70
     1
102
RTVSPost2010Prop28
280
     0
102
RTVSPost2010PropOp28
 70
     1
102
RTVSPost2010Prop29
280
     1
102
RTVSPost2010PropOp29
 70
     1
102
RTVSPost2010Prop30
280
     1
102
RTVSPost2010PropOp30
 70
     1
102
RTVSPost2010Prop31
280
     0
102
RTVSPost2010PropOp31
 70
     1
102
RTVSPost2010Prop32
280
     0
102
RTVSPost2010PropOp32
 70
     1
102
RTVSPost2010Prop33
280
     0
102
RTVSPost2010PropOp33
 70
     1
102
RTVSPost2010Prop34
280
     0
102
RTVSPost2010PropOp34
 70
     1
102
RTVSPost2010Prop35
280
     0
102
RTVSPost2010PropOp35
 70
     1
102
RTVSPost2010Prop36
280
     0
102
RTVSPost2010PropOp36
 70
     1
102
RTVSPost2010Prop37
 90
       50
102
RTVSPost2010PropOp37
 70
     1
102
RTVSPost2010Prop38
140
0.0
102
RTVSPost2010PropOp38
 70
     1
102
RTVSPost2010Prop39
140
1.0
102
RTVSPost2010PropOp39
 70
     1
102
RTVSPost2010Prop40
 90
        0
102
RTVSPost2010PropOp40
 70
     1
102
RTVSPost2010Prop41ColorIndex
 90
       18
102
RTVSPost2010Prop41ColorRGB
 90
        0
102
RTVSPost2010PropOp41
 70
     1
102
RTVSPost2010Prop42
 90
       50
102
RTVSPost2010PropOp42
 70
     1
102
RTVSPost2010Prop43
 90
        3
102
RTVSPost2010PropOp43
 70
     1
102
RTVSPost2010Prop44ColorIndex
 90
        5
102
RTVSPost2010Prop44ColorRGB
 90
      255
102
RTVSPost2010PropOp44
 70
     1
102
RTVSPost2010Prop45
280
     0
102
RTVSPost2010PropOp45
 70
     1
102
RTVSPost2010Prop46
 90
       50
102
RTVSPost2010PropOp46
 70
     1
102
RTVSPost2010Prop47
 90
       50
102
RTVSPost2010PropOp47
 70
     1
102
RTVSPost2010Prop48
 90
       50
102
RTVSPost2010PropOp48
 70
     1
102
RTVSPost2010Prop49
280
     0
102
RTVSPost2010PropOp49
 70
     1
102
RTVSPost2010Prop50
 90
       50
102
RTVSPost2010PropOp50
 70
     1
102
RTVSPost2010Prop51ColorIndex
 90
      256
102
RTVSPost2010Prop51ColorRGB
 90
-16777216
102
RTVSPost2010PropOp51
 70
     0
102
RTVSPost2010Prop52
140
1.0
102
RTVSPost2010PropOp52
 70
     0
102
RTVSPost2010Prop53
 90
        2
102
RTVSPost2010PropOp53
 70
     1
102
RTVSPost2010Prop54
  1
strokes_ogs.tif
102
RTVSPost2010PropOp54
 70
     1
102
RTVSPost2010Prop55
280
     0
102
RTVSPost2010PropOp55
 70
     1
102
RTVSPost2010Prop56
140
1.0
102
RTVSPost2010PropOp56
 70
     1
102
RTVSPost2010Prop57
140
1.0
102
RTVSPost2010PropOp57
 70
     1
  0
XRECORD
  5
17F
102
{ACAD_REACTORS
330
17E
102
}
330
17E
100
AcDbXrecord
280
     1
102
RTVSPropertyOp0
 70
     0
102
RTVSPropertyOp1
 70
     0
102
RTVSPropertyOp2
 70
     0
102
RTVSPropertyOp3
 70
     0
102
RTVSPropertyOp4
 70
     0
102
RTVSPropertyOp5
 70
     0
102
RTVSPropertyOp6
 70
     0
102
RTVSPropertyOp7
 70
     0
102
RTVSPropertyOp8
 70
     0
102
RTVSPropertyOp9
 70
     0
102
RTVSPropertyOp10
 70
     0
102
RTVSPropertyOp11
 70
     0
102
RTVSPropertyOp12
 70
     0
102
RTVSPropertyOp13
 70
     0
102
RTVSPropertyOp14
 70
     2
102
RTVSPropertyOp15
 70
     0
102
RTVSPropertyOp16
 70
     0
102
RTVSPropertyOp17
 70
     0
102
RTVSPropertyOp18
 70
     0
102
RTVSPropertyOp19
 70
     0
102
RTVSPropertyOp20
 70
     0
102
RTVSPropertyOp21
 70
     0
102
RTVSPropertyOp22
 70
     0
102
RTVSPropertyOp23
 70
     0
102
RTVSPropertyOp24
 70
     0
102
RTVSPropertyOp25
 70
     0
102
RTVSPropertyOp26
 70
     0
102
RTVSPropertyOp27
 70
     0
102
RTVSPropertyOp28
 70
     0
102
RTVSPropertyOp29
 70
     0
102
RTVSPropertyOp30
 70
     0
102
RTVSPropertyOp31
 70
     0
102
RTVSPropertyOp32
 70
     0
102
RTVSPropertyOp33
 70
     0
102
RTVSPropertyOp34
 70
     0
102
RTVSPropertyOp35
 70
     0
102
RTVSPropertyOp36
 70
     0
102
RTVSPropertyOp37
 70
     0
102
RTVSPropertyOp38
 70
     0
102
RTVSPropertyOp39
 70
     0
102
RTVSPropertyOp40
 70
     0
102
RTVSPropertyOp41
 70
     0
102
RTVSPropertyOp42
 70
     0
102
RTVSPropertyOp43
 70
     0
102
RTVSPropertyOp44
 70
     0
102
RTVSPropertyOp45
 70
     0
102
RTVSPropertyOp46
 70
     0
102
RTVSPropertyOp47
 70
     0
102
RTVSPropertyOp48
 70
     0
102
RTVSPropertyOp49
 70
     0
102
RTVSPropertyOp50
 70
     0
102
RTVSPropertyOp51
 70
     0
102
RTVSPropertyOp52
 70
     0
102
RTVSPropertyOp53
 70
     0
102
RTVSPropertyOp54
 70
     0
102
RTVSPropertyOp55
 70
     0
102
RTVSPropertyOp56
 70
     0
102
RTVSPropertyOp57
 70
     0
102
RTVSPost2010Prop28
280
     0
102
RTVSPost2010PropOp28
 70
     0
102
RTVSPost2010Prop29
280
     1
102
RTVSPost2010PropOp29
 70
     0
102
RTVSPost2010Prop30
280
     1
102
RTVSPost2010PropOp30
 70
     0
102
RTVSPost2010Prop31
280
     0
102
RTVSPost2010PropOp31
 70
     0
102
RTVSPost2010Prop32
280
     0
102
RTVSPost2010PropOp32
 70
     0
102
RTVSPost2010Prop33
280
     0
102
RTVSPost2010PropOp33
 70
     0
102
RTVSPost2010Prop34
280
     0
102
RTVSPost2010PropOp34
 70
     0
102
RTVSPost2010Prop35
280
     0
102
RTVSPost2010PropOp35
 70
     0
102
RTVSPost2010Prop36
280
     0
102
RTVSPost2010PropOp36
 70
     0
102
RTVSPost2010Prop37
 90
       50
102
RTVSPost2010PropOp37
 70
     0
102
RTVSPost2010Prop38
140
0.0
102
RTVSPost2010PropOp38
 70
     0
102
RTVSPost2010Prop39
140
1.0
102
RTVSPost2010PropOp39
 70
     0
102
RTVSPost2010Prop40
 90
        0
102
RTVSPost2010PropOp40
 70
     0
102
RTVSPost2010Prop41ColorIndex
 90
       18
102
RTVSPost2010Prop41ColorRGB
 90
        0
102
RTVSPost2010PropOp41
 70
     0
102
RTVSPost2010Prop42
 90
       50
102
RTVSPost2010PropOp42
 70
     0
102
RTVSPost2010Prop43
 90
        3
102
RTVSPost2010PropOp43
 70
     0
102
RTVSPost2010Prop44ColorIndex
 90
        5
102
RTVSPost2010Prop44ColorRGB
 90
      255
102
RTVSPost2010PropOp44
 70
     0
102
RTVSPost2010Prop45
280
     0
102
RTVSPost2010PropOp45
 70
     0
102
RTVSPost2010Prop46
 90
       50
102
RTVSPost2010PropOp46
 70
     0
102
RTVSPost2010Prop47
 90
       50
102
RTVSPost2010PropOp47
 70
     0
102
RTVSPost2010Prop48
 90
       50
102
RTVSPost2010PropOp48
 70
     0
102
RTVSPost2010Prop49
280
     0
102
RTVSPost2010PropOp49
 70
     0
102
RTVSPost2010Prop50
 90
       50
102
RTVSPost2010PropOp50
 70
     0
102
RTVSPost2010Prop51ColorIndex
 90
      256
102
RTVSPost2010Prop51ColorRGB
 90
-16777216
102
RTVSPost2010PropOp51
 70
     0
102
RTVSPost2010Prop52
140
1.0
102
RTVSPost2010PropOp52
 70
     0
102
RTVSPost2010Prop53
 90
        2
102
RTVSPost2010PropOp53
 70
     0
102
RTVSPost2010Prop54
  1
strokes_ogs.tif
102
RTVSPost2010PropOp54
 70
     0
102
RTVSPost2010Prop55
280
     0
102
RTVSPost2010PropOp55
 70
     0
102
RTVSPost2010Prop56
140
1.0
102
RTVSPost2010PropOp56
 70
     0
102
RTVSPost2010Prop57
140
1.0
102
RTVSPost2010PropOp57
 70
     0
  0
XRECORD
  5
16D
102
{ACAD_REACTORS
330
16C
102
}
330
16C
100
AcDbXrecord
280
     1
102
RTVSPropertyOp0
 70
     1
102
RTVSPropertyOp1
 70
     1
102
RTVSPropertyOp2
 70
     1
102
RTVSPropertyOp3
 70
     1
102
RTVSPropertyOp4
 70
     1
102
RTVSPropertyOp5
 70
     1
102
RTVSPropertyOp6
 70
     1
102
RTVSPropertyOp7
 70
     1
102
RTVSPropertyOp8
 70
     1
102
RTVSPropertyOp9
 70
     1
102
RTVSPropertyOp10
 70
     1
102
RTVSPropertyOp11
 70
     1
102
RTVSPropertyOp12
 70
     1
102
RTVSPropertyOp13
 70
     1
102
RTVSPropertyOp14
 70
     1
102
RTVSPropertyOp15
 70
     1
102
RTVSPropertyOp16
 70
     1
102
RTVSPropertyOp17
 70
     1
102
RTVSPropertyOp18
 70
     1
102
RTVSPropertyOp19
 70
     1
102
RTVSPropertyOp20
 70
     1
102
RTVSPropertyOp21
 70
     1
102
RTVSPropertyOp22
 70
     1
102
RTVSPropertyOp23
 70
     1
102
RTVSPropertyOp24
 70
     1
102
RTVSPropertyOp25
 70
     1
102
RTVSPropertyOp26
 70
     1
102
RTVSPropertyOp27
 70
     1
102
RTVSPropertyOp28
 70
     1
102
RTVSPropertyOp29
 70
     1
102
RTVSPropertyOp30
 70
     1
102
RTVSPropertyOp31
 70
     1
102
RTVSPropertyOp32
 70
     1
102
RTVSPropertyOp33
 70
     1
102
RTVSPropertyOp34
 70
     1
102
RTVSPropertyOp35
 70
     1
102
RTVSPropertyOp36
 70
     1
102
RTVSPropertyOp37
 70
     1
102
RTVSPropertyOp38
 70
     1
102
RTVSPropertyOp39
 70
     1
102
RTVSPropertyOp40
 70
     1
102
RTVSPropertyOp41
 70
     1
102
RTVSPropertyOp42
 70
     1
102
RTVSPropertyOp43
 70
     1
102
RTVSPropertyOp44
 70
     1
102
RTVSPropertyOp45
 70
     1
102
RTVSPropertyOp46
 70
     1
102
RTVSPropertyOp47
 70
     1
102
RTVSPropertyOp48
 70
     1
102
RTVSPropertyOp49
 70
     1
102
RTVSPropertyOp50
 70
     1
102
RTVSPropertyOp51
 70
     0
102
RTVSPropertyOp52
 70
     0
102
RTVSPropertyOp53
 70
     1
102
RTVSPropertyOp54
 70
     1
102
RTVSPropertyOp55
 70
     1
102
RTVSPropertyOp56
 70
     1
102
RTVSPropertyOp57
 70
     1
102
RTVSPost2010Prop28
280
     0
102
RTVSPost2010PropOp28
 70
     1
102
RTVSPost2010Prop29
280
     1
102
RTVSPost2010PropOp29
 70
     1
102
RTVSPost2010Prop30
280
     1
102
RTVSPost2010PropOp30
 70
     1
102
RTVSPost2010Prop31
280
     0
102
RTVSPost2010PropOp31
 70
     1
102
RTVSPost2010Prop32
280
     0
102
RTVSPost2010PropOp32
 70
     1
102
RTVSPost2010Prop33
280
     0
102
RTVSPost2010PropOp33
 70
     1
102
RTVSPost2010Prop34
280
     0
102
RTVSPost2010PropOp34
 70
     1
102
RTVSPost2010Prop35
280
     0
102
RTVSPost2010PropOp35
 70
     1
102
RTVSPost2010Prop36
280
     0
102
RTVSPost2010PropOp36
 70
     1
102
RTVSPost2010Prop37
 90
       50
102
RTVSPost2010PropOp37
 70
     1
102
RTVSPost2010Prop38
140
0.0
102
RTVSPost2010PropOp38
 70
     1
102
RTVSPost2010Prop39
140
1.0
102
RTVSPost2010PropOp39
 70
     1
102
RTVSPost2010Prop40
 90
        0
102
RTVSPost2010PropOp40
 70
     1
102
RTVSPost2010Prop41ColorIndex
 90
       18
102
RTVSPost2010Prop41ColorRGB
 90
        0
102
RTVSPost2010PropOp41
 70
     1
102
RTVSPost2010Prop42
 90
       50
102
RTVSPost2010PropOp42
 70
     1
102
RTVSPost2010Prop43
 90
        3
102
RTVSPost2010PropOp43
 70
     1
102
RTVSPost2010Prop44ColorIndex
 90
        5
102
RTVSPost2010Prop44ColorRGB
 90
      255
102
RTVSPost2010PropOp44
 70
     1
102
RTVSPost2010Prop45
280
     0
102
RTVSPost2010PropOp45
 70
     1
102
RTVSPost2010Prop46
 90
       50
102
RTVSPost2010PropOp46
 70
     1
102
RTVSPost2010Prop47
 90
       50
102
RTVSPost2010PropOp47
 70
     1
102
RTVSPost2010Prop48
 90
       50
102
RTVSPost2010PropOp48
 70
     1
102
RTVSPost2010Prop49
280
     0
102
RTVSPost2010PropOp49
 70
     1
102
RTVSPost2010Prop50
 90
       50
102
RTVSPost2010PropOp50
 70
     1
102
RTVSPost2010Prop51ColorIndex
 90
      256
102
RTVSPost2010Prop51ColorRGB
 90
-16777216
102
RTVSPost2010PropOp51
 70
     0
102
RTVSPost2010Prop52
140
1.0
102
RTVSPost2010PropOp52
 70
     0
102
RTVSPost2010Prop53
 90
        2
102
RTVSPost2010PropOp53
 70
     1
102
RTVSPost2010Prop54
  1
strokes_ogs.tif
102
RTVSPost2010PropOp54
 70
     1
102
RTVSPost2010Prop55
280
     0
102
RTVSPost2010PropOp55
 70
     1
102
RTVSPost2010Prop56
140
1.0
102
RTVSPost2010PropOp56
 70
     1
102
RTVSPost2010Prop57
140
1.0
102
RTVSPost2010PropOp57
 70
     1
  0
XRECORD
  5
18B
102
{ACAD_REACTORS
330
18A
102
}
330
18A
100
AcDbXrecord
280
     1
102
RTVSPropertyOp0
 70
     1
102
RTVSPropertyOp1
 70
     1
102
RTVSPropertyOp2
 70
     1
102
RTVSPropertyOp3
 70
     1
102
RTVSPropertyOp4
 70
     1
102
RTVSPropertyOp5
 70
     1
102
RTVSPropertyOp6
 70
     1
102
RTVSPropertyOp7
 70
     1
102
RTVSPropertyOp8
 70
     1
102
RTVSPropertyOp9
 70
     1
102
RTVSPropertyOp10
 70
     1
102
RTVSPropertyOp11
 70
     1
102
RTVSPropertyOp12
 70
     1
102
RTVSPropertyOp13
 70
     1
102
RTVSPropertyOp14
 70
     1
102
RTVSPropertyOp15
 70
     1
102
RTVSPropertyOp16
 70
     1
102
RTVSPropertyOp17
 70
     1
102
RTVSPropertyOp18
 70
     1
102
RTVSPropertyOp19
 70
     1
102
RTVSPropertyOp20
 70
     1
102
RTVSPropertyOp21
 70
     1
102
RTVSPropertyOp22
 70
     1
102
RTVSPropertyOp23
 70
     1
102
RTVSPropertyOp24
 70
     1
102
RTVSPropertyOp25
 70
     1
102
RTVSPropertyOp26
 70
     1
102
RTVSPropertyOp27
 70
     1
102
RTVSPropertyOp28
 70
     1
102
RTVSPropertyOp29
 70
     1
102
RTVSPropertyOp30
 70
     1
102
RTVSPropertyOp31
 70
     1
102
RTVSPropertyOp32
 70
     1
102
RTVSPropertyOp33
 70
     1
102
RTVSPropertyOp34
 70
     1
102
RTVSPropertyOp35
 70
     1
102
RTVSPropertyOp36
 70
     1
102
RTVSPropertyOp37
 70
     1
102
RTVSPropertyOp38
 70
     1
102
RTVSPropertyOp39
 70
     1
102
RTVSPropertyOp40
 70
     1
102
RTVSPropertyOp41
 70
     1
102
RTVSPropertyOp42
 70
     1
102
RTVSPropertyOp43
 70
     1
102
RTVSPropertyOp44
 70
     1
102
RTVSPropertyOp45
 70
     1
102
RTVSPropertyOp46
 70
     1
102
RTVSPropertyOp47
 70
     1
102
RTVSPropertyOp48
 70
     1
102
RTVSPropertyOp49
 70
     1
102
RTVSPropertyOp50
 70
     1
102
RTVSPropertyOp51
 70
     0
102
RTVSPropertyOp52
 70
     0
102
RTVSPropertyOp53
 70
     1
102
RTVSPropertyOp54
 70
     1
102
RTVSPropertyOp55
 70
     1
102
RTVSPropertyOp56
 70
     1
102
RTVSPropertyOp57
 70
     1
102
RTVSPost2010Prop28
280
     0
102
RTVSPost2010PropOp28
 70
     1
102
RTVSPost2010Prop29
280
     1
102
RTVSPost2010PropOp29
 70
     1
102
RTVSPost2010Prop30
280
     1
102
RTVSPost2010PropOp30
 70
     1
102
RTVSPost2010Prop31
280
     0
102
RTVSPost2010PropOp31
 70
     1
102
RTVSPost2010Prop32
280
     0
102
RTVSPost2010PropOp32
 70
     1
102
RTVSPost2010Prop33
280
     0
102
RTVSPost2010PropOp33
 70
     1
102
RTVSPost2010Prop34
280
     0
102
RTVSPost2010PropOp34
 70
     1
102
RTVSPost2010Prop35
280
     0
102
RTVSPost2010PropOp35
 70
     1
102
RTVSPost2010Prop36
280
     0
102
RTVSPost2010PropOp36
 70
     1
102
RTVSPost2010Prop37
 90
       50
102
RTVSPost2010PropOp37
 70
     1
102
RTVSPost2010Prop38
140
0.0
102
RTVSPost2010PropOp38
 70
     1
102
RTVSPost2010Prop39
140
1.0
102
RTVSPost2010PropOp39
 70
     1
102
RTVSPost2010Prop40
 90
        0
102
RTVSPost2010PropOp40
 70
     1
102
RTVSPost2010Prop41ColorIndex
 90
       18
102
RTVSPost2010Prop41ColorRGB
 90
        0
102
RTVSPost2010PropOp41
 70
     1
102
RTVSPost2010Prop42
 90
       50
102
RTVSPost2010PropOp42
 70
     1
102
RTVSPost2010Prop43
 90
        3
102
RTVSPost2010PropOp43
 70
     1
102
RTVSPost2010Prop44ColorIndex
 90
        5
102
RTVSPost2010Prop44ColorRGB
 90
      255
102
RTVSPost2010PropOp44
 70
     1
102
RTVSPost2010Prop45
280
     0
102
RTVSPost2010PropOp45
 70
     1
102
RTVSPost2010Prop46
 90
       50
102
RTVSPost2010PropOp46
 70
     1
102
RTVSPost2010Prop47
 90
       50
102
RTVSPost2010PropOp47
 70
     1
102
RTVSPost2010Prop48
 90
       50
102
RTVSPost2010PropOp48
 70
     1
102
RTVSPost2010Prop49
280
     0
102
RTVSPost2010PropOp49
 70
     1
102
RTVSPost2010Prop50
 90
       50
102
RTVSPost2010PropOp50
 70
     1
102
RTVSPost2010Prop51ColorIndex
 90
      256
102
RTVSPost2010Prop51ColorRGB
 90
-16777216
102
RTVSPost2010PropOp51
 70
     0
102
RTVSPost2010Prop52
140
1.0
102
RTVSPost2010PropOp52
 70
     0
102
RTVSPost2010Prop53
 90
        2
102
RTVSPost2010PropOp53
 70
     1
102
RTVSPost2010Prop54
  1
strokes_ogs.tif
102
RTVSPost2010PropOp54
 70
     1
102
RTVSPost2010Prop55
280
     0
102
RTVSPost2010PropOp55
 70
     1
102
RTVSPost2010Prop56
140
1.0
102
RTVSPost2010PropOp56
 70
     1
102
RTVSPost2010Prop57
140
1.0
102
RTVSPost2010PropOp57
 70
     1
  0
XRECORD
  5
189
102
{ACAD_REACTORS
330
188
102
}
330
188
100
AcDbXrecord
280
     1
102
RTVSPropertyOp0
 70
     1
102
RTVSPropertyOp1
 70
     1
102
RTVSPropertyOp2
 70
     1
102
RTVSPropertyOp3
 70
     1
102
RTVSPropertyOp4
 70
     1
102
RTVSPropertyOp5
 70
     1
102
RTVSPropertyOp6
 70
     1
102
RTVSPropertyOp7
 70
     1
102
RTVSPropertyOp8
 70
     1
102
RTVSPropertyOp9
 70
     1
102
RTVSPropertyOp10
 70
     1
102
RTVSPropertyOp11
 70
     1
102
RTVSPropertyOp12
 70
     1
102
RTVSPropertyOp13
 70
     1
102
RTVSPropertyOp14
 70
     1
102
RTVSPropertyOp15
 70
     1
102
RTVSPropertyOp16
 70
     1
102
RTVSPropertyOp17
 70
     1
102
RTVSPropertyOp18
 70
     1
102
RTVSPropertyOp19
 70
     1
102
RTVSPropertyOp20
 70
     1
102
RTVSPropertyOp21
 70
     1
102
RTVSPropertyOp22
 70
     1
102
RTVSPropertyOp23
 70
     1
102
RTVSPropertyOp24
 70
     1
102
RTVSPropertyOp25
 70
     1
102
RTVSPropertyOp26
 70
     1
102
RTVSPropertyOp27
 70
     1
102
RTVSPropertyOp28
 70
     1
102
RTVSPropertyOp29
 70
     1
102
RTVSPropertyOp30
 70
     1
102
RTVSPropertyOp31
 70
     1
102
RTVSPropertyOp32
 70
     1
102
RTVSPropertyOp33
 70
     1
102
RTVSPropertyOp34
 70
     1
102
RTVSPropertyOp35
 70
     1
102
RTVSPropertyOp36
 70
     1
102
RTVSPropertyOp37
 70
     1
102
RTVSPropertyOp38
 70
     1
102
RTVSPropertyOp39
 70
     1
102
RTVSPropertyOp40
 70
     1
102
RTVSPropertyOp41
 70
     1
102
RTVSPropertyOp42
 70
     1
102
RTVSPropertyOp43
 70
     1
102
RTVSPropertyOp44
 70
     1
102
RTVSPropertyOp45
 70
     1
102
RTVSPropertyOp46
 70
     1
102
RTVSPropertyOp47
 70
     1
102
RTVSPropertyOp48
 70
     1
102
RTVSPropertyOp49
 70
     1
102
RTVSPropertyOp50
 70
     1
102
RTVSPropertyOp51
 70
     0
102
RTVSPropertyOp52
 70
     0
102
RTVSPropertyOp53
 70
     1
102
RTVSPropertyOp54
 70
     1
102
RTVSPropertyOp55
 70
     1
102
RTVSPropertyOp56
 70
     1
102
RTVSPropertyOp57
 70
     1
102
RTVSPost2010Prop28
280
     0
102
RTVSPost2010PropOp28
 70
     1
102
RTVSPost2010Prop29
280
     1
102
RTVSPost2010PropOp29
 70
     1
102
RTVSPost2010Prop30
280
     1
102
RTVSPost2010PropOp30
 70
     1
102
RTVSPost2010Prop31
280
     0
102
RTVSPost2010PropOp31
 70
     1
102
RTVSPost2010Prop32
280
     0
102
RTVSPost2010PropOp32
 70
     1
102
RTVSPost2010Prop33
280
     0
102
RTVSPost2010PropOp33
 70
     1
102
RTVSPost2010Prop34
280
     0
102
RTVSPost2010PropOp34
 70
     1
102
RTVSPost2010Prop35
280
     0
102
RTVSPost2010PropOp35
 70
     1
102
RTVSPost2010Prop36
280
     0
102
RTVSPost2010PropOp36
 70
     1
102
RTVSPost2010Prop37
 90
       50
102
RTVSPost2010PropOp37
 70
     1
102
RTVSPost2010Prop38
140
0.0
102
RTVSPost2010PropOp38
 70
     1
102
RTVSPost2010Prop39
140
1.0
102
RTVSPost2010PropOp39
 70
     1
102
RTVSPost2010Prop40
 90
        0
102
RTVSPost2010PropOp40
 70
     1
102
RTVSPost2010Prop41ColorIndex
 90
       18
102
RTVSPost2010Prop41ColorRGB
 90
        0
102
RTVSPost2010PropOp41
 70
     1
102
RTVSPost2010Prop42
 90
       50
102
RTVSPost2010PropOp42
 70
     1
102
RTVSPost2010Prop43
 90
        3
102
RTVSPost2010PropOp43
 70
     1
102
RTVSPost2010Prop44ColorIndex
 90
        5
102
RTVSPost2010Prop44ColorRGB
 90
      255
102
RTVSPost2010PropOp44
 70
     1
102
RTVSPost2010Prop45
280
     0
102
RTVSPost2010PropOp45
 70
     1
102
RTVSPost2010Prop46
 90
       50
102
RTVSPost2010PropOp46
 70
     1
102
RTVSPost2010Prop47
 90
       50
102
RTVSPost2010PropOp47
 70
     1
102
RTVSPost2010Prop48
 90
       50
102
RTVSPost2010PropOp48
 70
     1
102
RTVSPost2010Prop49
280
     0
102
RTVSPost2010PropOp49
 70
     1
102
RTVSPost2010Prop50
 90
       50
102
RTVSPost2010PropOp50
 70
     1
102
RTVSPost2010Prop51ColorIndex
 90
      256
102
RTVSPost2010Prop51ColorRGB
 90
-16777216
102
RTVSPost2010PropOp51
 70
     0
102
RTVSPost2010Prop52
140
1.0
102
RTVSPost2010PropOp52
 70
     0
102
RTVSPost2010Prop53
 90
        2
102
RTVSPost2010PropOp53
 70
     1
102
RTVSPost2010Prop54
  1
strokes_ogs.tif
102
RTVSPost2010PropOp54
 70
     1
102
RTVSPost2010Prop55
280
     0
102
RTVSPost2010PropOp55
 70
     1
102
RTVSPost2010Prop56
140
1.0
102
RTVSPost2010PropOp56
 70
     1
102
RTVSPost2010Prop57
140
1.0
102
RTVSPost2010PropOp57
 70
     1
  0
XRECORD
  5
183
102
{ACAD_REACTORS
330
182
102
}
330
182
100
AcDbXrecord
280
     1
102
RTVSPropertyOp0
 70
     1
102
RTVSPropertyOp1
 70
     1
102
RTVSPropertyOp2
 70
     1
102
RTVSPropertyOp3
 70
     1
102
RTVSPropertyOp4
 70
     1
102
RTVSPropertyOp5
 70
     1
102
RTVSPropertyOp6
 70
     1
102
RTVSPropertyOp7
 70
     1
102
RTVSPropertyOp8
 70
     1
102
RTVSPropertyOp9
 70
     1
102
RTVSPropertyOp10
 70
     1
102
RTVSPropertyOp11
 70
     1
102
RTVSPropertyOp12
 70
     1
102
RTVSPropertyOp13
 70
     1
102
RTVSPropertyOp14
 70
     1
102
RTVSPropertyOp15
 70
     1
102
RTVSPropertyOp16
 70
     1
102
RTVSPropertyOp17
 70
     1
102
RTVSPropertyOp18
 70
     1
102
RTVSPropertyOp19
 70
     1
102
RTVSPropertyOp20
 70
     1
102
RTVSPropertyOp21
 70
     1
102
RTVSPropertyOp22
 70
     1
102
RTVSPropertyOp23
 70
     1
102
RTVSPropertyOp24
 70
     1
102
RTVSPropertyOp25
 70
     1
102
RTVSPropertyOp26
 70
     1
102
RTVSPropertyOp27
 70
     1
102
RTVSPropertyOp28
 70
     1
102
RTVSPropertyOp29
 70
     1
102
RTVSPropertyOp30
 70
     1
102
RTVSPropertyOp31
 70
     1
102
RTVSPropertyOp32
 70
     1
102
RTVSPropertyOp33
 70
     1
102
RTVSPropertyOp34
 70
     1
102
RTVSPropertyOp35
 70
     1
102
RTVSPropertyOp36
 70
     1
102
RTVSPropertyOp37
 70
     1
102
RTVSPropertyOp38
 70
     1
102
RTVSPropertyOp39
 70
     1
102
RTVSPropertyOp40
 70
     1
102
RTVSPropertyOp41
 70
     1
102
RTVSPropertyOp42
 70
     1
102
RTVSPropertyOp43
 70
     1
102
RTVSPropertyOp44
 70
     1
102
RTVSPropertyOp45
 70
     1
102
RTVSPropertyOp46
 70
     1
102
RTVSPropertyOp47
 70
     1
102
RTVSPropertyOp48
 70
     1
102
RTVSPropertyOp49
 70
     1
102
RTVSPropertyOp50
 70
     1
102
RTVSPropertyOp51
 70
     0
102
RTVSPropertyOp52
 70
     0
102
RTVSPropertyOp53
 70
     1
102
RTVSPropertyOp54
 70
     1
102
RTVSPropertyOp55
 70
     1
102
RTVSPropertyOp56
 70
     1
102
RTVSPropertyOp57
 70
     1
102
RTVSPost2010Prop28
280
     0
102
RTVSPost2010PropOp28
 70
     1
102
RTVSPost2010Prop29
280
     1
102
RTVSPost2010PropOp29
 70
     1
102
RTVSPost2010Prop30
280
     1
102
RTVSPost2010PropOp30
 70
     1
102
RTVSPost2010Prop31
280
     0
102
RTVSPost2010PropOp31
 70
     1
102
RTVSPost2010Prop32
280
     0
102
RTVSPost2010PropOp32
 70
     1
102
RTVSPost2010Prop33
280
     0
102
RTVSPost2010PropOp33
 70
     1
102
RTVSPost2010Prop34
280
     0
102
RTVSPost2010PropOp34
 70
     1
102
RTVSPost2010Prop35
280
     0
102
RTVSPost2010PropOp35
 70
     1
102
RTVSPost2010Prop36
280
     0
102
RTVSPost2010PropOp36
 70
     1
102
RTVSPost2010Prop37
 90
       50
102
RTVSPost2010PropOp37
 70
     1
102
RTVSPost2010Prop38
140
0.0
102
RTVSPost2010PropOp38
 70
     1
102
RTVSPost2010Prop39
140
1.0
102
RTVSPost2010PropOp39
 70
     1
102
RTVSPost2010Prop40
 90
        0
102
RTVSPost2010PropOp40
 70
     1
102
RTVSPost2010Prop41ColorIndex
 90
       18
102
RTVSPost2010Prop41ColorRGB
 90
        0
102
RTVSPost2010PropOp41
 70
     1
102
RTVSPost2010Prop42
 90
       50
102
RTVSPost2010PropOp42
 70
     1
102
RTVSPost2010Prop43
 90
        3
102
RTVSPost2010PropOp43
 70
     1
102
RTVSPost2010Prop44ColorIndex
 90
        5
102
RTVSPost2010Prop44ColorRGB
 90
      255
102
RTVSPost2010PropOp44
 70
     1
102
RTVSPost2010Prop45
280
     0
102
RTVSPost2010PropOp45
 70
     1
102
RTVSPost2010Prop46
 90
       50
102
RTVSPost2010PropOp46
 70
     1
102
RTVSPost2010Prop47
 90
       50
102
RTVSPost2010PropOp47
 70
     1
102
RTVSPost2010Prop48
 90
       50
102
RTVSPost2010PropOp48
 70
     1
102
RTVSPost2010Prop49
280
     0
102
RTVSPost2010PropOp49
 70
     1
102
RTVSPost2010Prop50
 90
       50
102
RTVSPost2010PropOp50
 70
     1
102
RTVSPost2010Prop51ColorIndex
 90
      256
102
RTVSPost2010Prop51ColorRGB
 90
-16777216
102
RTVSPost2010PropOp51
 70
     0
102
RTVSPost2010Prop52
140
1.0
102
RTVSPost2010PropOp52
 70
     0
102
RTVSPost2010Prop53
 90
        2
102
RTVSPost2010PropOp53
 70
     1
102
RTVSPost2010Prop54
  1
strokes_ogs.tif
102
RTVSPost2010PropOp54
 70
     1
102
RTVSPost2010Prop55
280
     0
102
RTVSPost2010PropOp55
 70
     1
102
RTVSPost2010Prop56
140
1.0
102
RTVSPost2010PropOp56
 70
     1
102
RTVSPost2010Prop57
140
1.0
102
RTVSPost2010PropOp57
 70
     1
  0
XRECORD
  5
185
102
{ACAD_REACTORS
330
184
102
}
330
184
100
AcDbXrecord
280
     1
102
RTVSPropertyOp0
 70
     1
102
RTVSPropertyOp1
 70
     1
102
RTVSPropertyOp2
 70
     1
102
RTVSPropertyOp3
 70
     1
102
RTVSPropertyOp4
 70
     1
102
RTVSPropertyOp5
 70
     1
102
RTVSPropertyOp6
 70
     1
102
RTVSPropertyOp7
 70
     1
102
RTVSPropertyOp8
 70
     1
102
RTVSPropertyOp9
 70
     1
102
RTVSPropertyOp10
 70
     1
102
RTVSPropertyOp11
 70
     1
102
RTVSPropertyOp12
 70
     1
102
RTVSPropertyOp13
 70
     1
102
RTVSPropertyOp14
 70
     1
102
RTVSPropertyOp15
 70
     1
102
RTVSPropertyOp16
 70
     1
102
RTVSPropertyOp17
 70
     1
102
RTVSPropertyOp18
 70
     1
102
RTVSPropertyOp19
 70
     1
102
RTVSPropertyOp20
 70
     1
102
RTVSPropertyOp21
 70
     1
102
RTVSPropertyOp22
 70
     1
102
RTVSPropertyOp23
 70
     1
102
RTVSPropertyOp24
 70
     1
102
RTVSPropertyOp25
 70
     1
102
RTVSPropertyOp26
 70
     1
102
RTVSPropertyOp27
 70
     1
102
RTVSPropertyOp28
 70
     1
102
RTVSPropertyOp29
 70
     1
102
RTVSPropertyOp30
 70
     1
102
RTVSPropertyOp31
 70
     1
102
RTVSPropertyOp32
 70
     1
102
RTVSPropertyOp33
 70
     1
102
RTVSPropertyOp34
 70
     1
102
RTVSPropertyOp35
 70
     1
102
RTVSPropertyOp36
 70
     1
102
RTVSPropertyOp37
 70
     1
102
RTVSPropertyOp38
 70
     1
102
RTVSPropertyOp39
 70
     1
102
RTVSPropertyOp40
 70
     1
102
RTVSPropertyOp41
 70
     1
102
RTVSPropertyOp42
 70
     1
102
RTVSPropertyOp43
 70
     1
102
RTVSPropertyOp44
 70
     1
102
RTVSPropertyOp45
 70
     1
102
RTVSPropertyOp46
 70
     1
102
RTVSPropertyOp47
 70
     1
102
RTVSPropertyOp48
 70
     1
102
RTVSPropertyOp49
 70
     1
102
RTVSPropertyOp50
 70
     1
102
RTVSPropertyOp51
 70
     0
102
RTVSPropertyOp52
 70
     0
102
RTVSPropertyOp53
 70
     1
102
RTVSPropertyOp54
 70
     1
102
RTVSPropertyOp55
 70
     1
102
RTVSPropertyOp56
 70
     1
102
RTVSPropertyOp57
 70
     1
102
RTVSPost2010Prop28
280
     0
102
RTVSPost2010PropOp28
 70
     1
102
RTVSPost2010Prop29
280
     1
102
RTVSPost2010PropOp29
 70
     1
102
RTVSPost2010Prop30
280
     1
102
RTVSPost2010PropOp30
 70
     1
102
RTVSPost2010Prop31
280
     0
102
RTVSPost2010PropOp31
 70
     1
102
RTVSPost2010Prop32
280
     0
102
RTVSPost2010PropOp32
 70
     1
102
RTVSPost2010Prop33
280
     0
102
RTVSPost2010PropOp33
 70
     1
102
RTVSPost2010Prop34
280
     0
102
RTVSPost2010PropOp34
 70
     1
102
RTVSPost2010Prop35
280
     0
102
RTVSPost2010PropOp35
 70
     1
102
RTVSPost2010Prop36
280
     0
102
RTVSPost2010PropOp36
 70
     1
102
RTVSPost2010Prop37
 90
       50
102
RTVSPost2010PropOp37
 70
     1
102
RTVSPost2010Prop38
140
0.0
102
RTVSPost2010PropOp38
 70
     1
102
RTVSPost2010Prop39
140
1.0
102
RTVSPost2010PropOp39
 70
     1
102
RTVSPost2010Prop40
 90
        0
102
RTVSPost2010PropOp40
 70
     1
102
RTVSPost2010Prop41ColorIndex
 90
       18
102
RTVSPost2010Prop41ColorRGB
 90
        0
102
RTVSPost2010PropOp41
 70
     1
102
RTVSPost2010Prop42
 90
       50
102
RTVSPost2010PropOp42
 70
     1
102
RTVSPost2010Prop43
 90
        3
102
RTVSPost2010PropOp43
 70
     1
102
RTVSPost2010Prop44ColorIndex
 90
        5
102
RTVSPost2010Prop44ColorRGB
 90
      255
102
RTVSPost2010PropOp44
 70
     1
102
RTVSPost2010Prop45
280
     0
102
RTVSPost2010PropOp45
 70
     1
102
RTVSPost2010Prop46
 90
       50
102
RTVSPost2010PropOp46
 70
     1
102
RTVSPost2010Prop47
 90
       50
102
RTVSPost2010PropOp47
 70
     1
102
RTVSPost2010Prop48
 90
       50
102
RTVSPost2010PropOp48
 70
     1
102
RTVSPost2010Prop49
280
     0
102
RTVSPost2010PropOp49
 70
     1
102
RTVSPost2010Prop50
 90
       50
102
RTVSPost2010PropOp50
 70
     1
102
RTVSPost2010Prop51ColorIndex
 90
      256
102
RTVSPost2010Prop51ColorRGB
 90
-16777216
102
RTVSPost2010PropOp51
 70
     0
102
RTVSPost2010Prop52
140
1.0
102
RTVSPost2010PropOp52
 70
     0
102
RTVSPost2010Prop53
 90
        2
102
RTVSPost2010PropOp53
 70
     1
102
RTVSPost2010Prop54
  1
strokes_ogs.tif
102
RTVSPost2010PropOp54
 70
     1
102
RTVSPost2010Prop55
280
     0
102
RTVSPost2010PropOp55
 70
     1
102
RTVSPost2010Prop56
140
1.0
102
RTVSPost2010PropOp56
 70
     1
102
RTVSPost2010Prop57
140
1.0
102
RTVSPost2010PropOp57
 70
     1
  0
XRECORD
  5
175
102
{ACAD_REACTORS
330
174
102
}
330
174
100
AcDbXrecord
280
     1
102
RTVSPropertyOp0
 70
     1
102
RTVSPropertyOp1
 70
     1
102
RTVSPropertyOp2
 70
     1
102
RTVSPropertyOp3
 70
     1
102
RTVSPropertyOp4
 70
     1
102
RTVSPropertyOp5
 70
     1
102
RTVSPropertyOp6
 70
     1
102
RTVSPropertyOp7
 70
     1
102
RTVSPropertyOp8
 70
     1
102
RTVSPropertyOp9
 70
     1
102
RTVSPropertyOp10
 70
     1
102
RTVSPropertyOp11
 70
     1
102
RTVSPropertyOp12
 70
     1
102
RTVSPropertyOp13
 70
     1
102
RTVSPropertyOp14
 70
     1
102
RTVSPropertyOp15
 70
     1
102
RTVSPropertyOp16
 70
     1
102
RTVSPropertyOp17
 70
     1
102
RTVSPropertyOp18
 70
     1
102
RTVSPropertyOp19
 70
     1
102
RTVSPropertyOp20
 70
     1
102
RTVSPropertyOp21
 70
     1
102
RTVSPropertyOp22
 70
     1
102
RTVSPropertyOp23
 70
     1
102
RTVSPropertyOp24
 70
     1
102
RTVSPropertyOp25
 70
     1
102
RTVSPropertyOp26
 70
     1
102
RTVSPropertyOp27
 70
     1
102
RTVSPropertyOp28
 70
     1
102
RTVSPropertyOp29
 70
     1
102
RTVSPropertyOp30
 70
     1
102
RTVSPropertyOp31
 70
     1
102
RTVSPropertyOp32
 70
     1
102
RTVSPropertyOp33
 70
     1
102
RTVSPropertyOp34
 70
     1
102
RTVSPropertyOp35
 70
     1
102
RTVSPropertyOp36
 70
     1
102
RTVSPropertyOp37
 70
     1
102
RTVSPropertyOp38
 70
     1
102
RTVSPropertyOp39
 70
     1
102
RTVSPropertyOp40
 70
     1
102
RTVSPropertyOp41
 70
     1
102
RTVSPropertyOp42
 70
     1
102
RTVSPropertyOp43
 70
     1
102
RTVSPropertyOp44
 70
     1
102
RTVSPropertyOp45
 70
     1
102
RTVSPropertyOp46
 70
     1
102
RTVSPropertyOp47
 70
     1
102
RTVSPropertyOp48
 70
     1
102
RTVSPropertyOp49
 70
     1
102
RTVSPropertyOp50
 70
     1
102
RTVSPropertyOp51
 70
     0
102
RTVSPropertyOp52
 70
     0
102
RTVSPropertyOp53
 70
     1
102
RTVSPropertyOp54
 70
     1
102
RTVSPropertyOp55
 70
     1
102
RTVSPropertyOp56
 70
     1
102
RTVSPropertyOp57
 70
     1
102
RTVSPost2010Prop28
280
     0
102
RTVSPost2010PropOp28
 70
     1
102
RTVSPost2010Prop29
280
     1
102
RTVSPost2010PropOp29
 70
     1
102
RTVSPost2010Prop30
280
     1
102
RTVSPost2010PropOp30
 70
     1
102
RTVSPost2010Prop31
280
     0
102
RTVSPost2010PropOp31
 70
     1
102
RTVSPost2010Prop32
280
     0
102
RTVSPost2010PropOp32
 70
     1
102
RTVSPost2010Prop33
280
     0
102
RTVSPost2010PropOp33
 70
     1
102
RTVSPost2010Prop34
280
     0
102
RTVSPost2010PropOp34
 70
     1
102
RTVSPost2010Prop35
280
     0
102
RTVSPost2010PropOp35
 70
     1
102
RTVSPost2010Prop36
280
     0
102
RTVSPost2010PropOp36
 70
     1
102
RTVSPost2010Prop37
 90
       50
102
RTVSPost2010PropOp37
 70
     1
102
RTVSPost2010Prop38
140
0.0
102
RTVSPost2010PropOp38
 70
     1
102
RTVSPost2010Prop39
140
1.0
102
RTVSPost2010PropOp39
 70
     1
102
RTVSPost2010Prop40
 90
        0
102
RTVSPost2010PropOp40
 70
     1
102
RTVSPost2010Prop41ColorIndex
 90
       18
102
RTVSPost2010Prop41ColorRGB
 90
        0
102
RTVSPost2010PropOp41
 70
     1
102
RTVSPost2010Prop42
 90
       50
102
RTVSPost2010PropOp42
 70
     1
102
RTVSPost2010Prop43
 90
        3
102
RTVSPost2010PropOp43
 70
     1
102
RTVSPost2010Prop44ColorIndex
 90
        5
102
RTVSPost2010Prop44ColorRGB
 90
      255
102
RTVSPost2010PropOp44
 70
     1
102
RTVSPost2010Prop45
280
     0
102
RTVSPost2010PropOp45
 70
     1
102
RTVSPost2010Prop46
 90
       50
102
RTVSPost2010PropOp46
 70
     1
102
RTVSPost2010Prop47
 90
       50
102
RTVSPost2010PropOp47
 70
     1
102
RTVSPost2010Prop48
 90
       50
102
RTVSPost2010PropOp48
 70
     1
102
RTVSPost2010Prop49
280
     0
102
RTVSPost2010PropOp49
 70
     1
102
RTVSPost2010Prop50
 90
       50
102
RTVSPost2010PropOp50
 70
     1
102
RTVSPost2010Prop51ColorIndex
 90
      256
102
RTVSPost2010Prop51ColorRGB
 90
-16777216
102
RTVSPost2010PropOp51
 70
     0
102
RTVSPost2010Prop52
140
1.0
102
RTVSPost2010PropOp52
 70
     0
102
RTVSPost2010Prop53
 90
        2
102
RTVSPost2010PropOp53
 70
     1
102
RTVSPost2010Prop54
  1
strokes_ogs.tif
102
RTVSPost2010PropOp54
 70
     1
102
RTVSPost2010Prop55
280
     0
102
RTVSPost2010PropOp55
 70
     1
102
RTVSPost2010Prop56
140
1.0
102
RTVSPost2010PropOp56
 70
     1
102
RTVSPost2010Prop57
140
1.0
102
RTVSPost2010PropOp57
 70
     1
  0
XRECORD
  5
167
102
{ACAD_REACTORS
330
166
102
}
330
166
100
AcDbXrecord
280
     1
102
RTVSPropertyOp0
 70
     1
102
RTVSPropertyOp1
 70
     1
102
RTVSPropertyOp2
 70
     1
102
RTVSPropertyOp3
 70
     1
102
RTVSPropertyOp4
 70
     1
102
RTVSPropertyOp5
 70
     1
102
RTVSPropertyOp6
 70
     1
102
RTVSPropertyOp7
 70
     1
102
RTVSPropertyOp8
 70
     1
102
RTVSPropertyOp9
 70
     1
102
RTVSPropertyOp10
 70
     1
102
RTVSPropertyOp11
 70
     1
102
RTVSPropertyOp12
 70
     1
102
RTVSPropertyOp13
 70
     1
102
RTVSPropertyOp14
 70
     1
102
RTVSPropertyOp15
 70
     1
102
RTVSPropertyOp16
 70
     1
102
RTVSPropertyOp17
 70
     1
102
RTVSPropertyOp18
 70
     1
102
RTVSPropertyOp19
 70
     1
102
RTVSPropertyOp20
 70
     1
102
RTVSPropertyOp21
 70
     1
102
RTVSPropertyOp22
 70
     1
102
RTVSPropertyOp23
 70
     1
102
RTVSPropertyOp24
 70
     1
102
RTVSPropertyOp25
 70
     1
102
RTVSPropertyOp26
 70
     1
102
RTVSPropertyOp27
 70
     1
102
RTVSPropertyOp28
 70
     1
102
RTVSPropertyOp29
 70
     1
102
RTVSPropertyOp30
 70
     1
102
RTVSPropertyOp31
 70
     1
102
RTVSPropertyOp32
 70
     1
102
RTVSPropertyOp33
 70
     1
102
RTVSPropertyOp34
 70
     1
102
RTVSPropertyOp35
 70
     1
102
RTVSPropertyOp36
 70
     1
102
RTVSPropertyOp37
 70
     1
102
RTVSPropertyOp38
 70
     1
102
RTVSPropertyOp39
 70
     1
102
RTVSPropertyOp40
 70
     1
102
RTVSPropertyOp41
 70
     1
102
RTVSPropertyOp42
 70
     1
102
RTVSPropertyOp43
 70
     1
102
RTVSPropertyOp44
 70
     1
102
RTVSPropertyOp45
 70
     1
102
RTVSPropertyOp46
 70
     1
102
RTVSPropertyOp47
 70
     1
102
RTVSPropertyOp48
 70
     1
102
RTVSPropertyOp49
 70
     1
102
RTVSPropertyOp50
 70
     1
102
RTVSPropertyOp51
 70
     0
102
RTVSPropertyOp52
 70
     0
102
RTVSPropertyOp53
 70
     1
102
RTVSPropertyOp54
 70
     1
102
RTVSPropertyOp55
 70
     1
102
RTVSPropertyOp56
 70
     1
102
RTVSPropertyOp57
 70
     1
102
RTVSPost2010Prop28
280
     0
102
RTVSPost2010PropOp28
 70
     1
102
RTVSPost2010Prop29
280
     1
102
RTVSPost2010PropOp29
 70
     1
102
RTVSPost2010Prop30
280
     1
102
RTVSPost2010PropOp30
 70
     1
102
RTVSPost2010Prop31
280
     0
102
RTVSPost2010PropOp31
 70
     1
102
RTVSPost2010Prop32
280
     0
102
RTVSPost2010PropOp32
 70
     1
102
RTVSPost2010Prop33
280
     0
102
RTVSPost2010PropOp33
 70
     1
102
RTVSPost2010Prop34
280
     0
102
RTVSPost2010PropOp34
 70
     1
102
RTVSPost2010Prop35
280
     0
102
RTVSPost2010PropOp35
 70
     1
102
RTVSPost2010Prop36
280
     0
102
RTVSPost2010PropOp36
 70
     1
102
RTVSPost2010Prop37
 90
       50
102
RTVSPost2010PropOp37
 70
     1
102
RTVSPost2010Prop38
140
0.0
102
RTVSPost2010PropOp38
 70
     1
102
RTVSPost2010Prop39
140
1.0
102
RTVSPost2010PropOp39
 70
     1
102
RTVSPost2010Prop40
 90
        0
102
RTVSPost2010PropOp40
 70
     1
102
RTVSPost2010Prop41ColorIndex
 90
       18
102
RTVSPost2010Prop41ColorRGB
 90
        0
102
RTVSPost2010PropOp41
 70
     1
102
RTVSPost2010Prop42
 90
       50
102
RTVSPost2010PropOp42
 70
     1
102
RTVSPost2010Prop43
 90
        3
102
RTVSPost2010PropOp43
 70
     1
102
RTVSPost2010Prop44ColorIndex
 90
        5
102
RTVSPost2010Prop44ColorRGB
 90
      255
102
RTVSPost2010PropOp44
 70
     1
102
RTVSPost2010Prop45
280
     0
102
RTVSPost2010PropOp45
 70
     1
102
RTVSPost2010Prop46
 90
       50
102
RTVSPost2010PropOp46
 70
     1
102
RTVSPost2010Prop47
 90
       50
102
RTVSPost2010PropOp47
 70
     1
102
RTVSPost2010Prop48
 90
       50
102
RTVSPost2010PropOp48
 70
     1
102
RTVSPost2010Prop49
280
     0
102
RTVSPost2010PropOp49
 70
     1
102
RTVSPost2010Prop50
 90
       50
102
RTVSPost2010PropOp50
 70
     1
102
RTVSPost2010Prop51ColorIndex
 90
      256
102
RTVSPost2010Prop51ColorRGB
 90
-16777216
102
RTVSPost2010PropOp51
 70
     0
102
RTVSPost2010Prop52
140
1.0
102
RTVSPost2010PropOp52
 70
     0
102
RTVSPost2010Prop53
 90
        2
102
RTVSPost2010PropOp53
 70
     1
102
RTVSPost2010Prop54
  1
strokes_ogs.tif
102
RTVSPost2010PropOp54
 70
     1
102
RTVSPost2010Prop55
280
     0
102
RTVSPost2010PropOp55
 70
     1
102
RTVSPost2010Prop56
140
1.0
102
RTVSPost2010PropOp56
 70
     1
102
RTVSPost2010Prop57
140
1.0
102
RTVSPost2010PropOp57
 70
     1
  0
XRECORD
  5
187
102
{ACAD_REACTORS
330
186
102
}
330
186
100
AcDbXrecord
280
     1
102
RTVSPropertyOp0
 70
     1
102
RTVSPropertyOp1
 70
     1
102
RTVSPropertyOp2
 70
     1
102
RTVSPropertyOp3
 70
     1
102
RTVSPropertyOp4
 70
     1
102
RTVSPropertyOp5
 70
     1
102
RTVSPropertyOp6
 70
     1
102
RTVSPropertyOp7
 70
     1
102
RTVSPropertyOp8
 70
     1
102
RTVSPropertyOp9
 70
     1
102
RTVSPropertyOp10
 70
     1
102
RTVSPropertyOp11
 70
     1
102
RTVSPropertyOp12
 70
     1
102
RTVSPropertyOp13
 70
     1
102
RTVSPropertyOp14
 70
     1
102
RTVSPropertyOp15
 70
     1
102
RTVSPropertyOp16
 70
     1
102
RTVSPropertyOp17
 70
     1
102
RTVSPropertyOp18
 70
     1
102
RTVSPropertyOp19
 70
     1
102
RTVSPropertyOp20
 70
     1
102
RTVSPropertyOp21
 70
     1
102
RTVSPropertyOp22
 70
     1
102
RTVSPropertyOp23
 70
     1
102
RTVSPropertyOp24
 70
     1
102
RTVSPropertyOp25
 70
     1
102
RTVSPropertyOp26
 70
     1
102
RTVSPropertyOp27
 70
     1
102
RTVSPropertyOp28
 70
     1
102
RTVSPropertyOp29
 70
     1
102
RTVSPropertyOp30
 70
     1
102
RTVSPropertyOp31
 70
     1
102
RTVSPropertyOp32
 70
     1
102
RTVSPropertyOp33
 70
     1
102
RTVSPropertyOp34
 70
     1
102
RTVSPropertyOp35
 70
     1
102
RTVSPropertyOp36
 70
     1
102
RTVSPropertyOp37
 70
     1
102
RTVSPropertyOp38
 70
     1
102
RTVSPropertyOp39
 70
     1
102
RTVSPropertyOp40
 70
     1
102
RTVSPropertyOp41
 70
     1
102
RTVSPropertyOp42
 70
     1
102
RTVSPropertyOp43
 70
     1
102
RTVSPropertyOp44
 70
     1
102
RTVSPropertyOp45
 70
     1
102
RTVSPropertyOp46
 70
     1
102
RTVSPropertyOp47
 70
     1
102
RTVSPropertyOp48
 70
     1
102
RTVSPropertyOp49
 70
     1
102
RTVSPropertyOp50
 70
     1
102
RTVSPropertyOp51
 70
     0
102
RTVSPropertyOp52
 70
     0
102
RTVSPropertyOp53
 70
     1
102
RTVSPropertyOp54
 70
     1
102
RTVSPropertyOp55
 70
     1
102
RTVSPropertyOp56
 70
     1
102
RTVSPropertyOp57
 70
     1
102
RTVSPost2010Prop28
280
     0
102
RTVSPost2010PropOp28
 70
     1
102
RTVSPost2010Prop29
280
     1
102
RTVSPost2010PropOp29
 70
     1
102
RTVSPost2010Prop30
280
     1
102
RTVSPost2010PropOp30
 70
     1
102
RTVSPost2010Prop31
280
     0
102
RTVSPost2010PropOp31
 70
     1
102
RTVSPost2010Prop32
280
     0
102
RTVSPost2010PropOp32
 70
     1
102
RTVSPost2010Prop33
280
     0
102
RTVSPost2010PropOp33
 70
     1
102
RTVSPost2010Prop34
280
     0
102
RTVSPost2010PropOp34
 70
     1
102
RTVSPost2010Prop35
280
     0
102
RTVSPost2010PropOp35
 70
     1
102
RTVSPost2010Prop36
280
     0
102
RTVSPost2010PropOp36
 70
     1
102
RTVSPost2010Prop37
 90
       50
102
RTVSPost2010PropOp37
 70
     1
102
RTVSPost2010Prop38
140
0.0
102
RTVSPost2010PropOp38
 70
     1
102
RTVSPost2010Prop39
140
1.0
102
RTVSPost2010PropOp39
 70
     1
102
RTVSPost2010Prop40
 90
        0
102
RTVSPost2010PropOp40
 70
     1
102
RTVSPost2010Prop41ColorIndex
 90
       18
102
RTVSPost2010Prop41ColorRGB
 90
        0
102
RTVSPost2010PropOp41
 70
     1
102
RTVSPost2010Prop42
 90
       50
102
RTVSPost2010PropOp42
 70
     1
102
RTVSPost2010Prop43
 90
        3
102
RTVSPost2010PropOp43
 70
     1
102
RTVSPost2010Prop44ColorIndex
 90
        5
102
RTVSPost2010Prop44ColorRGB
 90
      255
102
RTVSPost2010PropOp44
 70
     1
102
RTVSPost2010Prop45
280
     0
102
RTVSPost2010PropOp45
 70
     1
102
RTVSPost2010Prop46
 90
       50
102
RTVSPost2010PropOp46
 70
     1
102
RTVSPost2010Prop47
 90
       50
102
RTVSPost2010PropOp47
 70
     1
102
RTVSPost2010Prop48
 90
       50
102
RTVSPost2010PropOp48
 70
     1
102
RTVSPost2010Prop49
280
     0
102
RTVSPost2010PropOp49
 70
     1
102
RTVSPost2010Prop50
 90
       50
102
RTVSPost2010PropOp50
 70
     1
102
RTVSPost2010Prop51ColorIndex
 90
      256
102
RTVSPost2010Prop51ColorRGB
 90
-16777216
102
RTVSPost2010PropOp51
 70
     0
102
RTVSPost2010Prop52
140
1.0
102
RTVSPost2010PropOp52
 70
     0
102
RTVSPost2010Prop53
 90
        2
102
RTVSPost2010PropOp53
 70
     1
102
RTVSPost2010Prop54
  1
strokes_ogs.tif
102
RTVSPost2010PropOp54
 70
     1
102
RTVSPost2010Prop55
280
     0
102
RTVSPost2010PropOp55
 70
     1
102
RTVSPost2010Prop56
140
1.0
102
RTVSPost2010PropOp56
 70
     1
102
RTVSPost2010Prop57
140
1.0
102
RTVSPost2010PropOp57
 70
     1
  0
ENDSEC
  0
EOF
