  0
SECTION
  2
HEADER
  9
$ACADVER
  1
AC1009
  9
$DWGCODEPAGE
  3
ansi_1252
  9
$INSBASE
 10
0.0
 20
0.0
 30
0.0
  9
$EXTMIN
 10
-3460.845209622583
 20
-2538.4
 30
-0.334132153533119
  9
$EXTMAX
 10
-2546.445209622583
 20
-1928.8
 30
3.419737249663513
  9
$LIMMIN
 10
0.0
 20
0.0
  9
$LIMMAX
 10
12.0
 20
9.0
  9
$ORTHOMODE
 70
     0
  9
$REGENMODE
 70
     1
  9
$FILLMODE
 70
     1
  9
$QTEXTMODE
 70
     0
  9
$MIRRTEXT
 70
     1
  9
$DRAGMODE
 70
     2
  9
$LTSCALE
 40
1.0
  9
$OSMODE
 70
    37
  9
$ATTMODE
 70
     1
  9
$TEXTSIZE
 40
0.2
  9
$TRACEWID
 40
0.05
  9
$TEXTSTYLE
  7
STANDARD
  9
$CLAYER
  8
DEFAULT
  9
$CELTYPE
  6
BYLAYER
  9
$CECOLOR
 62
   256
  9
$DIMSCALE
 40
1.0
  9
$DIMASZ
 40
0.18
  9
$DIMEXO
 40
0.0625
  9
$DIMDLI
 40
0.38
  9
$DIMRND
 40
0.0
  9
$DIMDLE
 40
0.0
  9
$DIMEXE
 40
0.18
  9
$DIMTP
 40
0.0
  9
$DIMTM
 40
0.0
  9
$DIMTXT
 40
0.18
  9
$DIMCEN
 40
0.09
  9
$DIMTSZ
 40
0.0
  9
$DIMTOL
 70
     0
  9
$DIMLIM
 70
     0
  9
$DIMTIH
 70
     1
  9
$DIMTOH
 70
     1
  9
$DIMSE1
 70
     0
  9
$DIMSE2
 70
     0
  9
$DIMTAD
 70
     0
  9
$DIMZIN
 70
     0
  9
$DIMBLK
  1

  9
$DIMASO
 70
     1
  9
$DIMSHO
 70
     1
  9
$DIMPOST
  1

  9
$DIMAPOST
  1

  9
$DIMALT
 70
     0
  9
$DIMALTD
 70
     2
  9
$DIMALTF
 40
25.4
  9
$DIMLFAC
 40
1.0
  9
$DIMTOFL
 70
     0
  9
$DIMTVP
 40
0.0
  9
$DIMTIX
 70
     0
  9
$DIMSOXD
 70
     0
  9
$DIMSAH
 70
     0
  9
$DIMBLK1
  1

  9
$DIMBLK2
  1

  9
$DIMSTYLE
  2
STANDARD
  9
$DIMCLRD
 70
     0
  9
$DIMCLRE
 70
     0
  9
$DIMCLRT
 70
     0
  9
$DIMTFAC
 40
1.0
  9
$DIMGAP
 40
0.09
  9
$LUNITS
 70
     2
  9
$LUPREC
 70
     2
  9
$SKETCHINC
 40
0.1
  9
$FILLETRAD
 40
0.5
  9
$AUNITS
 70
     0
  9
$AUPREC
 70
     0
  9
$MENU
  1
.
  9
$ELEVATION
 40
0.0
  9
$PELEVATION
 40
0.0
  9
$THICKNESS
 40
0.0
  9
$LIMCHECK
 70
     0
  9
$CHAMFERA
 40
0.0
  9
$CHAMFERB
 40
0.0
  9
$SKPOLY
 70
     0
  9
$TDCREATE
 40
2458244.634850081
  9
$TDUPDATE
 40
2458244.63485794
  9
$TDINDWG
 40
0.0000000116
  9
$TDUSRTIMER
 40
0.0000000116
  9
$USRTIMER
 70
     1
  9
$ANGBASE
 50
0.0
  9
$ANGDIR
 70
     0
  9
$PDMODE
 70
     0
  9
$PDSIZE
 40
0.0
  9
$PLINEWID
 40
0.0
  9
$COORDS
 70
     1
  9
$SPLFRAME
 70
     0
  9
$SPLINETYPE
 70
     6
  9
$SPLINESEGS
 70
     8
  9
$ATTDIA
 70
     0
  9
$ATTREQ
 70
     1
  9
$HANDLING
 70
     1
  9
$HANDSEED
  5
1AA
  9
$SURFTAB1
 70
     6
  9
$SURFTAB2
 70
     6
  9
$SURFTYPE
 70
     6
  9
$SURFU
 70
     6
  9
$SURFV
 70
     6
  9
$UCSNAME
  2

  9
$UCSORG
 10
0.0
 20
0.0
 30
0.0
  9
$UCSXDIR
 10
1.0
 20
0.0
 30
0.0
  9
$UCSYDIR
 10
0.0
 20
1.0
 30
0.0
  9
$PUCSNAME
  2

  9
$PUCSORG
 10
0.0
 20
0.0
 30
0.0
  9
$PUCSXDIR
 10
1.0
 20
0.0
 30
0.0
  9
$PUCSYDIR
 10
0.0
 20
1.0
 30
0.0
  9
$USERI1
 70
     0
  9
$USERI2
 70
     0
  9
$USERI3
 70
     0
  9
$USERI4
 70
     0
  9
$USERI5
 70
     0
  9
$USERR1
 40
0.0
  9
$USERR2
 40
0.0
  9
$USERR3
 40
0.0
  9
$USERR4
 40
0.0
  9
$USERR5
 40
0.0
  9
$WORLDVIEW
 70
     1
  9
$SHADEDGE
 70
     3
  9
$SHADEDIF
 70
    70
  9
$TILEMODE
 70
     1
  9
$MAXACTVP
 70
    64
  9
$PLIMCHECK
 70
     0
  9
$PEXTMIN
 10
1.000000000000000E+20
 20
1.000000000000000E+20
 30
1.000000000000000E+20
  9
$PEXTMAX
 10
-1.000000000000000E+20
 20
-1.000000000000000E+20
 30
-1.000000000000000E+20
  9
$PLIMMIN
 10
0.0
 20
0.0
  9
$PLIMMAX
 10
12.0
 20
9.0
  9
$UNITMODE
 70
     0
  9
$VISRETAIN
 70
     1
  9
$PLINEGEN
 70
     0
  9
$PSLTSCALE
 70
     1
  0
ENDSEC
  0
SECTION
  2
TABLES
  0
TABLE
  2
VPORT
 70
     1
  0
VPORT
  2
*ACTIVE
 70
     0
 10
0.0
 20
0.0
 11
1.0
 21
1.0
 12
-3003.645209622583
 22
-2233.6
 13
0.0
 23
0.0
 14
0.5
 24
0.5
 15
0.5
 25
0.5
 16
0.0
 26
0.0
 36
1.0
 17
0.0
 27
0.0
 37
0.0
 40
621.7919999999995
 41
1.500000000000001
 42
50.0
 43
0.0
 44
0.0
 50
0.0
 51
0.0
 71
     0
 72
   100
 73
     1
 74
     3
 75
     0
 76
     0
 77
     0
 78
     0
  0
ENDTAB
  0
TABLE
  2
LTYPE
 70
     1
  0
LTYPE
  2
CONTINUOUS
 70
     0
  3
Solid line
 72
    65
 73
     0
 40
0.0
  0
ENDTAB
  0
TABLE
  2
LAYER
 70
     2
  0
LAYER
  2
0
 70
     0
 62
     7
  6
CONTINUOUS
  0
LAYER
  2
DEFAULT
 70
     0
 62
     7
  6
CONTINUOUS
  0
ENDTAB
  0
TABLE
  2
STYLE
 70
     1
  0
STYLE
  2
STANDARD
 70
     0
 40
0.0
 41
1.0
 50
0.0
 71
     0
 42
0.2
  3
txt
  4

  0
ENDTAB
  0
TABLE
  2
VIEW
 70
     0
  0
ENDTAB
  0
TABLE
  2
UCS
 70
     0
  0
ENDTAB
  0
TABLE
  2
APPID
 70
     1
  0
APPID
  2
ACAD
 70
     0
  0
ENDTAB
  0
TABLE
  2
DIMSTYLE
 70
     1
  0
DIMSTYLE
  2
STANDARD
 70
     0
  3

  4

  5

  6

  7

 40
1.0
 41
0.18
 42
0.0625
 43
0.38
 44
0.18
 45
0.0
 46
0.0
 47
0.0
 48
0.0
140
0.18
141
0.09
142
0.0
143
25.4
144
1.0
145
0.0
146
1.0
147
0.09
 71
     0
 72
     0
 73
     1
 74
     1
 75
     0
 76
     0
 77
     0
 78
     0
170
     0
171
     2
172
     0
173
     0
174
     0
175
     0
176
     0
177
     0
178
     0
  0
ENDTAB
  0
ENDSEC
  0
SECTION
  2
BLOCKS
  0
BLOCK
  8
0
  2
$MODEL_SPACE
 70
     0
 10
0.0
 20
0.0
 30
0.0
  3
$MODEL_SPACE
  1

  0
ENDBLK
  5
21
  8
0
  0
BLOCK
 67
     1
  8
0
  2
$PAPER_SPACE
 70
     0
 10
0.0
 20
0.0
 30
0.0
  3
$PAPER_SPACE
  1

  0
ENDBLK
  5
1D
 67
     1
  8
0
  0
ENDSEC
  0
SECTION
  2
ENTITIES
  0
POLYLINE
  5
6F
  8
DEFAULT
 66
     1
 10
0.0
 20
0.0
 30
3.089675800003079
 70
     1
  0
VERTEX
  5
70
  8
DEFAULT
 10
-2868.645209622583
 20
-2078.6
 30
3.089675800003079
  0
VERTEX
  5
71
  8
DEFAULT
 10
-2868.645209622583
 20
-2388.6
 30
3.089675800003079
 42
-0.4142135623730884
  0
VERTEX
  5
72
  8
DEFAULT
 10
-2888.645209622583
 20
-2408.6
 30
3.089675800003079
  0
VERTEX
  5
73
  8
DEFAULT
 10
-3048.645209622583
 20
-2408.600000000001
 30
3.089675800003079
 42
-0.4142135623730931
  0
VERTEX
  5
74
  8
DEFAULT
 10
-3068.645209622583
 20
-2388.6
 30
3.089675800003079
  0
VERTEX
  5
75
  8
DEFAULT
 10
-3068.645209622583
 20
-2078.6
 30
3.089675800003079
 42
-0.4142135623730931
  0
VERTEX
  5
76
  8
DEFAULT
 10
-3048.645209622583
 20
-2058.6
 30
3.089675800003079
  0
VERTEX
  5
77
  8
DEFAULT
 10
-2888.645209622583
 20
-2058.6
 30
3.089675800003079
 42
-0.4142135623730931
  0
SEQEND
  5
78
  8
DEFAULT
  0
POLYLINE
  5
79
  8
DEFAULT
 66
     1
 10
0.0
 20
0.0
 30
3.089675800007171
 70
     1
  0
VERTEX
  5
7A
  8
DEFAULT
 10
-2967.145209622583
 20
-2438.400000000001
 30
3.089675800007171
  0
VERTEX
  5
7B
  8
DEFAULT
 10
-2943.645209622583
 20
-2438.4
 30
3.089675800007171
  0
VERTEX
  5
7C
  8
DEFAULT
 10
-2943.645209622583
 20
-2433.6
 30
3.089675800007171
  0
VERTEX
  5
7D
  8
DEFAULT
 10
-2913.645209622583
 20
-2433.6
 30
3.089675800007171
  0
VERTEX
  5
7E
  8
DEFAULT
 10
-2913.645209622583
 20
-2438.4
 30
3.089675800007171
  0
VERTEX
  5
7F
  8
DEFAULT
 10
-2890.145209622583
 20
-2438.4
 30
3.089675800007171
  0
VERTEX
  5
80
  8
DEFAULT
 10
-2890.145209622583
 20
-2428.600000295185
 30
3.089675800007171
  0
VERTEX
  5
81
  8
DEFAULT
 10
-2892.645209622583
 20
-2428.600000295185
 30
3.089675800007171
  0
VERTEX
  5
82
  8
DEFAULT
 10
-2892.645209622583
 20
-2422.599999977293
 30
3.089675800007171
  0
VERTEX
  5
83
  8
DEFAULT
 10
-2884.645209622583
 20
-2422.599999977293
 30
3.089675800007171
  0
VERTEX
  5
84
  8
DEFAULT
 10
-2884.645209622583
 20
-2428.600000295185
 30
3.089675800007171
  0
VERTEX
  5
85
  8
DEFAULT
 10
-2887.145209622583
 20
-2428.600000295185
 30
3.089675800007171
  0
VERTEX
  5
86
  8
DEFAULT
 10
-2887.145209622583
 20
-2438.4
 30
3.089675800007171
  0
VERTEX
  5
87
  8
DEFAULT
 10
-2863.645209622583
 20
-2438.4
 30
3.089675800007171
  0
VERTEX
  5
88
  8
DEFAULT
 10
-2863.645209622583
 20
-2433.6
 30
3.089675800007171
  0
VERTEX
  5
89
  8
DEFAULT
 10
-2843.645209622583
 20
-2433.6
 30
3.089675800007171
  0
VERTEX
  5
8A
  8
DEFAULT
 10
-2843.645209622583
 20
-2033.6
 30
3.089675800007171
  0
VERTEX
  5
8B
  8
DEFAULT
 10
-2863.645209622583
 20
-2033.6
 30
3.089675800007171
  0
VERTEX
  5
8C
  8
DEFAULT
 10
-2863.645209622583
 20
-2028.8
 30
3.089675800007171
  0
VERTEX
  5
8D
  8
DEFAULT
 10
-2887.145209622583
 20
-2028.8
 30
3.089675800007171
  0
VERTEX
  5
8E
  8
DEFAULT
 10
-2887.145209622583
 20
-2038.599999704815
 30
3.089675800007171
  0
VERTEX
  5
8F
  8
DEFAULT
 10
-2884.645209622583
 20
-2038.599999704815
 30
3.089675800007171
  0
VERTEX
  5
90
  8
DEFAULT
 10
-2884.645209622583
 20
-2044.600000022706
 30
3.089675800007171
  0
VERTEX
  5
91
  8
DEFAULT
 10
-2892.645209622583
 20
-2044.600000022706
 30
3.089675800007171
  0
VERTEX
  5
92
  8
DEFAULT
 10
-2892.645209622583
 20
-2038.599999704815
 30
3.089675800007171
  0
VERTEX
  5
93
  8
DEFAULT
 10
-2890.145209622583
 20
-2038.599999704815
 30
3.089675800007171
  0
VERTEX
  5
94
  8
DEFAULT
 10
-2890.145209622583
 20
-2028.8
 30
3.089675800007171
  0
VERTEX
  5
95
  8
DEFAULT
 10
-2913.645209622583
 20
-2028.8
 30
3.089675800007171
  0
VERTEX
  5
96
  8
DEFAULT
 10
-2913.645209622583
 20
-2033.6
 30
3.089675800007171
  0
VERTEX
  5
97
  8
DEFAULT
 10
-2943.645209622583
 20
-2033.6
 30
3.089675800007171
  0
VERTEX
  5
98
  8
DEFAULT
 10
-2943.645209622583
 20
-2028.8
 30
3.089675800007171
  0
VERTEX
  5
99
  8
DEFAULT
 10
-2967.145209622583
 20
-2028.8
 30
3.089675800007171
  0
VERTEX
  5
9A
  8
DEFAULT
 10
-2967.145209622583
 20
-2038.599999704815
 30
3.089675800007171
  0
VERTEX
  5
9B
  8
DEFAULT
 10
-2964.645209622583
 20
-2038.599999704815
 30
3.089675800007171
  0
VERTEX
  5
9C
  8
DEFAULT
 10
-2964.645209622583
 20
-2044.600000022706
 30
3.089675800007171
  0
VERTEX
  5
9D
  8
DEFAULT
 10
-2972.645209622583
 20
-2044.600000022706
 30
3.089675800007171
  0
VERTEX
  5
9E
  8
DEFAULT
 10
-2972.645209622583
 20
-2038.599999704815
 30
3.089675800007171
  0
VERTEX
  5
9F
  8
DEFAULT
 10
-2970.145209622583
 20
-2038.599999704815
 30
3.089675800007171
  0
VERTEX
  5
A0
  8
DEFAULT
 10
-2970.145209622583
 20
-2028.8
 30
3.089675800007171
  0
VERTEX
  5
A1
  8
DEFAULT
 10
-2993.645209622583
 20
-2028.8
 30
3.089675800007171
  0
VERTEX
  5
A2
  8
DEFAULT
 10
-2993.645209622583
 20
-2033.6
 30
3.089675800007171
  0
VERTEX
  5
A3
  8
DEFAULT
 10
-3023.645209622583
 20
-2033.6
 30
3.089675800007171
  0
VERTEX
  5
A4
  8
DEFAULT
 10
-3023.645209622583
 20
-2028.8
 30
3.089675800007171
  0
VERTEX
  5
A5
  8
DEFAULT
 10
-3047.145209622583
 20
-2028.8
 30
3.089675800007171
  0
VERTEX
  5
A6
  8
DEFAULT
 10
-3047.145209622583
 20
-2038.599999704815
 30
3.089675800007171
  0
VERTEX
  5
A7
  8
DEFAULT
 10
-3044.645209622583
 20
-2038.599999704815
 30
3.089675800007171
  0
VERTEX
  5
A8
  8
DEFAULT
 10
-3044.645209622583
 20
-2044.600000022706
 30
3.089675800007171
  0
VERTEX
  5
A9
  8
DEFAULT
 10
-3052.645209622583
 20
-2044.600000022706
 30
3.089675800007171
  0
VERTEX
  5
AA
  8
DEFAULT
 10
-3052.645209622583
 20
-2038.599999704815
 30
3.089675800007171
  0
VERTEX
  5
AB
  8
DEFAULT
 10
-3050.145209622583
 20
-2038.599999704815
 30
3.089675800007171
  0
VERTEX
  5
AC
  8
DEFAULT
 10
-3050.145209622583
 20
-2028.8
 30
3.089675800007171
  0
VERTEX
  5
AD
  8
DEFAULT
 10
-3073.645209622583
 20
-2028.8
 30
3.089675800007171
  0
VERTEX
  5
AE
  8
DEFAULT
 10
-3073.645209622583
 20
-2033.6
 30
3.089675800007171
  0
VERTEX
  5
AF
  8
DEFAULT
 10
-3093.645209622583
 20
-2033.6
 30
3.089675800007171
  0
VERTEX
  5
B0
  8
DEFAULT
 10
-3093.645209622583
 20
-2433.6
 30
3.089675800007171
  0
VERTEX
  5
B1
  8
DEFAULT
 10
-3073.645209622583
 20
-2433.6
 30
3.089675800007171
  0
VERTEX
  5
B2
  8
DEFAULT
 10
-3073.645209622583
 20
-2438.4
 30
3.089675800007171
  0
VERTEX
  5
B3
  8
DEFAULT
 10
-3050.145209622583
 20
-2438.4
 30
3.089675800007171
  0
VERTEX
  5
B4
  8
DEFAULT
 10
-3050.145209622583
 20
-2428.600000295185
 30
3.089675800007171
  0
VERTEX
  5
B5
  8
DEFAULT
 10
-3052.645209622583
 20
-2428.600000295185
 30
3.089675800007171
  0
VERTEX
  5
B6
  8
DEFAULT
 10
-3052.645209622583
 20
-2422.599999977293
 30
3.089675800007171
  0
VERTEX
  5
B7
  8
DEFAULT
 10
-3044.645209622583
 20
-2422.599999977293
 30
3.089675800007171
  0
VERTEX
  5
B8
  8
DEFAULT
 10
-3044.645209622583
 20
-2428.600000295185
 30
3.089675800007171
  0
VERTEX
  5
B9
  8
DEFAULT
 10
-3047.145209622583
 20
-2428.600000295185
 30
3.089675800007171
  0
VERTEX
  5
BA
  8
DEFAULT
 10
-3047.145209622583
 20
-2438.4
 30
3.089675800007171
  0
VERTEX
  5
BB
  8
DEFAULT
 10
-3023.645209622583
 20
-2438.4
 30
3.089675800007171
  0
VERTEX
  5
BC
  8
DEFAULT
 10
-3023.645209622583
 20
-2433.6
 30
3.089675800007171
  0
VERTEX
  5
BD
  8
DEFAULT
 10
-2993.645209622583
 20
-2433.6
 30
3.089675800007171
  0
VERTEX
  5
BE
  8
DEFAULT
 10
-2993.645209622582
 20
-2438.4
 30
3.089675800007171
  0
VERTEX
  5
BF
  8
DEFAULT
 10
-2970.145209622583
 20
-2438.400000000001
 30
3.089675800007171
  0
VERTEX
  5
C0
  8
DEFAULT
 10
-2970.145209622583
 20
-2428.600000295185
 30
3.089675800007171
  0
VERTEX
  5
C1
  8
DEFAULT
 10
-2972.645209622583
 20
-2428.600000295185
 30
3.089675800007171
  0
VERTEX
  5
C2
  8
DEFAULT
 10
-2972.645209622583
 20
-2422.599999977293
 30
3.089675800007171
  0
VERTEX
  5
C3
  8
DEFAULT
 10
-2964.645209622583
 20
-2422.599999977293
 30
3.089675800007171
  0
VERTEX
  5
C4
  8
DEFAULT
 10
-2964.645209622583
 20
-2428.600000295185
 30
3.089675800007171
  0
VERTEX
  5
C5
  8
DEFAULT
 10
-2967.145209622583
 20
-2428.600000295185
 30
3.089675800007171
  0
SEQEND
  5
C6
  8
DEFAULT
  0
POLYLINE
  5
C7
  8
DEFAULT
 66
     1
 10
0.0
 20
0.0
 30
1.542802548035694
 70
     1
  0
VERTEX
  5
C8
  8
DEFAULT
 10
-3460.845209622583
 20
-2538.4
 30
1.542802548035694
  0
VERTEX
  5
C9
  8
DEFAULT
 10
-2546.445209622583
 20
-2538.4
 30
1.542802548035694
  0
VERTEX
  5
CA
  8
DEFAULT
 10
-2546.445209622583
 20
-1928.8
 30
1.542802548035694
  0
VERTEX
  5
CB
  8
DEFAULT
 10
-3460.845209622583
 20
-1928.8
 30
1.542802548035694
  0
SEQEND
  5
CC
  8
DEFAULT
  0
POLYLINE
  5
CD
  8
DEFAULT
 10
0.0
 20
0.0
 30
0.0
 66
     1
 70
     9
  0
VERTEX
  5
CE
  8
DEFAULT
 10
-3408.645209622582
 20
-2028.799999999999
 30
3.089679618186892
 70
    32
  0
VERTEX
  5
CF
  8
DEFAULT
 10
-3408.645209622582
 20
-2033.599999999999
 30
3.08967961818712
 70
    32
  0
VERTEX
  5
D0
  8
DEFAULT
 10
-3428.645209622583
 20
-2033.599999999999
 30
3.089662380178424
 70
    32
  0
VERTEX
  5
D1
  8
DEFAULT
 10
-3428.645209622583
 20
-2433.599999999999
 30
3.089662380178424
 70
    32
  0
VERTEX
  5
D2
  8
DEFAULT
 10
-3408.645209622582
 20
-2433.599999999999
 30
3.089670999186183
 70
    32
  0
VERTEX
  5
D3
  8
DEFAULT
 10
-3408.645209622582
 20
-2438.399999999999
 30
3.08967961818712
 70
    32
  0
VERTEX
  5
D4
  8
DEFAULT
 10
-3380.145209622582
 20
-2438.399999999999
 30
3.089679618189393
 70
    32
  0
VERTEX
  5
D5
  8
DEFAULT
 10
-3380.145209622582
 20
-2433.599999999999
 30
3.08966238018229
 70
    32
  0
VERTEX
  5
D6
  8
DEFAULT
 10
-3380.145209622582
 20
-2428.600000295184
 30
3.08966238018229
 70
    32
  0
VERTEX
  5
D7
  8
DEFAULT
 10
-3382.645209622582
 20
-2428.600000295184
 30
3.089662380187292
 70
    32
  0
VERTEX
  5
D8
  8
DEFAULT
 10
-3382.645209622582
 20
-2422.599999977293
 30
3.08966238018229
 70
    32
  0
VERTEX
  5
D9
  8
DEFAULT
 10
-3374.645209622583
 20
-2422.599999977293
 30
3.089662380182745
 70
    32
  0
VERTEX
  5
DA
  8
DEFAULT
 10
-3374.645209622583
 20
-2428.600000295184
 30
3.089662380182745
 70
    32
  0
VERTEX
  5
DB
  8
DEFAULT
 10
-3377.145209622582
 20
-2428.600000295184
 30
3.089662380182517
 70
    32
  0
VERTEX
  5
DC
  8
DEFAULT
 10
-3377.145209622582
 20
-2433.599999999999
 30
3.089662380182517
 70
    32
  0
VERTEX
  5
DD
  8
DEFAULT
 10
-3377.145209622582
 20
-2438.399999999999
 30
3.089679618189621
 70
    32
  0
VERTEX
  5
DE
  8
DEFAULT
 10
-3348.645209622583
 20
-2438.399999999999
 30
3.089679618191894
 70
    32
  0
VERTEX
  5
DF
  8
DEFAULT
 10
-3348.645209622583
 20
-2433.599999999999
 30
3.089672563784461
 70
    32
  0
VERTEX
  5
E0
  8
DEFAULT
 10
-3298.645209493146
 20
-2433.599999999999
 30
3.089670999194823
 70
    32
  0
VERTEX
  5
E1
  8
DEFAULT
 10
-3298.645209493146
 20
-2438.399999999999
 30
3.089679618195987
 70
    32
  0
VERTEX
  5
E2
  8
DEFAULT
 10
-3270.145209493146
 20
-2438.399999999999
 30
3.089679618203263
 70
    32
  0
VERTEX
  5
E3
  8
DEFAULT
 10
-3270.145209493146
 20
-2433.599999999999
 30
3.089662380191157
 70
    32
  0
VERTEX
  5
E4
  8
DEFAULT
 10
-3270.145209493146
 20
-2428.600000295184
 30
3.089662380191157
 70
    32
  0
VERTEX
  5
E5
  8
DEFAULT
 10
-3272.645209493146
 20
-2428.600000295184
 30
3.089662380185928
 70
    32
  0
VERTEX
  5
E6
  8
DEFAULT
 10
-3272.645209493146
 20
-2422.599999977293
 30
3.08966238019093
 70
    32
  0
VERTEX
  5
E7
  8
DEFAULT
 10
-3264.645209493146
 20
-2422.599999977293
 30
3.089662380191612
 70
    32
  0
VERTEX
  5
E8
  8
DEFAULT
 10
-3264.645209493146
 20
-2428.600000295184
 30
3.089662380191612
 70
    32
  0
VERTEX
  5
E9
  8
DEFAULT
 10
-3267.145209493146
 20
-2428.600000295184
 30
3.089662380191385
 70
    32
  0
VERTEX
  5
EA
  8
DEFAULT
 10
-3267.145209493146
 20
-2433.599999999999
 30
3.089662380196614
 70
    32
  0
VERTEX
  5
EB
  8
DEFAULT
 10
-3267.145209493146
 20
-2438.399999999999
 30
3.089679618198488
 70
    32
  0
VERTEX
  5
EC
  8
DEFAULT
 10
-3238.645209493146
 20
-2438.399999999999
 30
3.089679618200762
 70
    32
  0
VERTEX
  5
ED
  8
DEFAULT
 10
-3238.645209493146
 20
-2433.599999999999
 30
3.089672563793101
 70
    32
  0
VERTEX
  5
EE
  8
DEFAULT
 10
-3188.645209622583
 20
-2433.599999999999
 30
3.089670999203918
 70
    32
  0
VERTEX
  5
EF
  8
DEFAULT
 10
-3188.645209622583
 20
-2438.399999999999
 30
3.089679618204627
 70
    32
  0
VERTEX
  5
F0
  8
DEFAULT
 10
-3160.145209622583
 20
-2438.399999999999
 30
3.089679618206901
 70
    32
  0
VERTEX
  5
F1
  8
DEFAULT
 10
-3160.145209622583
 20
-2433.599999999999
 30
3.089662380205027
 70
    32
  0
VERTEX
  5
F2
  8
DEFAULT
 10
-3160.145209622583
 20
-2428.600000295184
 30
3.089662380194795
 70
    32
  0
VERTEX
  5
F3
  8
DEFAULT
 10
-3162.645209622583
 20
-2428.600000295184
 30
3.089662380194568
 70
    32
  0
VERTEX
  5
F4
  8
DEFAULT
 10
-3162.645209622583
 20
-2422.599999977293
 30
3.089662380194568
 70
    32
  0
VERTEX
  5
F5
  8
DEFAULT
 10
-3154.645209622583
 20
-2422.599999977293
 30
3.08966238020048
 70
    32
  0
VERTEX
  5
F6
  8
DEFAULT
 10
-3154.645209622583
 20
-2428.600000295184
 30
3.08966238020048
 70
    32
  0
VERTEX
  5
F7
  8
DEFAULT
 10
-3157.145209622583
 20
-2428.600000295184
 30
3.089662380200252
 70
    32
  0
VERTEX
  5
F8
  8
DEFAULT
 10
-3157.145209622583
 20
-2433.599999999999
 30
3.089662380195023
 70
    32
  0
VERTEX
  5
F9
  8
DEFAULT
 10
-3157.145209622583
 20
-2438.399999999999
 30
3.089679618207356
 70
    32
  0
VERTEX
  5
FA
  8
DEFAULT
 10
-3128.645209622583
 20
-2438.399999999999
 30
3.08967961820963
 70
    32
  0
VERTEX
  5
FB
  8
DEFAULT
 10
-3128.645209622583
 20
-2433.599999999999
 30
3.089670999203463
 70
    32
  0
VERTEX
  5
FC
  8
DEFAULT
 10
-3108.645209622583
 20
-2433.599999999999
 30
3.089662380204118
 70
    32
  0
VERTEX
  5
FD
  8
DEFAULT
 10
-3108.645209622583
 20
-2033.599999999999
 30
3.089662380204118
 70
    32
  0
VERTEX
  5
FE
  8
DEFAULT
 10
-3128.645209622583
 20
-2033.599999999999
 30
3.089662380202526
 70
    32
  0
VERTEX
  5
FF
  8
DEFAULT
 10
-3128.645209622583
 20
-2028.799999999999
 30
3.08967961820963
 70
    32
  0
VERTEX
  5
100
  8
DEFAULT
 10
-3157.145209622583
 20
-2028.799999999999
 30
3.089679618207356
 70
    32
  0
VERTEX
  5
101
  8
DEFAULT
 10
-3157.145209622583
 20
-2033.599999999999
 30
3.089662380200252
 70
    32
  0
VERTEX
  5
102
  8
DEFAULT
 10
-3157.145209622583
 20
-2038.599999704814
 30
3.089662380200252
 70
    32
  0
VERTEX
  5
103
  8
DEFAULT
 10
-3154.645209622583
 20
-2038.599999704814
 30
3.08966238020048
 70
    32
  0
VERTEX
  5
104
  8
DEFAULT
 10
-3154.645209622583
 20
-2044.600000022705
 30
3.089662380195477
 70
    32
  0
VERTEX
  5
105
  8
DEFAULT
 10
-3162.645209622583
 20
-2044.600000022705
 30
3.089662380194568
 70
    32
  0
VERTEX
  5
106
  8
DEFAULT
 10
-3162.645209622583
 20
-2038.599999704814
 30
3.089662380194568
 70
    32
  0
VERTEX
  5
107
  8
DEFAULT
 10
-3160.145209622583
 20
-2038.599999704814
 30
3.089662380194795
 70
    32
  0
VERTEX
  5
108
  8
DEFAULT
 10
-3160.145209622583
 20
-2033.599999999999
 30
3.089662380200025
 70
    32
  0
VERTEX
  5
109
  8
DEFAULT
 10
-3160.145209622583
 20
-2028.799999999999
 30
3.089679618206901
 70
    32
  0
VERTEX
  5
10A
  8
DEFAULT
 10
-3188.645209622583
 20
-2028.799999999999
 30
3.089679618204627
 70
    32
  0
VERTEX
  5
10B
  8
DEFAULT
 10
-3188.645209622583
 20
-2033.599999999999
 30
3.089662380197751
 70
    32
  0
VERTEX
  5
10C
  8
DEFAULT
 10
-3238.645209493146
 20
-2033.599999999999
 30
3.089662380188656
 70
    32
  0
VERTEX
  5
10D
  8
DEFAULT
 10
-3238.645209493146
 20
-2028.799999999999
 30
3.089679618200535
 70
    32
  0
VERTEX
  5
10E
  8
DEFAULT
 10
-3267.145209493146
 20
-2028.799999999999
 30
3.089679618198488
 70
    32
  0
VERTEX
  5
10F
  8
DEFAULT
 10
-3267.145209493146
 20
-2033.599999999999
 30
3.089662380191385
 70
    32
  0
VERTEX
  5
110
  8
DEFAULT
 10
-3267.145209493146
 20
-2038.599999704814
 30
3.089662380191385
 70
    32
  0
VERTEX
  5
111
  8
DEFAULT
 10
-3264.645209493146
 20
-2038.599999704814
 30
3.089662380191612
 70
    32
  0
VERTEX
  5
112
  8
DEFAULT
 10
-3264.645209493146
 20
-2044.600000022705
 30
3.089662380191612
 70
    32
  0
VERTEX
  5
113
  8
DEFAULT
 10
-3272.645209493146
 20
-2044.600000022705
 30
3.08966238019093
 70
    32
  0
VERTEX
  5
114
  8
DEFAULT
 10
-3272.645209493146
 20
-2038.599999704814
 30
3.08966238019093
 70
    32
  0
VERTEX
  5
115
  8
DEFAULT
 10
-3270.145209493146
 20
-2038.599999704814
 30
3.089662380191157
 70
    32
  0
VERTEX
  5
116
  8
DEFAULT
 10
-3270.145209493146
 20
-2033.599999999999
 30
3.089662380191157
 70
    32
  0
VERTEX
  5
117
  8
DEFAULT
 10
-3270.145209493146
 20
-2028.799999999999
 30
3.089679618203263
 70
    32
  0
VERTEX
  5
118
  8
DEFAULT
 10
-3298.645209493146
 20
-2028.799999999999
 30
3.089679618195987
 70
    32
  0
VERTEX
  5
119
  8
DEFAULT
 10
-3298.645209493146
 20
-2033.599999999999
 30
3.089670999194823
 70
    32
  0
VERTEX
  5
11A
  8
DEFAULT
 10
-3348.645209622583
 20
-2033.599999999999
 30
3.089679618191894
 70
    32
  0
VERTEX
  5
11B
  8
DEFAULT
 10
-3348.645209622583
 20
-2028.799999999999
 30
3.089679618191894
 70
    32
  0
VERTEX
  5
11C
  8
DEFAULT
 10
-3377.145209622582
 20
-2028.799999999999
 30
3.089679618189621
 70
    32
  0
VERTEX
  5
11D
  8
DEFAULT
 10
-3377.145209622582
 20
-2033.599999999999
 30
3.089679618189621
 70
    32
  0
VERTEX
  5
11E
  8
DEFAULT
 10
-3377.145209622582
 20
-2038.599999704814
 30
3.089662380182517
 70
    32
  0
VERTEX
  5
11F
  8
DEFAULT
 10
-3374.645209622583
 20
-2038.599999704814
 30
3.089662380182745
 70
    32
  0
VERTEX
  5
120
  8
DEFAULT
 10
-3374.645209622583
 20
-2044.600000022705
 30
3.089662380182745
 70
    32
  0
VERTEX
  5
121
  8
DEFAULT
 10
-3382.645209622582
 20
-2044.600000022705
 30
3.08966238018229
 70
    32
  0
VERTEX
  5
122
  8
DEFAULT
 10
-3382.645209622582
 20
-2038.599999704814
 30
3.089662380187292
 70
    32
  0
VERTEX
  5
123
  8
DEFAULT
 10
-3380.145209622582
 20
-2038.599999704814
 30
3.08966238018229
 70
    32
  0
VERTEX
  5
124
  8
DEFAULT
 10
-3380.145209622582
 20
-2033.599999999999
 30
3.089679618189393
 70
    32
  0
VERTEX
  5
125
  8
DEFAULT
 10
-3380.145209622582
 20
-2028.799999999999
 30
3.089679618189393
 70
    32
  0
SEQEND
  5
126
  8
DEFAULT
  0
POLYLINE
  5
127
  8
DEFAULT
 66
     1
 10
0.0
 20
0.0
 30
3.419737249663513
 70
     1
  0
VERTEX
  5
128
  8
DEFAULT
 10
-2598.645209622583
 20
-2203.599999999999
 30
3.419737249663513
  0
VERTEX
  5
129
  8
DEFAULT
 10
-2648.645209622583
 20
-2203.599999999999
 30
3.419737249663513
  0
VERTEX
  5
12A
  8
DEFAULT
 10
-2648.645209622583
 20
-2198.8
 30
3.419737249663513
  0
VERTEX
  5
12B
  8
DEFAULT
 10
-2598.645209622583
 20
-2198.8
 30
3.419737249663513
  0
SEQEND
  5
12C
  8
DEFAULT
  0
POLYLINE
  5
12D
  8
DEFAULT
 66
     1
 10
0.0
 20
0.0
 30
3.419737249581431
 70
     1
  0
VERTEX
  5
12E
  8
DEFAULT
 10
-2758.645209622583
 20
-2203.599999999999
 30
3.419737249581431
  0
VERTEX
  5
12F
  8
DEFAULT
 10
-2808.645209622583
 20
-2203.599999999999
 30
3.419737249581431
  0
VERTEX
  5
130
  8
DEFAULT
 10
-2808.645209622583
 20
-2198.8
 30
3.419737249581431
  0
VERTEX
  5
131
  8
DEFAULT
 10
-2758.645209622583
 20
-2198.8
 30
3.419737249581431
  0
SEQEND
  5
132
  8
DEFAULT
  0
POLYLINE
  5
133
  8
DEFAULT
 66
     1
 10
0.0
 20
0.0
 30
3.419737249581431
 70
     1
  0
VERTEX
  5
134
  8
DEFAULT
 10
-2678.645209622583
 20
-2203.599999999999
 30
3.419737249581431
  0
VERTEX
  5
135
  8
DEFAULT
 10
-2728.645209622583
 20
-2203.599999999999
 30
3.419737249581431
  0
VERTEX
  5
136
  8
DEFAULT
 10
-2728.645209622583
 20
-2198.8
 30
3.419737249581431
  0
VERTEX
  5
137
  8
DEFAULT
 10
-2678.645209622583
 20
-2198.8
 30
3.419737249581431
  0
SEQEND
  5
138
  8
DEFAULT
  0
POLYLINE
  5
139
  8
DEFAULT
 66
     1
 10
0.0
 20
0.0
 30
3.419737249663513
 70
     1
  0
VERTEX
  5
13A
  8
DEFAULT
 10
-2602.953200971889
 20
-1981.302111530957
 30
3.419737249663513
  0
VERTEX
  5
13B
  8
DEFAULT
 10
-2645.379607843081
 20
-2023.72851840215
 30
3.419737249663513
  0
VERTEX
  5
13C
  8
DEFAULT
 10
-2648.773720392777
 20
-2020.334405852455
 30
3.419737249663513
  0
VERTEX
  5
13D
  8
DEFAULT
 10
-2606.347313521585
 20
-1977.907998981262
 30
3.419737249663513
  0
SEQEND
  5
13E
  8
DEFAULT
  0
POLYLINE
  5
13F
  8
DEFAULT
 66
     1
 10
0.0
 20
0.0
 30
3.419737249581431
 70
     1
  0
VERTEX
  5
140
  8
DEFAULT
 10
-2680.734946810884
 20
-2059.083857369953
 30
3.419737249581431
  0
VERTEX
  5
141
  8
DEFAULT
 10
-2723.161353682077
 20
-2101.510264241146
 30
3.419737249581431
  0
VERTEX
  5
142
  8
DEFAULT
 10
-2726.555466231773
 20
-2098.11615169145
 30
3.419737249581431
  0
VERTEX
  5
143
  8
DEFAULT
 10
-2684.12905936058
 20
-2055.689744820258
 30
3.419737249581431
  0
SEQEND
  5
144
  8
DEFAULT
  0
POLYLINE
  5
145
  8
DEFAULT
 66
     1
 10
0.0
 20
0.0
 30
3.419737249581431
 70
     1
  0
VERTEX
  5
146
  8
DEFAULT
 10
-2758.51669283293
 20
-2136.865603391998
 30
3.419737249581431
  0
VERTEX
  5
147
  8
DEFAULT
 10
-2800.943099704123
 20
-2179.292010263191
 30
3.419737249581431
  0
VERTEX
  5
148
  8
DEFAULT
 10
-2804.337212253818
 20
-2175.897897713495
 30
3.419737249581431
  0
VERTEX
  5
149
  8
DEFAULT
 10
-2761.910805382625
 20
-2133.471490842303
 30
3.419737249581431
  0
SEQEND
  5
14A
  8
DEFAULT
  0
POLYLINE
  5
14B
  8
DEFAULT
 66
     1
 10
0.0
 20
0.0
 30
3.419737249581431
 70
     1
  0
VERTEX
  5
14C
  8
DEFAULT
 10
-2724.503073998853
 20
-2139.457864376269
 30
3.419737249581431
  0
VERTEX
  5
14D
  8
DEFAULT
 10
-2642.787345246314
 20
-2057.742135623731
 30
3.419737249581431
 42
-0.66817847861308
  0
VERTEX
  5
14E
  8
DEFAULT
 10
-2608.645209622583
 20
-2071.884271247462
 30
3.419737249581431
  0
VERTEX
  5
14F
  8
DEFAULT
 10
-2608.645209622583
 20
-2153.6
 30
3.419737249581431
 42
-0.4142133648607317
  0
VERTEX
  5
150
  8
DEFAULT
 10
-2628.645209622584
 20
-2173.6
 30
3.419737249581431
  0
VERTEX
  5
151
  8
DEFAULT
 10
-2710.360938375122
 20
-2173.599999999998
 30
3.419737249581431
 42
-0.6681783193070511
  0
SEQEND
  5
152
  8
DEFAULT
  0
POLYLINE
  5
153
  8
DEFAULT
 66
     1
 10
0.0
 20
0.0
 30
3.419737249581431
 70
     1
  0
VERTEX
  5
154
  8
DEFAULT
 10
-2776.145209622583
 20
-1953.599999999999
 30
3.419737249581431
  0
VERTEX
  5
155
  8
DEFAULT
 10
-2818.645209622583
 20
-1953.599999999999
 30
3.419737249581431
 42
0.4142135623730848
  0
VERTEX
  5
156
  8
DEFAULT
 10
-2828.645209622583
 20
-1963.599999999999
 30
3.419737249581431
  0
VERTEX
  5
157
  8
DEFAULT
 10
-2828.645209622583
 20
-2203.599999999999
 30
3.419737249581431
 42
0.4142135623730884
  0
VERTEX
  5
158
  8
DEFAULT
 10
-2808.645209622583
 20
-2223.599999999999
 30
3.419737249581431
  0
VERTEX
  5
159
  8
DEFAULT
 10
-2598.645209622583
 20
-2223.599999999999
 30
3.419737249581431
 42
0.4142135623730998
  0
VERTEX
  5
15A
  8
DEFAULT
 10
-2578.645209622583
 20
-2203.599999999999
 30
3.419737249581431
  0
VERTEX
  5
15B
  8
DEFAULT
 10
-2578.645209622584
 20
-1963.599999999999
 30
3.419737249581431
 42
0.4142135623731126
  0
VERTEX
  5
15C
  8
DEFAULT
 10
-2588.645209622583
 20
-1953.6
 30
3.419737249581431
  0
VERTEX
  5
15D
  8
DEFAULT
 10
-2631.145209622584
 20
-1953.599999999999
 30
3.419737249581431
 42
0.4142135623730748
  0
VERTEX
  5
15E
  8
DEFAULT
 10
-2641.145209622583
 20
-1963.599999999999
 30
3.419737249581431
  0
VERTEX
  5
15F
  8
DEFAULT
 10
-2641.145209622583
 20
-1973.599999999999
 30
3.419737249581431
 42
-0.4142135623730951
  0
VERTEX
  5
160
  8
DEFAULT
 10
-2671.145209622583
 20
-2003.599999999999
 30
3.419737249581431
  0
VERTEX
  5
161
  8
DEFAULT
 10
-2736.145209622583
 20
-2003.599999999999
 30
3.419737249581431
 42
-0.4142134636169062
  0
VERTEX
  5
162
  8
DEFAULT
 10
-2766.145209622583
 20
-1973.6
 30
3.419737249581431
  0
VERTEX
  5
163
  8
DEFAULT
 10
-2766.145209622583
 20
-1963.599999999999
 30
3.419737249581431
 42
0.4142135623731028
  0
SEQEND
  5
164
  8
DEFAULT
  0
POLYLINE
  5
165
  8
DEFAULT
 66
     1
 10
0.0
 20
0.0
 30
-0.3341321534508097
 70
     1
  0
VERTEX
  5
166
  8
DEFAULT
 10
-2598.645209622583
 20
-2493.6
 30
-0.3341321534508097
  0
VERTEX
  5
167
  8
DEFAULT
 10
-2648.645209622583
 20
-2493.6
 30
-0.3341321534508097
  0
VERTEX
  5
168
  8
DEFAULT
 10
-2648.645209622583
 20
-2488.8
 30
-0.3341321534508097
  0
VERTEX
  5
169
  8
DEFAULT
 10
-2598.645209622583
 20
-2488.8
 30
-0.3341321534508097
  0
SEQEND
  5
16A
  8
DEFAULT
  0
POLYLINE
  5
16B
  8
DEFAULT
 66
     1
 10
0.0
 20
0.0
 30
-0.334132153533119
 70
     1
  0
VERTEX
  5
16C
  8
DEFAULT
 10
-2758.645209622583
 20
-2493.6
 30
-0.334132153533119
  0
VERTEX
  5
16D
  8
DEFAULT
 10
-2808.645209622583
 20
-2493.6
 30
-0.334132153533119
  0
VERTEX
  5
16E
  8
DEFAULT
 10
-2808.645209622583
 20
-2488.8
 30
-0.334132153533119
  0
VERTEX
  5
16F
  8
DEFAULT
 10
-2758.645209622583
 20
-2488.8
 30
-0.334132153533119
  0
SEQEND
  5
170
  8
DEFAULT
  0
POLYLINE
  5
171
  8
DEFAULT
 66
     1
 10
0.0
 20
0.0
 30
-0.334132153533119
 70
     1
  0
VERTEX
  5
172
  8
DEFAULT
 10
-2678.645209622583
 20
-2493.6
 30
-0.334132153533119
  0
VERTEX
  5
173
  8
DEFAULT
 10
-2728.645209622583
 20
-2493.6
 30
-0.334132153533119
  0
VERTEX
  5
174
  8
DEFAULT
 10
-2728.645209622583
 20
-2488.8
 30
-0.334132153533119
  0
VERTEX
  5
175
  8
DEFAULT
 10
-2678.645209622583
 20
-2488.8
 30
-0.334132153533119
  0
SEQEND
  5
176
  8
DEFAULT
  0
POLYLINE
  5
177
  8
DEFAULT
 66
     1
 10
0.0
 20
0.0
 30
-0.3341321534508097
 70
     1
  0
VERTEX
  5
178
  8
DEFAULT
 10
-2602.953200971889
 20
-2271.302111530958
 30
-0.3341321534508097
  0
VERTEX
  5
179
  8
DEFAULT
 10
-2645.379607843081
 20
-2313.728518402151
 30
-0.3341321534508097
  0
VERTEX
  5
17A
  8
DEFAULT
 10
-2648.773720392777
 20
-2310.334405852455
 30
-0.3341321534508097
  0
VERTEX
  5
17B
  8
DEFAULT
 10
-2606.347313521585
 20
-2267.907998981263
 30
-0.3341321534508097
  0
SEQEND
  5
17C
  8
DEFAULT
  0
POLYLINE
  5
17D
  8
DEFAULT
 66
     1
 10
0.0
 20
0.0
 30
-0.334132153533119
 70
     1
  0
VERTEX
  5
17E
  8
DEFAULT
 10
-2680.734946810884
 20
-2349.083857369953
 30
-0.334132153533119
  0
VERTEX
  5
17F
  8
DEFAULT
 10
-2723.161353682077
 20
-2391.510264241146
 30
-0.334132153533119
  0
VERTEX
  5
180
  8
DEFAULT
 10
-2726.555466231773
 20
-2388.116151691451
 30
-0.334132153533119
  0
VERTEX
  5
181
  8
DEFAULT
 10
-2684.12905936058
 20
-2345.689744820258
 30
-0.334132153533119
  0
SEQEND
  5
182
  8
DEFAULT
  0
POLYLINE
  5
183
  8
DEFAULT
 66
     1
 10
0.0
 20
0.0
 30
-0.334132153533119
 70
     1
  0
VERTEX
  5
184
  8
DEFAULT
 10
-2758.51669283293
 20
-2426.865603391999
 30
-0.334132153533119
  0
VERTEX
  5
185
  8
DEFAULT
 10
-2800.943099704123
 20
-2469.292010263192
 30
-0.334132153533119
  0
VERTEX
  5
186
  8
DEFAULT
 10
-2804.337212253818
 20
-2465.897897713496
 30
-0.334132153533119
  0
VERTEX
  5
187
  8
DEFAULT
 10
-2761.910805382625
 20
-2423.471490842303
 30
-0.334132153533119
  0
SEQEND
  5
188
  8
DEFAULT
  0
POLYLINE
  5
189
  8
DEFAULT
 66
     1
 10
0.0
 20
0.0
 30
-0.334132153533119
 70
     1
  0
VERTEX
  5
18A
  8
DEFAULT
 10
-2724.503073998853
 20
-2429.457864376269
 30
-0.334132153533119
  0
VERTEX
  5
18B
  8
DEFAULT
 10
-2642.787345246315
 20
-2347.742135623731
 30
-0.334132153533119
 42
-0.6681784786130738
  0
VERTEX
  5
18C
  8
DEFAULT
 10
-2608.645209622583
 20
-2361.884271247462
 30
-0.334132153533119
  0
VERTEX
  5
18D
  8
DEFAULT
 10
-2608.645209622584
 20
-2443.6
 30
-0.334132153533119
 42
-0.4142133648607308
  0
VERTEX
  5
18E
  8
DEFAULT
 10
-2628.645209622584
 20
-2463.6
 30
-0.334132153533119
  0
VERTEX
  5
18F
  8
DEFAULT
 10
-2710.360938375122
 20
-2463.600000000001
 30
-0.334132153533119
 42
-0.6681783193070068
  0
SEQEND
  5
190
  8
DEFAULT
  0
POLYLINE
  5
191
  8
DEFAULT
 66
     1
 10
0.0
 20
0.0
 30
-0.334132153533119
 70
     1
  0
VERTEX
  5
192
  8
DEFAULT
 10
-2776.145209622583
 20
-2243.6
 30
-0.334132153533119
  0
VERTEX
  5
193
  8
DEFAULT
 10
-2818.645209622583
 20
-2243.6
 30
-0.334132153533119
 42
0.4142135623731084
  0
VERTEX
  5
194
  8
DEFAULT
 10
-2828.645209622583
 20
-2253.6
 30
-0.334132153533119
  0
VERTEX
  5
195
  8
DEFAULT
 10
-2828.645209622583
 20
-2493.6
 30
-0.334132153533119
 42
0.4142135623730998
  0
VERTEX
  5
196
  8
DEFAULT
 10
-2808.645209622583
 20
-2513.6
 30
-0.334132153533119
  0
VERTEX
  5
197
  8
DEFAULT
 10
-2598.645209622583
 20
-2513.6
 30
-0.334132153533119
 42
0.4142135623730998
  0
VERTEX
  5
198
  8
DEFAULT
 10
-2578.645209622583
 20
-2493.6
 30
-0.334132153533119
  0
VERTEX
  5
199
  8
DEFAULT
 10
-2578.645209622583
 20
-2253.6
 30
-0.334132153533119
 42
0.4142135623728287
  0
VERTEX
  5
19A
  8
DEFAULT
 10
-2588.645209622583
 20
-2243.6
 30
-0.334132153533119
  0
VERTEX
  5
19B
  8
DEFAULT
 10
-2631.145209622584
 20
-2243.6
 30
-0.334132153533119
 42
0.4142135623730701
  0
VERTEX
  5
19C
  8
DEFAULT
 10
-2641.145209622583
 20
-2253.6
 30
-0.334132153533119
  0
VERTEX
  5
19D
  8
DEFAULT
 10
-2641.145209622583
 20
-2263.6
 30
-0.334132153533119
 42
-0.4142135623730938
  0
VERTEX
  5
19E
  8
DEFAULT
 10
-2671.145209622583
 20
-2293.6
 30
-0.334132153533119
  0
VERTEX
  5
19F
  8
DEFAULT
 10
-2736.145209622583
 20
-2293.6
 30
-0.334132153533119
 42
-0.4142134636167792
  0
VERTEX
  5
1A0
  8
DEFAULT
 10
-2766.145209622583
 20
-2263.6
 30
-0.334132153533119
  0
VERTEX
  5
1A1
  8
DEFAULT
 10
-2766.145209622583
 20
-2253.6
 30
-0.334132153533119
 42
0.4142135623731256
  0
SEQEND
  5
1A2
  8
DEFAULT
  0
ENDSEC
  0
EOF
